  0
SECTION
  2
HEADER
  9
$ACADVER
  1
AC1014
  9
$ACADMAINTVER
 70
     9
  9
$DWGCODEPAGE
  3
ANSI_1252
  9
$INSBASE
 10
0.0
 20
0.0
 30
0.0
  9
$EXTMIN
 10
1.000000000000000E+20
 20
1.000000000000000E+20
 30
1.000000000000000E+20
  9
$EXTMAX
 10
-1.000000000000000E+20
 20
-1.000000000000000E+20
 30
-1.000000000000000E+20
  9
$LIMMIN
 10
0.0
 20
0.0
  9
$LIMMAX
 10
12.0
 20
9.0
  9
$ORTHOMODE
 70
     0
  9
$REGENMODE
 70
     1
  9
$FILLMODE
 70
     1
  9
$QTEXTMODE
 70
     0
  9
$MIRRTEXT
 70
     1
  9
$DRAGMODE
 70
     2
  9
$LTSCALE
 40
1.0
  9
$OSMODE
 70
    37
  9
$ATTMODE
 70
     1
  9
$TEXTSIZE
 40
0.2
  9
$TRACEWID
 40
0.05
  9
$TEXTSTYLE
  7
STANDARD
  9
$CLAYER
  8
0
  9
$CELTYPE
  6
BYLAYER
  9
$CECOLOR
 62
   256
  9
$CELTSCALE
 40
1.0
  9
$DELOBJ
 70
     1
  9
$DISPSILH
 70
     0
  9
$DIMSCALE
 40
1.0
  9
$DIMASZ
 40
0.18
  9
$DIMEXO
 40
0.0625
  9
$DIMDLI
 40
0.38
  9
$DIMRND
 40
0.0
  9
$DIMDLE
 40
0.0
  9
$DIMEXE
 40
0.18
  9
$DIMTP
 40
0.0
  9
$DIMTM
 40
0.0
  9
$DIMTXT
 40
0.18
  9
$DIMCEN
 40
0.09
  9
$DIMTSZ
 40
0.0
  9
$DIMTOL
 70
     0
  9
$DIMLIM
 70
     0
  9
$DIMTIH
 70
     1
  9
$DIMTOH
 70
     1
  9
$DIMSE1
 70
     0
  9
$DIMSE2
 70
     0
  9
$DIMTAD
 70
     0
  9
$DIMZIN
 70
     0
  9
$DIMBLK
  1

  9
$DIMASO
 70
     1
  9
$DIMSHO
 70
     1
  9
$DIMPOST
  1

  9
$DIMAPOST
  1

  9
$DIMALT
 70
     0
  9
$DIMALTD
 70
     2
  9
$DIMALTF
 40
25.4
  9
$DIMLFAC
 40
1.0
  9
$DIMTOFL
 70
     0
  9
$DIMTVP
 40
0.0
  9
$DIMTIX
 70
     0
  9
$DIMSOXD
 70
     0
  9
$DIMSAH
 70
     0
  9
$DIMBLK1
  1

  9
$DIMBLK2
  1

  9
$DIMSTYLE
  2
STANDARD
  9
$DIMCLRD
 70
     0
  9
$DIMCLRE
 70
     0
  9
$DIMCLRT
 70
     0
  9
$DIMTFAC
 40
1.0
  9
$DIMGAP
 40
0.09
  9
$DIMJUST
 70
     0
  9
$DIMSD1
 70
     0
  9
$DIMSD2
 70
     0
  9
$DIMTOLJ
 70
     1
  9
$DIMTZIN
 70
     0
  9
$DIMALTZ
 70
     0
  9
$DIMALTTZ
 70
     0
  9
$DIMFIT
 70
     3
  9
$DIMUPT
 70
     0
  9
$DIMUNIT
 70
     2
  9
$DIMDEC
 70
     4
  9
$DIMTDEC
 70
     4
  9
$DIMALTU
 70
     2
  9
$DIMALTTD
 70
     2
  9
$DIMTXSTY
  7
STANDARD
  9
$DIMAUNIT
 70
     0
  9
$LUNITS
 70
     2
  9
$LUPREC
 70
     4
  9
$SKETCHINC
 40
0.1
  9
$FILLETRAD
 40
0.5
  9
$AUNITS
 70
     0
  9
$AUPREC
 70
     0
  9
$MENU
  1
.
  9
$ELEVATION
 40
0.0
  9
$PELEVATION
 40
0.0
  9
$THICKNESS
 40
0.0
  9
$LIMCHECK
 70
     0
  9
$CHAMFERA
 40
0.0
  9
$CHAMFERB
 40
0.0
  9
$CHAMFERC
 40
0.0
  9
$CHAMFERD
 40
0.0
  9
$SKPOLY
 70
     0
  9
$TDCREATE
 40
2460995.613150174
  9
$TDUPDATE
 40
2460995.613150405
  9
$TDINDWG
 40
0.0000000116
  9
$TDUSRTIMER
 40
0.0000000116
  9
$USRTIMER
 70
     1
  9
$ANGBASE
 50
0.0
  9
$ANGDIR
 70
     0
  9
$PDMODE
 70
     0
  9
$PDSIZE
 40
0.0
  9
$PLINEWID
 40
0.0
  9
$COORDS
 70
     1
  9
$SPLFRAME
 70
     0
  9
$SPLINETYPE
 70
     6
  9
$SPLINESEGS
 70
     8
  9
$ATTDIA
 70
     0
  9
$ATTREQ
 70
     1
  9
$HANDLING
 70
     1
  9
$HANDSEED
  5
5EF
  9
$SURFTAB1
 70
     6
  9
$SURFTAB2
 70
     6
  9
$SURFTYPE
 70
     6
  9
$SURFU
 70
     6
  9
$SURFV
 70
     6
  9
$UCSNAME
  2

  9
$UCSORG
 10
0.0
 20
0.0
 30
0.0
  9
$UCSXDIR
 10
1.0
 20
0.0
 30
0.0
  9
$UCSYDIR
 10
0.0
 20
1.0
 30
0.0
  9
$PUCSNAME
  2

  9
$PUCSORG
 10
0.0
 20
0.0
 30
0.0
  9
$PUCSXDIR
 10
1.0
 20
0.0
 30
0.0
  9
$PUCSYDIR
 10
0.0
 20
1.0
 30
0.0
  9
$USERI1
 70
     0
  9
$USERI2
 70
     0
  9
$USERI3
 70
     0
  9
$USERI4
 70
     0
  9
$USERI5
 70
     0
  9
$USERR1
 40
0.0
  9
$USERR2
 40
0.0
  9
$USERR3
 40
0.0
  9
$USERR4
 40
0.0
  9
$USERR5
 40
0.0
  9
$WORLDVIEW
 70
     1
  9
$SHADEDGE
 70
     3
  9
$SHADEDIF
 70
    70
  9
$TILEMODE
 70
     1
  9
$MAXACTVP
 70
    64
  9
$PINSBASE
 10
0.0
 20
0.0
 30
0.0
  9
$PLIMCHECK
 70
     0
  9
$PEXTMIN
 10
1.000000000000000E+20
 20
1.000000000000000E+20
 30
1.000000000000000E+20
  9
$PEXTMAX
 10
-1.000000000000000E+20
 20
-1.000000000000000E+20
 30
-1.000000000000000E+20
  9
$PLIMMIN
 10
0.0
 20
0.0
  9
$PLIMMAX
 10
12.0
 20
9.0
  9
$UNITMODE
 70
     0
  9
$VISRETAIN
 70
     1
  9
$PLINEGEN
 70
     0
  9
$PSLTSCALE
 70
     1
  9
$TREEDEPTH
 70
  3020
  9
$PICKSTYLE
 70
     1
  9
$CMLSTYLE
  2
STANDARD
  9
$CMLJUST
 70
     0
  9
$CMLSCALE
 40
1.0
  9
$PROXYGRAPHICS
 70
     1
  9
$MEASUREMENT
 70
     1
  0
ENDSEC
  0
SECTION
  2
CLASSES
  0
CLASS
  1
ACDBDICTIONARYWDFLT
  2
AcDbDictionaryWithDefault
  3
ObjectDBX Classes
 90
        0
280
     0
281
     0
  0
CLASS
  1
VISUALSTYLE
  2
AcDbVisualStyle
  3
ObjectDBX Classes
 90
     4095
280
     0
281
     0
  0
CLASS
  1
MATERIAL
  2
AcDbMaterial
  3
ObjectDBX Classes
 90
     1153
280
     0
281
     0
  0
CLASS
  1
SCALE
  2
AcDbScale
  3
ObjectDBX Classes
 90
     1153
280
     0
281
     0
  0
CLASS
  1
TABLESTYLE
  2
AcDbTableStyle
  3
ObjectDBX Classes
 90
     4095
280
     0
281
     0
  0
CLASS
  1
MLEADERSTYLE
  2
AcDbMLeaderStyle
  3
ACDB_MLEADERSTYLE_CLASS
 90
     4095
280
     0
281
     0
  0
CLASS
  1
SUN
  2
AcDbSun
  3
SCENEOE
 90
     1153
280
     0
281
     0
  0
CLASS
  1
DICTIONARYVAR
  2
AcDbDictionaryVar
  3
ObjectDBX Classes
 90
        0
280
     0
281
     0
  0
CLASS
  1
XRECORD
  2
AcDbXrecord
  3
ObjectDBX Classes
 90
        0
280
     0
281
     0
  0
CLASS
  1
LWPOLYLINE
  2
AcDbPolyline
  3
ObjectDBX Classes
 90
        0
280
     0
281
     1
  0
CLASS
  1
HATCH
  2
AcDbHatch
  3
ObjectDBX Classes
 90
        0
280
     0
281
     1
  0
CLASS
  1
ACDBPLACEHOLDER
  2
AcDbPlaceHolder
  3
ObjectDBX Classes
 90
        0
280
     0
281
     0
  0
CLASS
  1
LAYOUT
  2
AcDbLayout
  3
ObjectDBX Classes
 90
        0
280
     0
281
     0
  0
ENDSEC
  0
SECTION
  2
TABLES
  0
TABLE
  2
VPORT
  5
8
102
{ACAD_XDICTIONARY
360
5E4
102
}
330
0
100
AcDbSymbolTable
 70
     1
  0
VPORT
  5
29
330
8
100
AcDbSymbolTableRecord
100
AcDbViewportTableRecord
  2
*ACTIVE
 70
     0
 10
0.0
 20
0.0
 11
1.0
 21
1.0
 12
0.0
 22
0.0
 13
0.0
 23
0.0
 14
0.5
 24
0.5
 15
0.5
 25
0.5
 16
0.0
 26
0.0
 36
1.0
 17
0.0
 27
0.0
 37
-1000.0
 40
550.3839011800195
 41
2.082608695652175
 42
50.0
 43
666.7749492139495
 44
959.4871601503894
 50
0.0
 51
0.0
 71
     0
 72
   100
 73
     1
 74
     3
 75
     0
 76
     0
 77
     0
 78
     0
  0
ENDTAB
  0
TABLE
  2
LTYPE
  5
5
330
0
100
AcDbSymbolTable
 70
     1
  0
LTYPE
  5
14
330
5
100
AcDbSymbolTableRecord
100
AcDbLinetypeTableRecord
  2
BYBLOCK
 70
     0
  3

 72
    65
 73
     0
 40
0.0
  0
LTYPE
  5
15
330
5
100
AcDbSymbolTableRecord
100
AcDbLinetypeTableRecord
  2
BYLAYER
 70
     0
  3

 72
    65
 73
     0
 40
0.0
  0
LTYPE
  5
16
330
5
100
AcDbSymbolTableRecord
100
AcDbLinetypeTableRecord
  2
CONTINUOUS
 70
     0
  3
Solid line
 72
    65
 73
     0
 40
0.0
  0
ENDTAB
  0
TABLE
  2
LAYER
  5
2
330
0
100
AcDbSymbolTable
 70
     3
  0
LAYER
  5
10
330
2
100
AcDbSymbolTableRecord
100
AcDbLayerTableRecord
  2
0
 70
     0
 62
     7
  6
CONTINUOUS
  0
LAYER
  5
6E
330
2
100
AcDbSymbolTableRecord
100
AcDbLayerTableRecord
  2
PROFILEEDGES
 70
     0
 62
     7
  6
CONTINUOUS
  0
LAYER
  5
6F
330
2
100
AcDbSymbolTableRecord
100
AcDbLayerTableRecord
  2
SECTIONCUTEDGES
 70
     0
 62
     7
  6
CONTINUOUS
  0
ENDTAB
  0
TABLE
  2
STYLE
  5
3
330
0
100
AcDbSymbolTable
 70
     1
  0
STYLE
  5
11
330
3
100
AcDbSymbolTableRecord
100
AcDbTextStyleTableRecord
  2
STANDARD
 70
     0
 40
0.0
 41
1.0
 50
0.0
 71
     0
 42
0.2
  3
txt
  4

  0
ENDTAB
  0
TABLE
  2
VIEW
  5
6
330
0
100
AcDbSymbolTable
 70
     0
  0
ENDTAB
  0
TABLE
  2
UCS
  5
7
330
0
100
AcDbSymbolTable
 70
     0
  0
ENDTAB
  0
TABLE
  2
APPID
  5
9
330
0
100
AcDbSymbolTable
 70
     2
  0
APPID
  5
12
330
9
100
AcDbSymbolTableRecord
100
AcDbRegAppTableRecord
  2
ACAD
 70
     0
  0
APPID
  5
5EE
330
9
100
AcDbSymbolTableRecord
100
AcDbRegAppTableRecord
  2
ACAD_MLEADERVER
 70
     0
  0
ENDTAB
  0
TABLE
  2
DIMSTYLE
  5
A
330
0
100
AcDbSymbolTable
 70
     1
  0
DIMSTYLE
105
27
330
A
100
AcDbSymbolTableRecord
100
AcDbDimStyleTableRecord
  2
STANDARD
 70
     0
  3

  4

  5

  6

  7

 40
1.0
 41
0.18
 42
0.0625
 43
0.38
 44
0.18
 45
0.0
 46
0.0
 47
0.0
 48
0.0
140
0.18
141
0.09
142
0.0
143
25.4
144
1.0
145
0.0
146
1.0
147
0.09
 71
     0
 72
     0
 73
     1
 74
     1
 75
     0
 76
     0
 77
     0
 78
     0
170
     0
171
     2
172
     0
173
     0
174
     0
175
     0
176
     0
177
     0
178
     0
270
     2
271
     4
272
     4
273
     2
274
     2
340
11
275
     0
280
     0
281
     0
282
     0
283
     1
284
     0
285
     0
286
     0
287
     3
288
     0
  0
ENDTAB
  0
TABLE
  2
BLOCK_RECORD
  5
1
330
0
100
AcDbSymbolTable
 70
     0
  0
BLOCK_RECORD
  5
1F
330
1
100
AcDbSymbolTableRecord
100
AcDbBlockTableRecord
  2
*MODEL_SPACE
  0
BLOCK_RECORD
  5
1B
330
1
100
AcDbSymbolTableRecord
100
AcDbBlockTableRecord
  2
*PAPER_SPACE
  0
ENDTAB
  0
ENDSEC
  0
SECTION
  2
BLOCKS
  0
BLOCK
  5
20
330
1F
100
AcDbEntity
  8
0
100
AcDbBlockBegin
  2
*MODEL_SPACE
 70
     0
 10
0.0
 20
0.0
 30
0.0
  3
*MODEL_SPACE
  1

  0
ENDBLK
  5
21
330
1F
100
AcDbEntity
  8
0
100
AcDbBlockEnd
  0
BLOCK
  5
1C
330
1B
100
AcDbEntity
 67
     1
  8
0
100
AcDbBlockBegin
  2
*PAPER_SPACE
 70
     0
 10
0.0
 20
0.0
 30
0.0
  3
*PAPER_SPACE
  1

  0
ENDBLK
  5
1D
330
1B
100
AcDbEntity
 67
     1
  8
0
100
AcDbBlockEnd
  0
ENDSEC
  0
SECTION
  2
ENTITIES
  0
LINE
  5
70
330
1F
100
AcDbEntity
  8
0
100
AcDbLine
 10
-178.1268437995622
 20
-106.4844059881541
 30
0.0
 11
-178.1268437995622
 21
-123.4844059881542
 31
0.0
  0
LINE
  5
71
330
1F
100
AcDbEntity
  8
0
100
AcDbLine
 10
124.873156200438
 20
-24.48440598815392
 30
0.0
 11
124.873156200438
 21
-21.48440598815406
 31
0.0
  0
LINE
  5
72
330
1F
100
AcDbEntity
  8
0
100
AcDbLine
 10
124.873156200438
 20
-24.48440598815392
 30
0.0
 11
99.87315620043788
 21
-24.48440598815392
 31
0.0
  0
LINE
  5
73
330
1F
100
AcDbEntity
  8
0
100
AcDbLine
 10
99.87315620043788
 20
-24.48440598815392
 30
0.0
 11
99.87315620043788
 21
-21.48440598815406
 31
0.0
  0
LINE
  5
74
330
1F
100
AcDbEntity
  8
0
100
AcDbLine
 10
99.87315620043788
 20
-21.48440598815406
 30
0.0
 11
74.87315620043788
 21
-21.48440598815406
 31
0.0
  0
LINE
  5
75
330
1F
100
AcDbEntity
  8
0
100
AcDbLine
 10
74.87315620043788
 20
-24.48440598815392
 30
0.0
 11
74.87315620043788
 21
-21.48440598815406
 31
0.0
  0
LINE
  5
76
330
1F
100
AcDbEntity
  8
0
100
AcDbLine
 10
49.87315620043778
 20
-24.48440598815392
 30
0.0
 11
49.87315620043778
 21
-21.48440598815406
 31
0.0
  0
LINE
  5
77
330
1F
100
AcDbEntity
  8
0
100
AcDbLine
 10
49.87315620043778
 20
-21.48440598815406
 30
0.0
 11
24.87315620043788
 21
-21.48440598815406
 31
0.0
  0
LINE
  5
78
330
1F
100
AcDbEntity
  8
0
100
AcDbLine
 10
24.87315620043788
 20
-24.48440598815392
 30
0.0
 11
24.87315620043788
 21
-21.48440598815406
 31
0.0
  0
LINE
  5
79
330
1F
100
AcDbEntity
  8
0
100
AcDbLine
 10
24.87315620043788
 20
-24.48440598815392
 30
0.0
 11
-0.1268437995622094
 21
-24.48440598815392
 31
0.0
  0
LINE
  5
7A
330
1F
100
AcDbEntity
  8
0
100
AcDbLine
 10
-0.1268437995622094
 20
-24.48440598815392
 30
0.0
 11
-0.1268437995622122
 21
-21.48440598815406
 31
0.0
  0
LINE
  5
7B
330
1F
100
AcDbEntity
  8
0
100
AcDbLine
 10
-0.1268437995622122
 20
-21.48440598815406
 30
0.0
 11
-25.12684379956212
 21
-21.48440598815406
 31
0.0
  0
LINE
  5
7C
330
1F
100
AcDbEntity
  8
0
100
AcDbLine
 10
-25.12684379956212
 20
-24.48440598815392
 30
0.0
 11
-25.12684379956212
 21
-21.48440598815406
 31
0.0
  0
LINE
  5
7D
330
1F
100
AcDbEntity
  8
0
100
AcDbLine
 10
-25.12684379956212
 20
-24.48440598815392
 30
0.0
 11
-50.12684379956212
 21
-24.48440598815392
 31
0.0
  0
LINE
  5
7E
330
1F
100
AcDbEntity
  8
0
100
AcDbLine
 10
-50.12684379956212
 20
-24.48440598815392
 30
0.0
 11
-50.12684379956212
 21
-21.48440598815406
 31
0.0
  0
LINE
  5
7F
330
1F
100
AcDbEntity
  8
0
100
AcDbLine
 10
-50.12684379956212
 20
-21.48440598815406
 30
0.0
 11
-75.12684379956221
 21
-21.48440598815406
 31
0.0
  0
LINE
  5
80
330
1F
100
AcDbEntity
  8
0
100
AcDbLine
 10
-75.12684379956221
 20
-24.48440598815392
 30
0.0
 11
-75.12684379956221
 21
-21.48440598815406
 31
0.0
  0
LINE
  5
81
330
1F
100
AcDbEntity
  8
0
100
AcDbLine
 10
-75.12684379956221
 20
-24.48440598815392
 30
0.0
 11
-100.1268437995622
 21
-24.48440598815392
 31
0.0
  0
LINE
  5
82
330
1F
100
AcDbEntity
  8
0
100
AcDbLine
 10
-100.1268437995622
 20
-24.48440598815392
 30
0.0
 11
-100.1268437995622
 21
-21.48440598815406
 31
0.0
  0
LINE
  5
83
330
1F
100
AcDbEntity
  8
0
100
AcDbLine
 10
-100.1268437995622
 20
-21.48440598815406
 30
0.0
 11
-125.1268437995621
 21
-21.48440598815406
 31
0.0
  0
LINE
  5
84
330
1F
100
AcDbEntity
  8
0
100
AcDbLine
 10
-125.1268437995621
 20
-24.48440598815392
 30
0.0
 11
-125.1268437995621
 21
-21.48440598815406
 31
0.0
  0
LINE
  5
85
330
1F
100
AcDbEntity
  8
0
100
AcDbLine
 10
-125.1268437995621
 20
-24.48440598815392
 30
0.0
 11
-150.1268437995621
 21
-24.48440598815392
 31
0.0
  0
LINE
  5
86
330
1F
100
AcDbEntity
  8
0
100
AcDbLine
 10
-150.1268437995621
 20
-24.48440598815392
 30
0.0
 11
-150.1268437995621
 21
-21.48440598815406
 31
0.0
  0
LINE
  5
87
330
1F
100
AcDbEntity
  8
0
100
AcDbLine
 10
-150.1268437995621
 20
-21.48440598815406
 30
0.0
 11
-175.1268437995622
 21
-21.48440598815406
 31
0.0
  0
LINE
  5
88
330
1F
100
AcDbEntity
  8
0
100
AcDbLine
 10
124.873156200438
 20
-188.4844059881541
 30
0.0
 11
124.873156200438
 21
-191.4844059881541
 31
0.0
  0
LINE
  5
89
330
1F
100
AcDbEntity
  8
0
100
AcDbLine
 10
124.873156200438
 20
-188.4844059881541
 30
0.0
 11
99.87315620043788
 21
-188.4844059881541
 31
0.0
  0
LINE
  5
8A
330
1F
100
AcDbEntity
  8
0
100
AcDbLine
 10
124.873156200438
 20
-191.4844059881541
 30
0.0
 11
149.8731562004378
 21
-191.4844059881541
 31
0.0
  0
LINE
  5
8B
330
1F
100
AcDbEntity
  8
0
100
AcDbLine
 10
99.87315620043788
 20
-188.4844059881541
 30
0.0
 11
99.87315620043788
 21
-191.4844059881541
 31
0.0
  0
LINE
  5
8C
330
1F
100
AcDbEntity
  8
0
100
AcDbLine
 10
74.87315620043788
 20
-188.4844059881541
 30
0.0
 11
74.87315620043788
 21
-191.4844059881541
 31
0.0
  0
LINE
  5
8D
330
1F
100
AcDbEntity
  8
0
100
AcDbLine
 10
74.87315620043788
 20
-191.4844059881541
 30
0.0
 11
99.87315620043788
 21
-191.4844059881541
 31
0.0
  0
LINE
  5
8E
330
1F
100
AcDbEntity
  8
0
100
AcDbLine
 10
49.87315620043778
 20
-188.4844059881541
 30
0.0
 11
49.87315620043778
 21
-191.4844059881541
 31
0.0
  0
LINE
  5
8F
330
1F
100
AcDbEntity
  8
0
100
AcDbLine
 10
24.87315620043788
 20
-188.4844059881541
 30
0.0
 11
24.87315620043788
 21
-191.4844059881541
 31
0.0
  0
LINE
  5
90
330
1F
100
AcDbEntity
  8
0
100
AcDbLine
 10
24.87315620043788
 20
-191.4844059881541
 30
0.0
 11
49.87315620043778
 21
-191.4844059881541
 31
0.0
  0
LINE
  5
91
330
1F
100
AcDbEntity
  8
0
100
AcDbLine
 10
24.87315620043788
 20
-188.4844059881541
 30
0.0
 11
-0.1268437995622094
 21
-188.4844059881541
 31
0.0
  0
LINE
  5
92
330
1F
100
AcDbEntity
  8
0
100
AcDbLine
 10
-0.1268437995622094
 20
-188.4844059881541
 30
0.0
 11
-0.1268437995622122
 21
-191.4844059881541
 31
0.0
  0
LINE
  5
93
330
1F
100
AcDbEntity
  8
0
100
AcDbLine
 10
-25.12684379956212
 20
-188.4844059881541
 30
0.0
 11
-25.12684379956212
 21
-191.4844059881541
 31
0.0
  0
LINE
  5
94
330
1F
100
AcDbEntity
  8
0
100
AcDbLine
 10
-25.12684379956212
 20
-191.4844059881541
 30
0.0
 11
-0.1268437995622122
 21
-191.4844059881541
 31
0.0
  0
LINE
  5
95
330
1F
100
AcDbEntity
  8
0
100
AcDbLine
 10
-25.12684379956212
 20
-188.4844059881541
 30
0.0
 11
-50.12684379956212
 21
-188.4844059881541
 31
0.0
  0
LINE
  5
96
330
1F
100
AcDbEntity
  8
0
100
AcDbLine
 10
-50.12684379956212
 20
-188.4844059881541
 30
0.0
 11
-50.12684379956212
 21
-191.4844059881541
 31
0.0
  0
LINE
  5
97
330
1F
100
AcDbEntity
  8
0
100
AcDbLine
 10
-75.12684379956221
 20
-188.4844059881541
 30
0.0
 11
-75.12684379956221
 21
-191.4844059881541
 31
0.0
  0
LINE
  5
98
330
1F
100
AcDbEntity
  8
0
100
AcDbLine
 10
-75.12684379956221
 20
-191.4844059881541
 30
0.0
 11
-50.12684379956212
 21
-191.4844059881541
 31
0.0
  0
LINE
  5
99
330
1F
100
AcDbEntity
  8
0
100
AcDbLine
 10
-100.1268437995622
 20
-188.4844059881541
 30
0.0
 11
-100.1268437995622
 21
-191.4844059881541
 31
0.0
  0
LINE
  5
9A
330
1F
100
AcDbEntity
  8
0
100
AcDbLine
 10
-125.1268437995621
 20
-188.4844059881541
 30
0.0
 11
-125.1268437995621
 21
-191.4844059881541
 31
0.0
  0
LINE
  5
9B
330
1F
100
AcDbEntity
  8
0
100
AcDbLine
 10
-125.1268437995621
 20
-191.4844059881541
 30
0.0
 11
-100.1268437995622
 21
-191.4844059881541
 31
0.0
  0
LINE
  5
9C
330
1F
100
AcDbEntity
  8
0
100
AcDbLine
 10
-125.1268437995621
 20
-188.4844059881541
 30
0.0
 11
-150.1268437995621
 21
-188.4844059881541
 31
0.0
  0
LINE
  5
9D
330
1F
100
AcDbEntity
  8
0
100
AcDbLine
 10
-150.1268437995621
 20
-188.4844059881541
 30
0.0
 11
-150.1268437995621
 21
-191.4844059881541
 31
0.0
  0
LINE
  5
9E
330
1F
100
AcDbEntity
  8
0
100
AcDbLine
 10
149.8731562004378
 20
-174.4844059881542
 30
0.0
 11
152.8731562004378
 21
-174.4844059881542
 31
0.0
  0
LINE
  5
9F
330
1F
100
AcDbEntity
  8
0
100
AcDbLine
 10
149.8731562004378
 20
-157.4844059881541
 30
0.0
 11
152.8731562004378
 21
-157.4844059881541
 31
0.0
  0
LINE
  5
A0
330
1F
100
AcDbEntity
  8
0
100
AcDbLine
 10
149.8731562004378
 20
-140.4844059881542
 30
0.0
 11
152.8731562004378
 21
-140.4844059881542
 31
0.0
  0
LINE
  5
A1
330
1F
100
AcDbEntity
  8
0
100
AcDbLine
 10
149.8731562004378
 20
-123.4844059881542
 30
0.0
 11
152.8731562004378
 21
-123.4844059881542
 31
0.0
  0
LINE
  5
A2
330
1F
100
AcDbEntity
  8
0
100
AcDbLine
 10
149.8731562004378
 20
-106.4844059881541
 30
0.0
 11
152.8731562004378
 21
-106.4844059881541
 31
0.0
  0
LINE
  5
A3
330
1F
100
AcDbEntity
  8
0
100
AcDbLine
 10
149.8731562004378
 20
-89.48440598815412
 30
0.0
 11
152.8731562004378
 21
-89.48440598815412
 31
0.0
  0
LINE
  5
A4
330
1F
100
AcDbEntity
  8
0
100
AcDbLine
 10
149.8731562004378
 20
-72.48440598815401
 30
0.0
 11
152.8731562004378
 21
-72.48440598815401
 31
0.0
  0
LINE
  5
A5
330
1F
100
AcDbEntity
  8
0
100
AcDbLine
 10
149.8731562004378
 20
-55.48440598815391
 30
0.0
 11
152.8731562004378
 21
-55.48440598815391
 31
0.0
  0
LINE
  5
A6
330
1F
100
AcDbEntity
  8
0
100
AcDbLine
 10
149.8731562004378
 20
-38.48440598815399
 30
0.0
 11
152.8731562004378
 21
-38.48440598815399
 31
0.0
  0
LINE
  5
A7
330
1F
100
AcDbEntity
  8
0
100
AcDbLine
 10
-178.1268437995622
 20
-174.4844059881542
 30
0.0
 11
-175.1268437995622
 21
-174.4844059881542
 31
0.0
  0
LINE
  5
A8
330
1F
100
AcDbEntity
  8
0
100
AcDbLine
 10
-178.1268437995622
 20
-157.4844059881541
 30
0.0
 11
-175.1268437995622
 21
-157.4844059881541
 31
0.0
  0
LINE
  5
A9
330
1F
100
AcDbEntity
  8
0
100
AcDbLine
 10
-175.1268437995622
 20
-157.4844059881541
 30
0.0
 11
-175.1268437995622
 21
-174.4844059881542
 31
0.0
  0
LINE
  5
AA
330
1F
100
AcDbEntity
  8
0
100
AcDbLine
 10
-178.1268437995622
 20
-140.4844059881542
 30
0.0
 11
-175.1268437995622
 21
-140.4844059881542
 31
0.0
  0
LINE
  5
AB
330
1F
100
AcDbEntity
  8
0
100
AcDbLine
 10
-178.1268437995622
 20
-140.4844059881542
 30
0.0
 11
-178.1268437995622
 21
-157.4844059881541
 31
0.0
  0
LINE
  5
AC
330
1F
100
AcDbEntity
  8
0
100
AcDbLine
 10
-178.1268437995622
 20
-123.4844059881542
 30
0.0
 11
-175.1268437995622
 21
-123.4844059881542
 31
0.0
  0
LINE
  5
AD
330
1F
100
AcDbEntity
  8
0
100
AcDbLine
 10
-178.1268437995622
 20
-106.4844059881541
 30
0.0
 11
-175.1268437995622
 21
-106.4844059881541
 31
0.0
  0
LINE
  5
AE
330
1F
100
AcDbEntity
  8
0
100
AcDbLine
 10
-178.1268437995622
 20
-89.48440598815412
 30
0.0
 11
-175.1268437995622
 21
-89.48440598815412
 31
0.0
  0
LINE
  5
AF
330
1F
100
AcDbEntity
  8
0
100
AcDbLine
 10
-178.1268437995622
 20
-72.48440598815401
 30
0.0
 11
-175.1268437995622
 21
-72.48440598815401
 31
0.0
  0
LINE
  5
B0
330
1F
100
AcDbEntity
  8
0
100
AcDbLine
 10
-178.1268437995622
 20
-72.48440598815401
 30
0.0
 11
-178.1268437995622
 21
-89.48440598815412
 31
0.0
  0
LINE
  5
B1
330
1F
100
AcDbEntity
  8
0
100
AcDbLine
 10
-178.1268437995622
 20
-55.48440598815391
 30
0.0
 11
-175.1268437995622
 21
-55.48440598815391
 31
0.0
  0
LINE
  5
B2
330
1F
100
AcDbEntity
  8
0
100
AcDbLine
 10
-175.1268437995622
 20
-55.48440598815391
 30
0.0
 11
-175.1268437995622
 21
-72.48440598815401
 31
0.0
  0
LINE
  5
B3
330
1F
100
AcDbEntity
  8
0
100
AcDbLine
 10
-178.1268437995622
 20
-38.48440598815399
 30
0.0
 11
-175.1268437995622
 21
-38.48440598815399
 31
0.0
  0
LINE
  5
B4
330
1F
100
AcDbEntity
  8
0
100
AcDbLine
 10
-178.1268437995622
 20
-38.48440598815399
 30
0.0
 11
-178.1268437995622
 21
-55.48440598815391
 31
0.0
  0
LINE
  5
B5
330
1F
100
AcDbEntity
  8
0
100
AcDbLine
 10
149.8731562004378
 20
-191.4844059881541
 30
0.0
 11
149.8731562004378
 21
-174.4844059881542
 31
0.0
  0
LINE
  5
B6
330
1F
100
AcDbEntity
  8
0
100
AcDbLine
 10
149.8731562004378
 20
-157.4844059881541
 30
0.0
 11
149.8731562004378
 21
-140.4844059881542
 31
0.0
  0
LINE
  5
B7
330
1F
100
AcDbEntity
  8
0
100
AcDbLine
 10
149.8731562004378
 20
-123.4844059881542
 30
0.0
 11
149.8731562004378
 21
-106.4844059881541
 31
0.0
  0
LINE
  5
B8
330
1F
100
AcDbEntity
  8
0
100
AcDbLine
 10
149.8731562004378
 20
-89.48440598815412
 30
0.0
 11
149.8731562004378
 21
-72.48440598815401
 31
0.0
  0
LINE
  5
B9
330
1F
100
AcDbEntity
  8
0
100
AcDbLine
 10
149.8731562004378
 20
-55.48440598815391
 30
0.0
 11
149.8731562004378
 21
-38.48440598815399
 31
0.0
  0
LINE
  5
BA
330
1F
100
AcDbEntity
  8
0
100
AcDbLine
 10
152.8731562004378
 20
-157.4844059881541
 30
0.0
 11
152.8731562004378
 21
-174.4844059881542
 31
0.0
  0
LINE
  5
BB
330
1F
100
AcDbEntity
  8
0
100
AcDbLine
 10
152.8731562004378
 20
-123.4844059881542
 30
0.0
 11
152.8731562004378
 21
-140.4844059881542
 31
0.0
  0
LINE
  5
BC
330
1F
100
AcDbEntity
  8
0
100
AcDbLine
 10
152.8731562004378
 20
-89.48440598815412
 30
0.0
 11
152.8731562004378
 21
-106.4844059881541
 31
0.0
  0
LINE
  5
BD
330
1F
100
AcDbEntity
  8
0
100
AcDbLine
 10
152.8731562004378
 20
-55.48440598815391
 30
0.0
 11
152.8731562004378
 21
-72.48440598815401
 31
0.0
  0
LINE
  5
BE
330
1F
100
AcDbEntity
  8
0
100
AcDbLine
 10
-125.1268437995623
 20
26.51559401184576
 30
0.0
 11
-125.1268437995623
 21
23.5155940118459
 31
0.0
  0
LINE
  5
BF
330
1F
100
AcDbEntity
  8
0
100
AcDbLine
 10
-150.1268437995624
 20
26.51559401184576
 30
0.0
 11
-125.1268437995623
 21
26.51559401184576
 31
0.0
  0
LINE
  5
C0
330
1F
100
AcDbEntity
  8
0
100
AcDbLine
 10
24.8731562004377
 20
26.51559401184576
 30
0.0
 11
24.8731562004377
 21
23.5155940118459
 31
0.0
  0
LINE
  5
C1
330
1F
100
AcDbEntity
  8
0
100
AcDbLine
 10
99.87315620043779
 20
26.51559401184576
 30
0.0
 11
124.8731562004377
 21
26.51559401184576
 31
0.0
  0
LINE
  5
C2
330
1F
100
AcDbEntity
  8
0
100
AcDbLine
 10
-50.12684379956239
 20
26.51559401184576
 30
0.0
 11
-25.12684379956231
 21
26.51559401184576
 31
0.0
  0
LINE
  5
C3
330
1F
100
AcDbEntity
  8
0
100
AcDbLine
 10
124.8731562004377
 20
26.51559401184576
 30
0.0
 11
124.8731562004377
 21
23.5155940118459
 31
0.0
  0
LINE
  5
C4
330
1F
100
AcDbEntity
  8
0
100
AcDbLine
 10
-150.1268437995624
 20
26.51559401184576
 30
0.0
 11
-150.1268437995624
 21
23.5155940118459
 31
0.0
  0
LINE
  5
C5
330
1F
100
AcDbEntity
  8
0
100
AcDbLine
 10
-75.12684379956212
 20
26.51559401184576
 30
0.0
 11
-75.12684379956212
 21
23.5155940118459
 31
0.0
  0
LINE
  5
C6
330
1F
100
AcDbEntity
  8
0
100
AcDbLine
 10
-50.12684379956239
 20
26.51559401184576
 30
0.0
 11
-50.12684379956239
 21
23.5155940118459
 31
0.0
  0
LINE
  5
C7
330
1F
100
AcDbEntity
  8
0
100
AcDbLine
 10
49.87315620043778
 20
26.51559401184576
 30
0.0
 11
49.87315620043778
 21
23.5155940118459
 31
0.0
  0
LINE
  5
C8
330
1F
100
AcDbEntity
  8
0
100
AcDbLine
 10
-100.1268437995622
 20
26.51559401184576
 30
0.0
 11
-100.1268437995622
 21
23.5155940118459
 31
0.0
  0
LINE
  5
C9
330
1F
100
AcDbEntity
  8
0
100
AcDbLine
 10
-25.12684379956231
 20
26.51559401184576
 30
0.0
 11
-25.1268437995623
 21
23.5155940118459
 31
0.0
  0
LINE
  5
CA
330
1F
100
AcDbEntity
  8
0
100
AcDbLine
 10
99.87315620043779
 20
26.51559401184576
 30
0.0
 11
99.87315620043779
 21
23.5155940118459
 31
0.0
  0
LINE
  5
CB
330
1F
100
AcDbEntity
  8
0
100
AcDbLine
 10
-178.1268437995622
 20
3.515594011846028
 30
0.0
 11
-178.1268437995622
 21
23.5155940118459
 31
0.0
  0
LINE
  5
CC
330
1F
100
AcDbEntity
  8
0
100
AcDbLine
 10
-50.12684379956239
 20
23.5155940118459
 30
0.0
 11
-75.12684379956212
 21
23.5155940118459
 31
0.0
  0
LINE
  5
CD
330
1F
100
AcDbEntity
  8
0
100
AcDbLine
 10
-150.1268437995624
 20
23.5155940118459
 30
0.0
 11
-178.1268437995622
 21
23.5155940118459
 31
0.0
  0
LINE
  5
CE
330
1F
100
AcDbEntity
  8
0
100
AcDbLine
 10
-0.1268437995622122
 20
23.5155940118459
 30
0.0
 11
-25.1268437995623
 21
23.5155940118459
 31
0.0
  0
LINE
  5
CF
330
1F
100
AcDbEntity
  8
0
100
AcDbLine
 10
49.87315620043778
 20
23.5155940118459
 30
0.0
 11
24.8731562004377
 21
23.5155940118459
 31
0.0
  0
LINE
  5
D0
330
1F
100
AcDbEntity
  8
0
100
AcDbLine
 10
152.8731562004378
 20
23.5155940118459
 30
0.0
 11
124.8731562004377
 21
23.5155940118459
 31
0.0
  0
LINE
  5
D1
330
1F
100
AcDbEntity
  8
0
100
AcDbLine
 10
-100.1268437995622
 20
23.5155940118459
 30
0.0
 11
-125.1268437995623
 21
23.5155940118459
 31
0.0
  0
LINE
  5
D2
330
1F
100
AcDbEntity
  8
0
100
AcDbLine
 10
99.87315620043779
 20
23.5155940118459
 30
0.0
 11
74.87315620043769
 21
23.5155940118459
 31
0.0
  0
LINE
  5
D3
330
1F
100
AcDbEntity
  8
0
100
AcDbLine
 10
124.873156200438
 20
-21.48440598815406
 30
0.0
 11
149.8731562004377
 21
-21.48440598815406
 31
0.0
  0
LINE
  5
D4
330
1F
100
AcDbEntity
  8
0
100
AcDbLine
 10
-175.1268437995622
 20
-21.48440598815406
 30
0.0
 11
-175.1268437995622
 21
3.515594011846025
 31
0.0
  0
LINE
  5
D5
330
1F
100
AcDbEntity
  8
0
100
AcDbLine
 10
49.87315620043778
 20
26.51559401184576
 30
0.0
 11
74.87315620043769
 21
26.51559401184576
 31
0.0
  0
LINE
  5
D6
330
1F
100
AcDbEntity
  8
0
100
AcDbLine
 10
-0.1268437995622122
 20
26.51559401184576
 30
0.0
 11
-0.1268437995622122
 21
23.5155940118459
 31
0.0
  0
LINE
  5
D7
330
1F
100
AcDbEntity
  8
0
100
AcDbLine
 10
-0.1268437995622122
 20
26.51559401184576
 30
0.0
 11
24.8731562004377
 21
26.51559401184576
 31
0.0
  0
LINE
  5
D8
330
1F
100
AcDbEntity
  8
0
100
AcDbLine
 10
74.87315620043769
 20
26.51559401184576
 30
0.0
 11
74.87315620043769
 21
23.5155940118459
 31
0.0
  0
LINE
  5
D9
330
1F
100
AcDbEntity
  8
0
100
AcDbLine
 10
-178.1268437995622
 20
3.515594011846028
 30
0.0
 11
-175.1268437995622
 21
3.515594011846025
 31
0.0
  0
LINE
  5
DA
330
1F
100
AcDbEntity
  8
0
100
AcDbLine
 10
149.8731562004377
 20
-21.48440598815406
 30
0.0
 11
149.8731562004381
 21
3.515594011846025
 31
0.0
  0
LINE
  5
DB
330
1F
100
AcDbEntity
  8
0
100
AcDbLine
 10
152.8731562004378
 20
3.515594011846028
 30
0.0
 11
152.8731562004378
 21
23.5155940118459
 31
0.0
  0
LINE
  5
DC
330
1F
100
AcDbEntity
  8
0
100
AcDbLine
 10
149.8731562004381
 20
3.515594011846025
 30
0.0
 11
152.8731562004378
 21
3.515594011846028
 31
0.0
  0
LINE
  5
DD
330
1F
100
AcDbEntity
  8
0
100
AcDbLine
 10
99.87315620043827
 20
-239.484405988154
 30
0.0
 11
99.87315620043829
 21
-236.4844059881542
 31
0.0
  0
LINE
  5
DE
330
1F
100
AcDbEntity
  8
0
100
AcDbLine
 10
124.8731562004384
 20
-239.4844059881541
 30
0.0
 11
99.87315620043827
 21
-239.484405988154
 31
0.0
  0
LINE
  5
DF
330
1F
100
AcDbEntity
  8
0
100
AcDbLine
 10
-50.12684379956163
 20
-239.4844059881539
 30
0.0
 11
-50.12684379956163
 21
-236.484405988154
 31
0.0
  0
LINE
  5
E0
330
1F
100
AcDbEntity
  8
0
100
AcDbLine
 10
-125.1268437995617
 20
-239.4844059881538
 30
0.0
 11
-150.1268437995616
 21
-239.4844059881538
 31
0.0
  0
LINE
  5
E1
330
1F
100
AcDbEntity
  8
0
100
AcDbLine
 10
24.87315620043847
 20
-239.4844059881539
 30
0.0
 11
-0.1268437995616256
 21
-239.4844059881539
 31
0.0
  0
LINE
  5
E2
330
1F
100
AcDbEntity
  8
0
100
AcDbLine
 10
-150.1268437995616
 20
-239.4844059881538
 30
0.0
 11
-150.1268437995616
 21
-236.4844059881539
 31
0.0
  0
LINE
  5
E3
330
1F
100
AcDbEntity
  8
0
100
AcDbLine
 10
124.8731562004384
 20
-239.4844059881541
 30
0.0
 11
124.8731562004384
 21
-236.4844059881542
 31
0.0
  0
LINE
  5
E4
330
1F
100
AcDbEntity
  8
0
100
AcDbLine
 10
49.8731562004382
 20
-239.484405988154
 30
0.0
 11
49.8731562004382
 21
-236.4844059881542
 31
0.0
  0
LINE
  5
E5
330
1F
100
AcDbEntity
  8
0
100
AcDbLine
 10
24.87315620043847
 20
-239.4844059881539
 30
0.0
 11
24.87315620043847
 21
-236.4844059881541
 31
0.0
  0
LINE
  5
E6
330
1F
100
AcDbEntity
  8
0
100
AcDbLine
 10
-75.12684379956171
 20
-239.4844059881538
 30
0.0
 11
-75.12684379956171
 21
-236.484405988154
 31
0.0
  0
LINE
  5
E7
330
1F
100
AcDbEntity
  8
0
100
AcDbLine
 10
74.87315620043817
 20
-239.484405988154
 30
0.0
 11
74.87315620043819
 21
-236.4844059881541
 31
0.0
  0
LINE
  5
E8
330
1F
100
AcDbEntity
  8
0
100
AcDbLine
 10
-0.1268437995616256
 20
-239.4844059881539
 30
0.0
 11
-0.1268437995616256
 21
-236.4844059881541
 31
0.0
  0
LINE
  5
E9
330
1F
100
AcDbEntity
  8
0
100
AcDbLine
 10
-125.1268437995617
 20
-239.4844059881538
 30
0.0
 11
-125.1268437995617
 21
-236.484405988154
 31
0.0
  0
LINE
  5
EA
330
1F
100
AcDbEntity
  8
0
100
AcDbLine
 10
152.8731562004381
 20
-216.4844059881541
 30
0.0
 11
152.8731562004381
 21
-236.4844059881542
 31
0.0
  0
LINE
  5
EB
330
1F
100
AcDbEntity
  8
0
100
AcDbLine
 10
-178.1268437995619
 20
-216.4844059881538
 30
0.0
 11
-178.1268437995619
 21
-236.4844059881538
 31
0.0
  0
LINE
  5
EC
330
1F
100
AcDbEntity
  8
0
100
AcDbLine
 10
24.87315620043847
 20
-236.4844059881541
 30
0.0
 11
49.8731562004382
 21
-236.4844059881542
 31
0.0
  0
LINE
  5
ED
330
1F
100
AcDbEntity
  8
0
100
AcDbLine
 10
-175.1268437995618
 20
-191.4844059881537
 30
0.0
 11
-175.1268437995621
 21
-216.4844059881538
 31
0.0
  0
LINE
  5
EE
330
1F
100
AcDbEntity
  8
0
100
AcDbLine
 10
124.8731562004384
 20
-236.4844059881542
 30
0.0
 11
152.8731562004381
 21
-236.4844059881542
 31
0.0
  0
LINE
  5
EF
330
1F
100
AcDbEntity
  8
0
100
AcDbLine
 10
-25.12684379956172
 20
-236.484405988154
 30
0.0
 11
-0.1268437995616256
 21
-236.4844059881541
 31
0.0
  0
LINE
  5
F0
330
1F
100
AcDbEntity
  8
0
100
AcDbLine
 10
-75.12684379956171
 20
-236.484405988154
 30
0.0
 11
-50.12684379956163
 21
-236.484405988154
 31
0.0
  0
LINE
  5
F1
330
1F
100
AcDbEntity
  8
0
100
AcDbLine
 10
-178.1268437995619
 20
-236.4844059881538
 30
0.0
 11
-150.1268437995616
 21
-236.4844059881539
 31
0.0
  0
LINE
  5
F2
330
1F
100
AcDbEntity
  8
0
100
AcDbLine
 10
74.87315620043819
 20
-236.4844059881541
 30
0.0
 11
99.87315620043829
 21
-236.4844059881542
 31
0.0
  0
LINE
  5
F3
330
1F
100
AcDbEntity
  8
0
100
AcDbLine
 10
-125.1268437995617
 20
-236.484405988154
 30
0.0
 11
-100.1268437995616
 21
-236.484405988154
 31
0.0
  0
LINE
  5
F4
330
1F
100
AcDbEntity
  8
0
100
AcDbLine
 10
-178.1268437995619
 20
-216.4844059881538
 30
0.0
 11
-175.1268437995621
 21
-216.4844059881538
 31
0.0
  0
LINE
  5
F5
330
1F
100
AcDbEntity
  8
0
100
AcDbLine
 10
-150.1268437995621
 20
-191.4844059881541
 30
0.0
 11
-175.1268437995618
 21
-191.4844059881537
 31
0.0
  0
LINE
  5
F6
330
1F
100
AcDbEntity
  8
0
100
AcDbLine
 10
149.8731562004378
 20
-191.4844059881541
 30
0.0
 11
149.873156200438
 21
-216.4844059881541
 31
0.0
  0
LINE
  5
F7
330
1F
100
AcDbEntity
  8
0
100
AcDbLine
 10
-75.12684379956171
 20
-239.4844059881538
 30
0.0
 11
-100.1268437995616
 21
-239.4844059881538
 31
0.0
  0
LINE
  5
F8
330
1F
100
AcDbEntity
  8
0
100
AcDbLine
 10
-25.12684379956172
 20
-239.4844059881539
 30
0.0
 11
-25.12684379956172
 21
-236.484405988154
 31
0.0
  0
LINE
  5
F9
330
1F
100
AcDbEntity
  8
0
100
AcDbLine
 10
-25.12684379956172
 20
-239.4844059881539
 30
0.0
 11
-50.12684379956163
 21
-239.4844059881539
 31
0.0
  0
LINE
  5
FA
330
1F
100
AcDbEntity
  8
0
100
AcDbLine
 10
-100.1268437995616
 20
-239.4844059881538
 30
0.0
 11
-100.1268437995616
 21
-236.484405988154
 31
0.0
  0
LINE
  5
FB
330
1F
100
AcDbEntity
  8
0
100
AcDbLine
 10
152.8731562004381
 20
-216.4844059881541
 30
0.0
 11
149.873156200438
 21
-216.4844059881541
 31
0.0
  0
LINE
  5
FC
330
1F
100
AcDbEntity
  8
0
100
AcDbLine
 10
-175.1268437995622
 20
-21.48440598815406
 30
0.0
 11
-175.1268437995622
 21
-38.48440598815399
 31
0.0
  0
LINE
  5
FD
330
1F
100
AcDbEntity
  8
0
100
AcDbLine
 10
-175.1268437995622
 20
-89.48440598815412
 30
0.0
 11
-175.1268437995622
 21
-106.4844059881541
 31
0.0
  0
LINE
  5
FE
330
1F
100
AcDbEntity
  8
0
100
AcDbLine
 10
-175.1268437995622
 20
-123.4844059881542
 30
0.0
 11
-175.1268437995622
 21
-140.4844059881542
 31
0.0
  0
LINE
  5
FF
330
1F
100
AcDbEntity
  8
0
100
AcDbLine
 10
-226.1268437995629
 20
-24.48440598815442
 30
0.0
 11
-226.1268437995629
 21
-38.48440598815449
 31
0.0
  0
LINE
  5
100
330
1F
100
AcDbEntity
  8
0
100
AcDbLine
 10
-223.1268437995628
 20
-174.4844059881542
 30
0.0
 11
-223.1268437995628
 21
-188.4844059881543
 31
0.0
  0
LINE
  5
101
330
1F
100
AcDbEntity
  8
0
100
AcDbLine
 10
-226.1268437995629
 20
-174.4844059881542
 30
0.0
 11
-223.1268437995628
 21
-174.4844059881542
 31
0.0
  0
LINE
  5
102
330
1F
100
AcDbEntity
  8
0
100
AcDbLine
 10
-226.126843799563
 20
-157.4844059881544
 30
0.0
 11
-226.1268437995629
 21
-174.4844059881542
 31
0.0
  0
LINE
  5
103
330
1F
100
AcDbEntity
  8
0
100
AcDbLine
 10
-226.126843799563
 20
-157.4844059881544
 30
0.0
 11
-223.1268437995629
 21
-157.4844059881544
 31
0.0
  0
LINE
  5
104
330
1F
100
AcDbEntity
  8
0
100
AcDbLine
 10
-223.1268437995629
 20
-140.4844059881539
 30
0.0
 11
-223.1268437995629
 21
-157.4844059881544
 31
0.0
  0
LINE
  5
105
330
1F
100
AcDbEntity
  8
0
100
AcDbLine
 10
-226.126843799563
 20
-140.4844059881539
 30
0.0
 11
-223.1268437995629
 21
-140.4844059881539
 31
0.0
  0
LINE
  5
106
330
1F
100
AcDbEntity
  8
0
100
AcDbLine
 10
-226.1268437995629
 20
-123.4844059881541
 30
0.0
 11
-226.126843799563
 21
-140.4844059881539
 31
0.0
  0
LINE
  5
107
330
1F
100
AcDbEntity
  8
0
100
AcDbLine
 10
-226.1268437995629
 20
-123.4844059881541
 30
0.0
 11
-223.1268437995628
 21
-123.4844059881541
 31
0.0
  0
LINE
  5
108
330
1F
100
AcDbEntity
  8
0
100
AcDbLine
 10
-223.1268437995627
 20
-106.4844059881542
 30
0.0
 11
-223.1268437995628
 21
-123.4844059881541
 31
0.0
  0
LINE
  5
109
330
1F
100
AcDbEntity
  8
0
100
AcDbLine
 10
-226.1268437995628
 20
-106.4844059881542
 30
0.0
 11
-223.1268437995627
 21
-106.4844059881542
 31
0.0
  0
LINE
  5
10A
330
1F
100
AcDbEntity
  8
0
100
AcDbLine
 10
-226.1268437995629
 20
-89.48440598815444
 30
0.0
 11
-226.1268437995628
 21
-106.4844059881542
 31
0.0
  0
LINE
  5
10B
330
1F
100
AcDbEntity
  8
0
100
AcDbLine
 10
-226.1268437995629
 20
-89.48440598815444
 30
0.0
 11
-223.1268437995629
 21
-89.48440598815444
 31
0.0
  0
LINE
  5
10C
330
1F
100
AcDbEntity
  8
0
100
AcDbLine
 10
-223.1268437995627
 20
-72.48440598815434
 30
0.0
 11
-223.1268437995629
 21
-89.48440598815444
 31
0.0
  0
LINE
  5
10D
330
1F
100
AcDbEntity
  8
0
100
AcDbLine
 10
-226.1268437995628
 20
-72.48440598815434
 30
0.0
 11
-223.1268437995627
 21
-72.48440598815434
 31
0.0
  0
LINE
  5
10E
330
1F
100
AcDbEntity
  8
0
100
AcDbLine
 10
-226.1268437995628
 20
-55.48440598815458
 30
0.0
 11
-226.1268437995628
 21
-72.48440598815434
 31
0.0
  0
LINE
  5
10F
330
1F
100
AcDbEntity
  8
0
100
AcDbLine
 10
-226.1268437995628
 20
-55.48440598815458
 30
0.0
 11
-223.1268437995627
 21
-55.48440598815458
 31
0.0
  0
LINE
  5
110
330
1F
100
AcDbEntity
  8
0
100
AcDbLine
 10
-223.1268437995628
 20
-38.48440598815449
 30
0.0
 11
-223.1268437995627
 21
-55.48440598815458
 31
0.0
  0
LINE
  5
111
330
1F
100
AcDbEntity
  8
0
100
AcDbLine
 10
-226.1268437995629
 20
-38.48440598815449
 30
0.0
 11
-223.1268437995628
 21
-38.48440598815449
 31
0.0
  0
LINE
  5
112
330
1F
100
AcDbEntity
  8
0
100
AcDbLine
 10
-203.126843799563
 20
-191.4844059881537
 30
0.0
 11
-203.126843799563
 21
-188.484405988154
 31
0.0
  0
LINE
  5
113
330
1F
100
AcDbEntity
  8
0
100
AcDbLine
 10
-203.126843799563
 20
-191.4844059881537
 30
0.0
 11
-178.1268437995622
 21
-191.4844059881541
 31
0.0
  0
LINE
  5
114
330
1F
100
AcDbEntity
  8
0
100
AcDbLine
 10
-203.126843799563
 20
-21.48440598815485
 30
0.0
 11
-203.126843799563
 21
-24.48440598815453
 31
0.0
  0
LINE
  5
115
330
1F
100
AcDbEntity
  8
0
100
AcDbLine
 10
-175.1268437995622
 20
-21.48440598815406
 30
0.0
 11
-203.126843799563
 21
-21.48440598815485
 31
0.0
  0
LINE
  5
116
330
1F
100
AcDbEntity
  8
0
100
AcDbLine
 10
-203.126843799563
 20
-24.48440598815453
 30
0.0
 11
-226.1268437995629
 21
-24.48440598815442
 31
0.0
  0
LINE
  5
117
330
1F
100
AcDbEntity
  8
0
100
AcDbLine
 10
69.87315620043793
 20
-94.48440598815415
 30
0.0
 11
66.76732765920771
 21
-94.89329607268532
 31
0.0
  0
LINE
  5
118
330
1F
100
AcDbEntity
  8
0
100
AcDbLine
 10
66.76732765920771
 20
-94.89329607268532
 30
0.0
 11
63.87315620043794
 21
-96.09210114274093
 31
0.0
  0
LINE
  5
119
330
1F
100
AcDbEntity
  8
0
100
AcDbLine
 10
63.87315620043794
 20
-96.09210114274093
 30
0.0
 11
61.38787482619934
 21
-97.99912461391554
 31
0.0
  0
LINE
  5
11A
330
1F
100
AcDbEntity
  8
0
100
AcDbLine
 10
61.38787482619934
 20
-97.99912461391554
 30
0.0
 11
59.48085135502473
 21
-100.4844059881541
 31
0.0
  0
LINE
  5
11B
330
1F
100
AcDbEntity
  8
0
100
AcDbLine
 10
59.48085135502473
 20
-100.4844059881541
 30
0.0
 11
58.28204628496911
 21
-103.3785774469239
 31
0.0
  0
LINE
  5
11C
330
1F
100
AcDbEntity
  8
0
100
AcDbLine
 10
58.28204628496911
 20
-103.3785774469239
 30
0.0
 11
57.87315620043795
 21
-106.4844059881541
 31
0.0
  0
LINE
  5
11D
330
1F
100
AcDbEntity
  8
0
100
AcDbLine
 10
57.87315620043795
 20
-106.4844059881541
 30
0.0
 11
58.28204628496911
 21
-109.5902345293844
 31
0.0
  0
LINE
  5
11E
330
1F
100
AcDbEntity
  8
0
100
AcDbLine
 10
58.28204628496911
 20
-109.5902345293844
 30
0.0
 11
59.48085135502473
 21
-112.4844059881541
 31
0.0
  0
LINE
  5
11F
330
1F
100
AcDbEntity
  8
0
100
AcDbLine
 10
59.48085135502473
 20
-112.4844059881541
 30
0.0
 11
61.38787482619934
 21
-114.9696873623927
 31
0.0
  0
LINE
  5
120
330
1F
100
AcDbEntity
  8
0
100
AcDbLine
 10
61.38787482619934
 20
-114.9696873623927
 30
0.0
 11
63.87315620043794
 21
-116.8767108335673
 31
0.0
  0
LINE
  5
121
330
1F
100
AcDbEntity
  8
0
100
AcDbLine
 10
63.87315620043794
 20
-116.8767108335673
 30
0.0
 11
66.76732765920771
 21
-118.075515903623
 31
0.0
  0
LINE
  5
122
330
1F
100
AcDbEntity
  8
0
100
AcDbLine
 10
66.76732765920771
 20
-118.075515903623
 30
0.0
 11
69.87315620043793
 21
-118.4844059881541
 31
0.0
  0
LINE
  5
123
330
1F
100
AcDbEntity
  8
0
100
AcDbLine
 10
69.87315620043793
 20
-118.4844059881541
 30
0.0
 11
72.97898474166816
 21
-118.075515903623
 31
0.0
  0
LINE
  5
124
330
1F
100
AcDbEntity
  8
0
100
AcDbLine
 10
72.97898474166816
 20
-118.075515903623
 30
0.0
 11
75.87315620043792
 21
-116.8767108335673
 31
0.0
  0
LINE
  5
125
330
1F
100
AcDbEntity
  8
0
100
AcDbLine
 10
75.87315620043792
 20
-116.8767108335673
 30
0.0
 11
78.35843757467651
 21
-114.9696873623927
 31
0.0
  0
LINE
  5
126
330
1F
100
AcDbEntity
  8
0
100
AcDbLine
 10
78.35843757467651
 20
-114.9696873623927
 30
0.0
 11
80.26546104585113
 21
-112.4844059881541
 31
0.0
  0
LINE
  5
127
330
1F
100
AcDbEntity
  8
0
100
AcDbLine
 10
80.26546104585113
 20
-112.4844059881541
 30
0.0
 11
81.46426611590675
 21
-109.5902345293844
 31
0.0
  0
LINE
  5
128
330
1F
100
AcDbEntity
  8
0
100
AcDbLine
 10
81.46426611590675
 20
-109.5902345293844
 30
0.0
 11
81.8731562004379
 21
-106.4844059881541
 31
0.0
  0
LINE
  5
129
330
1F
100
AcDbEntity
  8
0
100
AcDbLine
 10
81.8731562004379
 20
-106.4844059881541
 30
0.0
 11
81.46426611590675
 21
-103.3785774469239
 31
0.0
  0
LINE
  5
12A
330
1F
100
AcDbEntity
  8
0
100
AcDbLine
 10
81.46426611590675
 20
-103.3785774469239
 30
0.0
 11
80.26546104585123
 21
-100.4844059881541
 31
0.0
  0
LINE
  5
12B
330
1F
100
AcDbEntity
  8
0
100
AcDbLine
 10
80.26546104585123
 20
-100.4844059881541
 30
0.0
 11
78.35843757467651
 21
-97.99912461391554
 31
0.0
  0
LINE
  5
12C
330
1F
100
AcDbEntity
  8
0
100
AcDbLine
 10
78.35843757467651
 20
-97.99912461391554
 30
0.0
 11
75.87315620043792
 21
-96.09210114274093
 31
0.0
  0
LINE
  5
12D
330
1F
100
AcDbEntity
  8
0
100
AcDbLine
 10
75.87315620043792
 20
-96.09210114274093
 30
0.0
 11
72.97898474166816
 21
-94.89329607268532
 31
0.0
  0
LINE
  5
12E
330
1F
100
AcDbEntity
  8
0
100
AcDbLine
 10
72.97898474166816
 20
-94.89329607268532
 30
0.0
 11
69.87315620043793
 21
-94.48440598815415
 31
0.0
  0
LINE
  5
12F
330
1F
100
AcDbEntity
  8
0
100
AcDbLine
 10
-95.12684379956227
 20
-94.48440598815415
 30
0.0
 11
-98.23267234079249
 21
-94.89329607268532
 31
0.0
  0
LINE
  5
130
330
1F
100
AcDbEntity
  8
0
100
AcDbLine
 10
-98.23267234079249
 20
-94.89329607268532
 30
0.0
 11
-101.1268437995623
 21
-96.09210114274093
 31
0.0
  0
LINE
  5
131
330
1F
100
AcDbEntity
  8
0
100
AcDbLine
 10
-101.1268437995623
 20
-96.09210114274093
 30
0.0
 11
-103.6121251738008
 21
-97.99912461391554
 31
0.0
  0
LINE
  5
132
330
1F
100
AcDbEntity
  8
0
100
AcDbLine
 10
-103.6121251738008
 20
-97.99912461391554
 30
0.0
 11
-105.5191486449755
 21
-100.4844059881541
 31
0.0
  0
LINE
  5
133
330
1F
100
AcDbEntity
  8
0
100
AcDbLine
 10
-105.5191486449755
 20
-100.4844059881541
 30
0.0
 11
-106.7179537150311
 21
-103.3785774469239
 31
0.0
  0
LINE
  5
134
330
1F
100
AcDbEntity
  8
0
100
AcDbLine
 10
-106.7179537150311
 20
-103.3785774469239
 30
0.0
 11
-107.1268437995622
 21
-106.4844059881541
 31
0.0
  0
LINE
  5
135
330
1F
100
AcDbEntity
  8
0
100
AcDbLine
 10
-107.1268437995622
 20
-106.4844059881541
 30
0.0
 11
-106.7179537150311
 21
-109.5902345293844
 31
0.0
  0
LINE
  5
136
330
1F
100
AcDbEntity
  8
0
100
AcDbLine
 10
-106.7179537150311
 20
-109.5902345293844
 30
0.0
 11
-105.5191486449755
 21
-112.4844059881541
 31
0.0
  0
LINE
  5
137
330
1F
100
AcDbEntity
  8
0
100
AcDbLine
 10
-105.5191486449755
 20
-112.4844059881541
 30
0.0
 11
-103.6121251738008
 21
-114.9696873623927
 31
0.0
  0
LINE
  5
138
330
1F
100
AcDbEntity
  8
0
100
AcDbLine
 10
-103.6121251738008
 20
-114.9696873623927
 30
0.0
 11
-101.1268437995623
 21
-116.8767108335673
 31
0.0
  0
LINE
  5
139
330
1F
100
AcDbEntity
  8
0
100
AcDbLine
 10
-101.1268437995623
 20
-116.8767108335673
 30
0.0
 11
-98.23267234079249
 21
-118.075515903623
 31
0.0
  0
LINE
  5
13A
330
1F
100
AcDbEntity
  8
0
100
AcDbLine
 10
-98.23267234079249
 20
-118.075515903623
 30
0.0
 11
-95.12684379956227
 21
-118.4844059881541
 31
0.0
  0
LINE
  5
13B
330
1F
100
AcDbEntity
  8
0
100
AcDbLine
 10
-95.12684379956227
 20
-118.4844059881541
 30
0.0
 11
-92.02101525833204
 21
-118.075515903623
 31
0.0
  0
LINE
  5
13C
330
1F
100
AcDbEntity
  8
0
100
AcDbLine
 10
-92.02101525833204
 20
-118.075515903623
 30
0.0
 11
-89.12684379956228
 21
-116.8767108335673
 31
0.0
  0
LINE
  5
13D
330
1F
100
AcDbEntity
  8
0
100
AcDbLine
 10
-89.12684379956228
 20
-116.8767108335673
 30
0.0
 11
-86.64156242532367
 21
-114.9696873623927
 31
0.0
  0
LINE
  5
13E
330
1F
100
AcDbEntity
  8
0
100
AcDbLine
 10
-86.64156242532367
 20
-114.9696873623927
 30
0.0
 11
-84.73453895414906
 21
-112.4844059881541
 31
0.0
  0
LINE
  5
13F
330
1F
100
AcDbEntity
  8
0
100
AcDbLine
 10
-84.73453895414906
 20
-112.4844059881541
 30
0.0
 11
-83.53573388409345
 21
-109.5902345293844
 31
0.0
  0
LINE
  5
140
330
1F
100
AcDbEntity
  8
0
100
AcDbLine
 10
-83.53573388409345
 20
-109.5902345293844
 30
0.0
 11
-83.12684379956228
 21
-106.4844059881541
 31
0.0
  0
LINE
  5
141
330
1F
100
AcDbEntity
  8
0
100
AcDbLine
 10
-83.12684379956228
 20
-106.4844059881541
 30
0.0
 11
-83.53573388409345
 21
-103.3785774469239
 31
0.0
  0
LINE
  5
142
330
1F
100
AcDbEntity
  8
0
100
AcDbLine
 10
-83.53573388409345
 20
-103.3785774469239
 30
0.0
 11
-84.73453895414897
 21
-100.4844059881541
 31
0.0
  0
LINE
  5
143
330
1F
100
AcDbEntity
  8
0
100
AcDbLine
 10
-84.73453895414897
 20
-100.4844059881541
 30
0.0
 11
-86.64156242532367
 21
-97.99912461391554
 31
0.0
  0
LINE
  5
144
330
1F
100
AcDbEntity
  8
0
100
AcDbLine
 10
-86.64156242532367
 20
-97.99912461391554
 30
0.0
 11
-89.12684379956228
 21
-96.09210114274093
 31
0.0
  0
LINE
  5
145
330
1F
100
AcDbEntity
  8
0
100
AcDbLine
 10
-89.12684379956228
 20
-96.09210114274093
 30
0.0
 11
-92.02101525833204
 21
-94.89329607268532
 31
0.0
  0
LINE
  5
146
330
1F
100
AcDbEntity
  8
0
100
AcDbLine
 10
-92.02101525833204
 20
-94.89329607268532
 30
0.0
 11
-95.12684379956227
 21
-94.48440598815415
 31
0.0
  0
LINE
  5
147
330
1F
100
AcDbEntity
  8
0
100
AcDbLine
 10
-12.62684379956217
 20
-104.0844059881541
 30
0.0
 11
-13.24800950780825
 21
-104.1661840050604
 31
0.0
  0
LINE
  5
148
330
1F
100
AcDbEntity
  8
0
100
AcDbLine
 10
-13.24800950780825
 20
-104.1661840050604
 30
0.0
 11
-13.82684379956216
 21
-104.4059450190715
 31
0.0
  0
LINE
  5
149
330
1F
100
AcDbEntity
  8
0
100
AcDbLine
 10
-13.82684379956216
 20
-104.4059450190715
 30
0.0
 11
-14.32390007440985
 21
-104.7873497133065
 31
0.0
  0
LINE
  5
14A
330
1F
100
AcDbEntity
  8
0
100
AcDbLine
 10
-14.32390007440985
 20
-104.7873497133065
 30
0.0
 11
-14.70530476864477
 21
-105.2844059881541
 31
0.0
  0
LINE
  5
14B
330
1F
100
AcDbEntity
  8
0
100
AcDbLine
 10
-14.70530476864477
 20
-105.2844059881541
 30
0.0
 11
-14.94506578265593
 21
-105.8632402799081
 31
0.0
  0
LINE
  5
14C
330
1F
100
AcDbEntity
  8
0
100
AcDbLine
 10
-14.94506578265593
 20
-105.8632402799081
 30
0.0
 11
-15.02684379956216
 21
-106.4844059881541
 31
0.0
  0
LINE
  5
14D
330
1F
100
AcDbEntity
  8
0
100
AcDbLine
 10
-15.02684379956216
 20
-106.4844059881541
 30
0.0
 11
-14.94506578265593
 21
-107.1055716964002
 31
0.0
  0
LINE
  5
14E
330
1F
100
AcDbEntity
  8
0
100
AcDbLine
 10
-14.94506578265593
 20
-107.1055716964002
 30
0.0
 11
-14.70530476864477
 21
-107.6844059881541
 31
0.0
  0
LINE
  5
14F
330
1F
100
AcDbEntity
  8
0
100
AcDbLine
 10
-14.70530476864477
 20
-107.6844059881541
 30
0.0
 11
-14.32390007440985
 21
-108.1814622630018
 31
0.0
  0
LINE
  5
150
330
1F
100
AcDbEntity
  8
0
100
AcDbLine
 10
-14.32390007440985
 20
-108.1814622630018
 30
0.0
 11
-13.82684379956216
 21
-108.5628669572367
 31
0.0
  0
LINE
  5
151
330
1F
100
AcDbEntity
  8
0
100
AcDbLine
 10
-13.82684379956216
 20
-108.5628669572367
 30
0.0
 11
-13.24800950780825
 21
-108.8026279712479
 31
0.0
  0
LINE
  5
152
330
1F
100
AcDbEntity
  8
0
100
AcDbLine
 10
-13.24800950780825
 20
-108.8026279712479
 30
0.0
 11
-12.62684379956217
 21
-108.8844059881541
 31
0.0
  0
LINE
  5
153
330
1F
100
AcDbEntity
  8
0
100
AcDbLine
 10
-12.62684379956217
 20
-108.8844059881541
 30
0.0
 11
-12.00567809131608
 21
-108.8026279712479
 31
0.0
  0
LINE
  5
154
330
1F
100
AcDbEntity
  8
0
100
AcDbLine
 10
-12.00567809131608
 20
-108.8026279712479
 30
0.0
 11
-11.42684379956217
 21
-108.5628669572367
 31
0.0
  0
LINE
  5
155
330
1F
100
AcDbEntity
  8
0
100
AcDbLine
 10
-11.42684379956217
 20
-108.5628669572367
 30
0.0
 11
-10.92978752471448
 21
-108.1814622630018
 31
0.0
  0
LINE
  5
156
330
1F
100
AcDbEntity
  8
0
100
AcDbLine
 10
-10.92978752471448
 20
-108.1814622630018
 30
0.0
 11
-10.54838283047947
 21
-107.6844059881541
 31
0.0
  0
LINE
  5
157
330
1F
100
AcDbEntity
  8
0
100
AcDbLine
 10
-10.54838283047947
 20
-107.6844059881541
 30
0.0
 11
-10.3086218164684
 21
-107.1055716964002
 31
0.0
  0
LINE
  5
158
330
1F
100
AcDbEntity
  8
0
100
AcDbLine
 10
-10.3086218164684
 20
-107.1055716964002
 30
0.0
 11
-10.22684379956217
 21
-106.4844059881541
 31
0.0
  0
LINE
  5
159
330
1F
100
AcDbEntity
  8
0
100
AcDbLine
 10
-10.22684379956217
 20
-106.4844059881541
 30
0.0
 11
-10.3086218164684
 21
-105.8632402799081
 31
0.0
  0
LINE
  5
15A
330
1F
100
AcDbEntity
  8
0
100
AcDbLine
 10
-10.3086218164684
 20
-105.8632402799081
 30
0.0
 11
-10.54838283047947
 21
-105.2844059881541
 31
0.0
  0
LINE
  5
15B
330
1F
100
AcDbEntity
  8
0
100
AcDbLine
 10
-10.54838283047947
 20
-105.2844059881541
 30
0.0
 11
-10.92978752471448
 21
-104.7873497133065
 31
0.0
  0
LINE
  5
15C
330
1F
100
AcDbEntity
  8
0
100
AcDbLine
 10
-10.92978752471448
 20
-104.7873497133065
 30
0.0
 11
-11.42684379956217
 21
-104.4059450190715
 31
0.0
  0
LINE
  5
15D
330
1F
100
AcDbEntity
  8
0
100
AcDbLine
 10
-11.42684379956217
 20
-104.4059450190715
 30
0.0
 11
-12.00567809131608
 21
-104.1661840050604
 31
0.0
  0
LINE
  5
15E
330
1F
100
AcDbEntity
  8
0
100
AcDbLine
 10
-12.00567809131608
 20
-104.1661840050604
 30
0.0
 11
-12.62684379956217
 21
-104.0844059881541
 31
0.0
  0
LINE
  5
15F
330
1F
100
AcDbEntity
  8
0
100
AcDbLine
 10
-12.62684379956208
 20
-125.3344059881542
 30
0.0
 11
-13.24800950780807
 21
-125.4161840050604
 31
0.0
  0
LINE
  5
160
330
1F
100
AcDbEntity
  8
0
100
AcDbLine
 10
-13.24800950780807
 20
-125.4161840050604
 30
0.0
 11
-13.82684379956198
 21
-125.6559450190715
 31
0.0
  0
LINE
  5
161
330
1F
100
AcDbEntity
  8
0
100
AcDbLine
 10
-13.82684379956198
 20
-125.6559450190715
 30
0.0
 11
-14.32390007440976
 21
-126.0373497133064
 31
0.0
  0
LINE
  5
162
330
1F
100
AcDbEntity
  8
0
100
AcDbLine
 10
-14.32390007440976
 20
-126.0373497133064
 30
0.0
 11
-14.70530476864468
 21
-126.5344059881541
 31
0.0
  0
LINE
  5
163
330
1F
100
AcDbEntity
  8
0
100
AcDbLine
 10
-14.70530476864468
 20
-126.5344059881541
 30
0.0
 11
-14.94506578265575
 21
-127.1132402799081
 31
0.0
  0
LINE
  5
164
330
1F
100
AcDbEntity
  8
0
100
AcDbLine
 10
-14.94506578265575
 20
-127.1132402799081
 30
0.0
 11
-15.02684379956198
 21
-127.7344059881541
 31
0.0
  0
LINE
  5
165
330
1F
100
AcDbEntity
  8
0
100
AcDbLine
 10
-15.02684379956198
 20
-127.7344059881541
 30
0.0
 11
-14.94506578265575
 21
-128.3555716964001
 31
0.0
  0
LINE
  5
166
330
1F
100
AcDbEntity
  8
0
100
AcDbLine
 10
-14.94506578265575
 20
-128.3555716964001
 30
0.0
 11
-14.70530476864468
 21
-128.934405988154
 31
0.0
  0
LINE
  5
167
330
1F
100
AcDbEntity
  8
0
100
AcDbLine
 10
-14.70530476864468
 20
-128.934405988154
 30
0.0
 11
-14.32390007440976
 21
-129.4314622630018
 31
0.0
  0
LINE
  5
168
330
1F
100
AcDbEntity
  8
0
100
AcDbLine
 10
-14.32390007440976
 20
-129.4314622630018
 30
0.0
 11
-13.82684379956198
 21
-129.8128669572367
 31
0.0
  0
LINE
  5
169
330
1F
100
AcDbEntity
  8
0
100
AcDbLine
 10
-13.82684379956198
 20
-129.8128669572367
 30
0.0
 11
-13.24800950780807
 21
-130.0526279712477
 31
0.0
  0
LINE
  5
16A
330
1F
100
AcDbEntity
  8
0
100
AcDbLine
 10
-13.24800950780807
 20
-130.0526279712477
 30
0.0
 11
-12.62684379956208
 21
-130.134405988154
 31
0.0
  0
LINE
  5
16B
330
1F
100
AcDbEntity
  8
0
100
AcDbLine
 10
-12.62684379956208
 20
-130.134405988154
 30
0.0
 11
-12.00567809131608
 21
-130.0526279712477
 31
0.0
  0
LINE
  5
16C
330
1F
100
AcDbEntity
  8
0
100
AcDbLine
 10
-12.00567809131608
 20
-130.0526279712477
 30
0.0
 11
-11.42684379956208
 21
-129.8128669572367
 31
0.0
  0
LINE
  5
16D
330
1F
100
AcDbEntity
  8
0
100
AcDbLine
 10
-11.42684379956208
 20
-129.8128669572367
 30
0.0
 11
-10.92978752471439
 21
-129.4314622630018
 31
0.0
  0
LINE
  5
16E
330
1F
100
AcDbEntity
  8
0
100
AcDbLine
 10
-10.92978752471439
 20
-129.4314622630018
 30
0.0
 11
-10.54838283047947
 21
-128.934405988154
 31
0.0
  0
LINE
  5
16F
330
1F
100
AcDbEntity
  8
0
100
AcDbLine
 10
-10.54838283047947
 20
-128.934405988154
 30
0.0
 11
-10.3086218164684
 21
-128.3555716964001
 31
0.0
  0
LINE
  5
170
330
1F
100
AcDbEntity
  8
0
100
AcDbLine
 10
-10.3086218164684
 20
-128.3555716964001
 30
0.0
 11
-10.22684379956217
 21
-127.7344059881541
 31
0.0
  0
LINE
  5
171
330
1F
100
AcDbEntity
  8
0
100
AcDbLine
 10
-10.22684379956217
 20
-127.7344059881541
 30
0.0
 11
-10.3086218164684
 21
-127.1132402799081
 31
0.0
  0
LINE
  5
172
330
1F
100
AcDbEntity
  8
0
100
AcDbLine
 10
-10.3086218164684
 20
-127.1132402799081
 30
0.0
 11
-10.54838283047947
 21
-126.5344059881542
 31
0.0
  0
LINE
  5
173
330
1F
100
AcDbEntity
  8
0
100
AcDbLine
 10
-10.54838283047947
 20
-126.5344059881542
 30
0.0
 11
-10.92978752471439
 21
-126.0373497133064
 31
0.0
  0
LINE
  5
174
330
1F
100
AcDbEntity
  8
0
100
AcDbLine
 10
-10.92978752471439
 20
-126.0373497133064
 30
0.0
 11
-11.42684379956208
 21
-125.6559450190715
 31
0.0
  0
LINE
  5
175
330
1F
100
AcDbEntity
  8
0
100
AcDbLine
 10
-11.42684379956208
 20
-125.6559450190715
 30
0.0
 11
-12.00567809131608
 21
-125.4161840050604
 31
0.0
  0
LINE
  5
176
330
1F
100
AcDbEntity
  8
0
100
AcDbLine
 10
-12.00567809131608
 20
-125.4161840050604
 30
0.0
 11
-12.62684379956208
 21
-125.3344059881542
 31
0.0
  0
LINE
  5
177
330
1F
100
AcDbEntity
  8
0
100
AcDbLine
 10
-12.62684379956217
 20
-82.8344059881541
 30
0.0
 11
-13.24800950780825
 21
-82.91618400506033
 31
0.0
  0
LINE
  5
178
330
1F
100
AcDbEntity
  8
0
100
AcDbLine
 10
-13.24800950780825
 20
-82.91618400506033
 30
0.0
 11
-13.82684379956216
 21
-83.15594501907148
 31
0.0
  0
LINE
  5
179
330
1F
100
AcDbEntity
  8
0
100
AcDbLine
 10
-13.82684379956216
 20
-83.15594501907148
 30
0.0
 11
-14.32390007440985
 21
-83.53734971330641
 31
0.0
  0
LINE
  5
17A
330
1F
100
AcDbEntity
  8
0
100
AcDbLine
 10
-14.32390007440985
 20
-83.53734971330641
 30
0.0
 11
-14.70530476864477
 21
-84.03440598815409
 31
0.0
  0
LINE
  5
17B
330
1F
100
AcDbEntity
  8
0
100
AcDbLine
 10
-14.70530476864477
 20
-84.03440598815409
 30
0.0
 11
-14.94506578265593
 21
-84.61324027990801
 31
0.0
  0
LINE
  5
17C
330
1F
100
AcDbEntity
  8
0
100
AcDbLine
 10
-14.94506578265593
 20
-84.61324027990801
 30
0.0
 11
-15.02684379956216
 21
-85.2344059881541
 31
0.0
  0
LINE
  5
17D
330
1F
100
AcDbEntity
  8
0
100
AcDbLine
 10
-15.02684379956216
 20
-85.2344059881541
 30
0.0
 11
-14.94506578265593
 21
-85.85557169640018
 31
0.0
  0
LINE
  5
17E
330
1F
100
AcDbEntity
  8
0
100
AcDbLine
 10
-14.94506578265593
 20
-85.85557169640018
 30
0.0
 11
-14.70530476864477
 21
-86.43440598815408
 31
0.0
  0
LINE
  5
17F
330
1F
100
AcDbEntity
  8
0
100
AcDbLine
 10
-14.70530476864477
 20
-86.43440598815408
 30
0.0
 11
-14.32390007440985
 21
-86.93146226300178
 31
0.0
  0
LINE
  5
180
330
1F
100
AcDbEntity
  8
0
100
AcDbLine
 10
-14.32390007440985
 20
-86.93146226300178
 30
0.0
 11
-13.82684379956216
 21
-87.3128669572367
 31
0.0
  0
LINE
  5
181
330
1F
100
AcDbEntity
  8
0
100
AcDbLine
 10
-13.82684379956216
 20
-87.3128669572367
 30
0.0
 11
-13.24800950780825
 21
-87.55262797124786
 31
0.0
  0
LINE
  5
182
330
1F
100
AcDbEntity
  8
0
100
AcDbLine
 10
-13.24800950780825
 20
-87.55262797124786
 30
0.0
 11
-12.62684379956217
 21
-87.63440598815409
 31
0.0
  0
LINE
  5
183
330
1F
100
AcDbEntity
  8
0
100
AcDbLine
 10
-12.62684379956217
 20
-87.63440598815409
 30
0.0
 11
-12.00567809131608
 21
-87.55262797124786
 31
0.0
  0
LINE
  5
184
330
1F
100
AcDbEntity
  8
0
100
AcDbLine
 10
-12.00567809131608
 20
-87.55262797124786
 30
0.0
 11
-11.42684379956217
 21
-87.3128669572367
 31
0.0
  0
LINE
  5
185
330
1F
100
AcDbEntity
  8
0
100
AcDbLine
 10
-11.42684379956217
 20
-87.3128669572367
 30
0.0
 11
-10.92978752471448
 21
-86.93146226300178
 31
0.0
  0
LINE
  5
186
330
1F
100
AcDbEntity
  8
0
100
AcDbLine
 10
-10.92978752471448
 20
-86.93146226300178
 30
0.0
 11
-10.54838283047947
 21
-86.43440598815408
 31
0.0
  0
LINE
  5
187
330
1F
100
AcDbEntity
  8
0
100
AcDbLine
 10
-10.54838283047947
 20
-86.43440598815408
 30
0.0
 11
-10.3086218164684
 21
-85.85557169640018
 31
0.0
  0
LINE
  5
188
330
1F
100
AcDbEntity
  8
0
100
AcDbLine
 10
-10.3086218164684
 20
-85.85557169640018
 30
0.0
 11
-10.22684379956217
 21
-85.2344059881541
 31
0.0
  0
LINE
  5
189
330
1F
100
AcDbEntity
  8
0
100
AcDbLine
 10
-10.22684379956217
 20
-85.2344059881541
 30
0.0
 11
-10.3086218164684
 21
-84.61324027990801
 31
0.0
  0
LINE
  5
18A
330
1F
100
AcDbEntity
  8
0
100
AcDbLine
 10
-10.3086218164684
 20
-84.61324027990801
 30
0.0
 11
-10.54838283047947
 21
-84.03440598815409
 31
0.0
  0
LINE
  5
18B
330
1F
100
AcDbEntity
  8
0
100
AcDbLine
 10
-10.54838283047947
 20
-84.03440598815409
 30
0.0
 11
-10.92978752471448
 21
-83.53734971330641
 31
0.0
  0
LINE
  5
18C
330
1F
100
AcDbEntity
  8
0
100
AcDbLine
 10
-10.92978752471448
 20
-83.53734971330641
 30
0.0
 11
-11.42684379956217
 21
-83.15594501907148
 31
0.0
  0
LINE
  5
18D
330
1F
100
AcDbEntity
  8
0
100
AcDbLine
 10
-11.42684379956217
 20
-83.15594501907148
 30
0.0
 11
-12.00567809131608
 21
-82.91618400506033
 31
0.0
  0
LINE
  5
18E
330
1F
100
AcDbEntity
  8
0
100
AcDbLine
 10
-12.00567809131608
 20
-82.91618400506033
 30
0.0
 11
-12.62684379956217
 21
-82.8344059881541
 31
0.0
  0
LINE
  5
18F
330
1F
100
AcDbEntity
  8
0
100
AcDbLine
 10
-15.61506926052429
 20
-100.8649962036404
 30
0.0
 11
-15.61506926052429
 21
-91.30652636180865
 31
0.0
  0
LINE
  5
190
330
1F
100
AcDbEntity
  8
0
100
AcDbLine
 10
-15.61506926052429
 20
-91.30652636180865
 30
0.0
 11
-9.638618338599974
 21
-91.30652636180865
 31
0.0
  0
LINE
  5
191
330
1F
100
AcDbEntity
  8
0
100
AcDbLine
 10
-9.638618338599974
 20
-91.30652636180865
 30
0.0
 11
-9.638618338599974
 21
-92.43633878099092
 31
0.0
  0
LINE
  5
192
330
1F
100
AcDbEntity
  8
0
100
AcDbLine
 10
-9.638618338599974
 20
-92.43633878099092
 30
0.0
 11
-14.34403028894426
 21
-92.43633878099092
 31
0.0
  0
LINE
  5
193
330
1F
100
AcDbEntity
  8
0
100
AcDbLine
 10
-14.34403028894426
 20
-92.43633878099092
 30
0.0
 11
-14.34403028894426
 21
-95.05544938909524
 31
0.0
  0
LINE
  5
194
330
1F
100
AcDbEntity
  8
0
100
AcDbLine
 10
-14.34403028894426
 20
-95.05544938909524
 30
0.0
 11
-9.959587775867659
 21
-95.05544938909524
 31
0.0
  0
LINE
  5
195
330
1F
100
AcDbEntity
  8
0
100
AcDbLine
 10
-9.959587775867659
 20
-95.05544938909524
 30
0.0
 11
-9.959587775867659
 21
-96.18526180827749
 31
0.0
  0
LINE
  5
196
330
1F
100
AcDbEntity
  8
0
100
AcDbLine
 10
-9.959587775867659
 20
-96.18526180827749
 30
0.0
 11
-14.34403028894426
 21
-96.18526180827749
 31
0.0
  0
LINE
  5
197
330
1F
100
AcDbEntity
  8
0
100
AcDbLine
 10
-14.34403028894426
 20
-96.18526180827749
 30
0.0
 11
-14.34403028894426
 21
-99.7351837844581
 31
0.0
  0
LINE
  5
198
330
1F
100
AcDbEntity
  8
0
100
AcDbLine
 10
-14.34403028894426
 20
-99.7351837844581
 30
0.0
 11
-9.638618338599974
 21
-99.7351837844581
 31
0.0
  0
LINE
  5
199
330
1F
100
AcDbEntity
  8
0
100
AcDbLine
 10
-9.638618338599974
 20
-99.7351837844581
 30
0.0
 11
-9.638618338599974
 21
-100.8649962036404
 31
0.0
  0
LINE
  5
19A
330
1F
100
AcDbEntity
  8
0
100
AcDbLine
 10
-9.638618338599974
 20
-100.8649962036404
 30
0.0
 11
-15.61506926052429
 21
-100.8649962036404
 31
0.0
  0
LINE
  5
19B
330
1F
100
AcDbEntity
  8
0
100
AcDbLine
 10
-6.005244308729762
 20
-100.8649962036404
 30
0.0
 11
-6.005244308729762
 21
-92.43633878099092
 31
0.0
  0
LINE
  5
19C
330
1F
100
AcDbEntity
  8
0
100
AcDbLine
 10
-6.005244308729762
 20
-92.43633878099092
 30
0.0
 11
-9.214938681406629
 21
-92.43633878099092
 31
0.0
  0
LINE
  5
19D
330
1F
100
AcDbEntity
  8
0
100
AcDbLine
 10
-9.214938681406629
 20
-92.43633878099092
 30
0.0
 11
-9.214938681406629
 21
-91.30652636180865
 31
0.0
  0
LINE
  5
19E
330
1F
100
AcDbEntity
  8
0
100
AcDbLine
 10
-9.214938681406629
 20
-91.30652636180865
 30
0.0
 11
-1.524510964472861
 21
-91.30652636180865
 31
0.0
  0
LINE
  5
19F
330
1F
100
AcDbEntity
  8
0
100
AcDbLine
 10
-1.524510964472861
 20
-91.30652636180865
 30
0.0
 11
-1.524510964472861
 21
-92.43633878099092
 31
0.0
  0
LINE
  5
1A0
330
1F
100
AcDbEntity
  8
0
100
AcDbLine
 10
-1.524510964472861
 20
-92.43633878099092
 30
0.0
 11
-4.734205337149725
 21
-92.43633878099092
 31
0.0
  0
LINE
  5
1A1
330
1F
100
AcDbEntity
  8
0
100
AcDbLine
 10
-4.734205337149725
 20
-92.43633878099092
 30
0.0
 11
-4.734205337149725
 21
-100.8649962036404
 31
0.0
  0
LINE
  5
1A2
330
1F
100
AcDbEntity
  8
0
100
AcDbLine
 10
-4.734205337149725
 20
-100.8649962036404
 30
0.0
 11
-6.005244308729762
 21
-100.8649962036404
 31
0.0
  0
LINE
  5
1A3
330
1F
100
AcDbEntity
  8
0
100
AcDbLine
 10
200.8731562004354
 20
-188.4844059881557
 30
0.0
 11
200.8731562004354
 21
-174.4844059881557
 31
0.0
  0
LINE
  5
1A4
330
1F
100
AcDbEntity
  8
0
100
AcDbLine
 10
197.8731562004353
 20
-38.48440598815606
 30
0.0
 11
197.8731562004353
 21
-24.484405988156
 31
0.0
  0
LINE
  5
1A5
330
1F
100
AcDbEntity
  8
0
100
AcDbLine
 10
200.8731562004354
 20
-38.48440598815606
 30
0.0
 11
197.8731562004353
 21
-38.48440598815606
 31
0.0
  0
LINE
  5
1A6
330
1F
100
AcDbEntity
  8
0
100
AcDbLine
 10
200.8731562004354
 20
-55.48440598815581
 30
0.0
 11
200.8731562004354
 21
-38.48440598815606
 31
0.0
  0
LINE
  5
1A7
330
1F
100
AcDbEntity
  8
0
100
AcDbLine
 10
200.8731562004354
 20
-55.48440598815581
 30
0.0
 11
197.8731562004353
 21
-55.48440598815581
 31
0.0
  0
LINE
  5
1A8
330
1F
100
AcDbEntity
  8
0
100
AcDbLine
 10
197.8731562004353
 20
-72.48440598815627
 30
0.0
 11
197.8731562004353
 21
-55.48440598815581
 31
0.0
  0
LINE
  5
1A9
330
1F
100
AcDbEntity
  8
0
100
AcDbLine
 10
200.8731562004354
 20
-72.48440598815627
 30
0.0
 11
197.8731562004353
 21
-72.48440598815627
 31
0.0
  0
LINE
  5
1AA
330
1F
100
AcDbEntity
  8
0
100
AcDbLine
 10
200.8731562004354
 20
-89.4844059881562
 30
0.0
 11
200.8731562004354
 21
-72.48440598815627
 31
0.0
  0
LINE
  5
1AB
330
1F
100
AcDbEntity
  8
0
100
AcDbLine
 10
200.8731562004354
 20
-89.4844059881562
 30
0.0
 11
197.8731562004353
 21
-89.4844059881562
 31
0.0
  0
LINE
  5
1AC
330
1F
100
AcDbEntity
  8
0
100
AcDbLine
 10
197.8731562004353
 20
-106.4844059881561
 30
0.0
 11
197.8731562004353
 21
-89.4844059881562
 31
0.0
  0
LINE
  5
1AD
330
1F
100
AcDbEntity
  8
0
100
AcDbLine
 10
200.8731562004354
 20
-106.4844059881559
 30
0.0
 11
197.8731562004353
 21
-106.4844059881561
 31
0.0
  0
LINE
  5
1AE
330
1F
100
AcDbEntity
  8
0
100
AcDbLine
 10
200.8731562004354
 20
-123.4844059881557
 30
0.0
 11
200.8731562004354
 21
-106.4844059881559
 31
0.0
  0
LINE
  5
1AF
330
1F
100
AcDbEntity
  8
0
100
AcDbLine
 10
200.8731562004354
 20
-123.4844059881557
 30
0.0
 11
197.8731562004353
 21
-123.4844059881559
 31
0.0
  0
LINE
  5
1B0
330
1F
100
AcDbEntity
  8
0
100
AcDbLine
 10
197.8731562004353
 20
-140.4844059881559
 30
0.0
 11
197.8731562004353
 21
-123.4844059881559
 31
0.0
  0
LINE
  5
1B1
330
1F
100
AcDbEntity
  8
0
100
AcDbLine
 10
200.8731562004354
 20
-140.4844059881559
 30
0.0
 11
197.8731562004353
 21
-140.4844059881559
 31
0.0
  0
LINE
  5
1B2
330
1F
100
AcDbEntity
  8
0
100
AcDbLine
 10
200.8731562004354
 20
-157.4844059881556
 30
0.0
 11
200.8731562004354
 21
-140.4844059881559
 31
0.0
  0
LINE
  5
1B3
330
1F
100
AcDbEntity
  8
0
100
AcDbLine
 10
200.8731562004354
 20
-157.4844059881556
 30
0.0
 11
197.8731562004353
 21
-157.4844059881557
 31
0.0
  0
LINE
  5
1B4
330
1F
100
AcDbEntity
  8
0
100
AcDbLine
 10
197.8731562004353
 20
-174.4844059881558
 30
0.0
 11
197.8731562004353
 21
-157.4844059881557
 31
0.0
  0
LINE
  5
1B5
330
1F
100
AcDbEntity
  8
0
100
AcDbLine
 10
200.8731562004354
 20
-174.4844059881557
 30
0.0
 11
197.8731562004353
 21
-174.4844059881558
 31
0.0
  0
LINE
  5
1B6
330
1F
100
AcDbEntity
  8
0
100
AcDbLine
 10
177.8731562004357
 20
-21.4844059881565
 30
0.0
 11
177.8731562004357
 21
-24.48440598815618
 31
0.0
  0
LINE
  5
1B7
330
1F
100
AcDbEntity
  8
0
100
AcDbLine
 10
177.8731562004357
 20
-21.4844059881565
 30
0.0
 11
152.8731562004378
 21
-21.48440598815406
 31
0.0
  0
LINE
  5
1B8
330
1F
100
AcDbEntity
  8
0
100
AcDbLine
 10
177.8731562004357
 20
-191.4844059881554
 30
0.0
 11
177.8731562004357
 21
-188.4844059881557
 31
0.0
  0
LINE
  5
1B9
330
1F
100
AcDbEntity
  8
0
100
AcDbLine
 10
149.8731562004378
 20
-191.4844059881541
 30
0.0
 11
177.8731562004357
 21
-191.4844059881554
 31
0.0
  0
LINE
  5
1BA
330
1F
100
AcDbEntity
  8
0
100
AcDbLine
 10
177.8731562004357
 20
-188.4844059881557
 30
0.0
 11
200.8731562004354
 21
-188.4844059881557
 31
0.0
  0
LINE
  5
1BB
330
1F
100
AcDbEntity
  8
0
100
AcDbLine
 10
-10.75411282203326
 20
-115.4996192599761
 30
0.0
 11
-10.90241023582635
 21
-116.2685688129774
 31
0.0
  0
LINE
  5
1BC
330
1F
100
AcDbEntity
  8
0
100
AcDbLine
 10
-4.266689450385734
 20
-119.1842999751741
 30
0.0
 11
-4.619778530845559
 21
-120.0270059138714
 31
0.0
  0
LINE
  5
1BD
330
1F
100
AcDbEntity
  8
0
100
AcDbLine
 10
-10.17975458448539
 20
-119.9469723889672
 30
0.0
 11
-9.760755542339767
 21
-120.3740140157232
 31
0.0
  0
LINE
  5
1BE
330
1F
100
AcDbEntity
  8
0
100
AcDbLine
 10
-9.291539386528772
 20
-113.5693989534627
 30
0.0
 11
-9.767817323949005
 21
-113.869916993054
 31
0.0
  0
LINE
  5
1BF
330
1F
100
AcDbEntity
  8
0
100
AcDbLine
 10
-3.977941046809759
 20
-117.1316754541014
 30
0.0
 11
-4.050128147703821
 21
-118.2129126827092
 31
0.0
  0
LINE
  5
1C0
330
1F
100
AcDbEntity
  8
0
100
AcDbLine
 10
-4.051697432505863
 20
-116.0284682382648
 30
0.0
 11
-3.977941046809759
 21
-117.1316754541014
 31
0.0
  0
LINE
  5
1C1
330
1F
100
AcDbEntity
  8
0
100
AcDbLine
 10
-11.60466518474085
 20
-120.0285751986735
 30
0.0
 11
-11.95618498039854
 21
-119.1905771143823
 31
0.0
  0
LINE
  5
1C2
330
1F
100
AcDbEntity
  8
0
100
AcDbLine
 10
-6.394639641956663
 20
-112.5933038065918
 30
0.0
 11
-5.688461481037105
 21
-112.9934714311128
 31
0.0
  0
LINE
  5
1C3
330
1F
100
AcDbEntity
  8
0
100
AcDbLine
 10
-11.95304641079445
 20
-115.060219515404
 30
0.0
 11
-11.59917268793365
 21
-114.2316371399251
 31
0.0
  0
LINE
  5
1C4
330
1F
100
AcDbEntity
  8
0
100
AcDbLine
 10
-4.627624954855773
 20
-114.2175135767067
 30
0.0
 11
-4.272966589593906
 21
-115.0539423761958
 31
0.0
  0
LINE
  5
1C5
330
1F
100
AcDbEntity
  8
0
100
AcDbLine
 10
-8.743074348214657
 20
-113.3928544132328
 30
0.0
 11
-9.291539386528772
 21
-113.5693989534627
 31
0.0
  0
LINE
  5
1C6
330
1F
100
AcDbEntity
  8
0
100
AcDbLine
 10
-5.471900178355101
 20
-115.4870649815598
 30
0.0
 11
-5.713570037869792
 21
-114.8326732191077
 31
0.0
  0
LINE
  5
1C7
330
1F
100
AcDbEntity
  8
0
100
AcDbLine
 10
-6.931335044255501
 20
-113.5756760926709
 30
0.0
 11
-7.48764650657992
 21
-113.3944236980349
 31
0.0
  0
LINE
  5
1C8
330
1F
100
AcDbEntity
  8
0
100
AcDbLine
 10
-10.51322760491963
 20
-114.8389503583159
 30
0.0
 11
-10.75411282203326
 21
-115.4996192599761
 31
0.0
  0
LINE
  5
1C9
330
1F
100
AcDbEntity
  8
0
100
AcDbLine
 10
-8.72502757299112
 20
-120.8620615891588
 30
0.0
 11
-8.108298645788096
 21
-120.9230675358382
 31
0.0
  0
LINE
  5
1CA
330
1F
100
AcDbEntity
  8
0
100
AcDbLine
 10
-7.491765879185248
 20
-120.8620615891588
 30
0.0
 11
-6.941535395468825
 21
-120.6790437491205
 31
0.0
  0
LINE
  5
1CB
330
1F
100
AcDbEntity
  8
0
100
AcDbLine
 10
-4.050128147703821
 20
-118.2129126827092
 30
0.0
 11
-4.266689450385734
 21
-119.1842999751741
 31
0.0
  0
LINE
  5
1CC
330
1F
100
AcDbEntity
  8
0
100
AcDbLine
 10
-5.713570037869792
 20
-114.8326732191077
 30
0.0
 11
-6.03684270709071
 21
-114.3006856712149
 31
0.0
  0
LINE
  5
1CD
330
1F
100
AcDbEntity
  8
0
100
AcDbLine
 10
-4.619778530845559
 20
-120.0270059138714
 30
0.0
 11
-5.101548965072896
 21
-120.7221990811767
 31
0.0
  0
LINE
  5
1CE
330
1F
100
AcDbEntity
  8
0
100
AcDbLine
 10
-5.101548965072896
 20
-120.7221990811767
 30
0.0
 11
-5.72063181947903
 21
-121.2894955371154
 31
0.0
  0
LINE
  5
1CF
330
1F
100
AcDbEntity
  8
0
100
AcDbLine
 10
-10.90358719942795
 20
-117.9973321830285
 30
0.0
 11
-10.75882067643939
 21
-118.7551005818153
 31
0.0
  0
LINE
  5
1D0
330
1F
100
AcDbEntity
  8
0
100
AcDbLine
 10
-9.760755542339767
 20
-120.3740140157232
 30
0.0
 11
-9.275846538508343
 21
-120.6790437491205
 31
0.0
  0
LINE
  5
1D1
330
1F
100
AcDbEntity
  8
0
100
AcDbLine
 10
-6.941535395468825
 20
-120.6790437491205
 30
0.0
 11
-6.457607194638644
 21
-120.3740140157232
 31
0.0
  0
LINE
  5
1D2
330
1F
100
AcDbEntity
  8
0
100
AcDbLine
 10
-6.457607194638644
 20
-120.3740140157232
 30
0.0
 11
-6.039981276694796
 21
-119.9469723889672
 31
0.0
  0
LINE
  5
1D3
330
1F
100
AcDbEntity
  8
0
100
AcDbLine
 10
-10.95184270709075
 20
-117.1316754541014
 30
0.0
 11
-10.90358719942795
 21
-117.9973321830285
 31
0.0
  0
LINE
  5
1D4
330
1F
100
AcDbEntity
  8
0
100
AcDbLine
 10
-4.272966589593906
 20
-115.0539423761958
 30
0.0
 11
-4.051697432505863
 21
-116.0284682382648
 31
0.0
  0
LINE
  5
1D5
330
1F
100
AcDbEntity
  8
0
100
AcDbLine
 10
-10.52813581053899
 20
-121.2777259011
 30
0.0
 11
-11.12760260491964
 21
-120.7221990811767
 31
0.0
  0
LINE
  5
1D6
330
1F
100
AcDbEntity
  8
0
100
AcDbLine
 10
-9.821957649619529
 20
-121.6763242408191
 30
0.0
 11
-10.52813581053899
 21
-121.2777259011
 31
0.0
  0
LINE
  5
1D7
330
1F
100
AcDbEntity
  8
0
100
AcDbLine
 10
-12.17196164067948
 20
-116.0237603838586
 30
0.0
 11
-11.95304641079445
 21
-115.060219515404
 31
0.0
  0
LINE
  5
1D8
330
1F
100
AcDbEntity
  8
0
100
AcDbLine
 10
-9.275846538508343
 20
-120.6790437491205
 30
0.0
 11
-8.72502757299112
 21
-120.8620615891588
 31
0.0
  0
LINE
  5
1D9
330
1F
100
AcDbEntity
  8
0
100
AcDbLine
 10
-5.703565847256734
 20
-119.4049806504615
 30
0.0
 11
-5.463269111943911
 21
-118.7551005818153
 31
0.0
  0
LINE
  5
1DA
330
1F
100
AcDbEntity
  8
0
100
AcDbLine
 10
-6.445641398023101
 20
-113.8777634170643
 30
0.0
 11
-6.931335044255501
 21
-113.5756760926709
 31
0.0
  0
LINE
  5
1DB
330
1F
100
AcDbEntity
  8
0
100
AcDbLine
 10
-6.039981276694796
 20
-119.9469723889672
 30
0.0
 11
-5.703565847256734
 21
-119.4049806504615
 31
0.0
  0
LINE
  5
1DC
330
1F
100
AcDbEntity
  8
0
100
AcDbLine
 10
-8.114575784996267
 20
-112.2606154285585
 30
0.0
 11
-7.207529169415134
 21
-112.3437875230669
 31
0.0
  0
LINE
  5
1DD
330
1F
100
AcDbEntity
  8
0
100
AcDbLine
 10
-5.271031723693525
 20
-117.1316754541014
 30
0.0
 11
-5.321248837358986
 21
-116.2560145345611
 31
0.0
  0
LINE
  5
1DE
330
1F
100
AcDbEntity
  8
0
100
AcDbLine
 10
-5.72063181947903
 20
-121.2894955371154
 30
0.0
 11
-6.435441046809777
 21
-121.6857399496314
 31
0.0
  0
LINE
  5
1DF
330
1F
100
AcDbEntity
  8
0
100
AcDbLine
 10
-9.818819080015443
 20
-112.5838880977795
 30
0.0
 11
-9.011422049364077
 21
-112.3414335958638
 31
0.0
  0
LINE
  5
1E0
330
1F
100
AcDbEntity
  8
0
100
AcDbLine
 10
-12.24493338397451
 20
-117.1316754541014
 30
0.0
 11
-12.17196164067948
 21
-116.0237603838586
 31
0.0
  0
LINE
  5
1E1
330
1F
100
AcDbEntity
  8
0
100
AcDbLine
 10
-7.207529169415134
 20
-112.3437875230669
 30
0.0
 11
-6.394639641956663
 21
-112.5933038065918
 31
0.0
  0
LINE
  5
1E2
330
1F
100
AcDbEntity
  8
0
100
AcDbLine
 10
-9.01534526136914
 20
-121.9164248155317
 30
0.0
 11
-9.821957649619529
 21
-121.6763242408191
 31
0.0
  0
LINE
  5
1E3
330
1F
100
AcDbEntity
  8
0
100
AcDbLine
 10
-7.48764650657992
 20
-113.3944236980349
 30
0.0
 11
-8.108298645788096
 21
-113.3340062331563
 31
0.0
  0
LINE
  5
1E4
330
1F
100
AcDbEntity
  8
0
100
AcDbLine
 10
-11.59917268793365
 20
-114.2316371399251
 30
0.0
 11
-11.12132546571147
 21
-113.5285975486096
 31
0.0
  0
LINE
  5
1E5
330
1F
100
AcDbEntity
  8
0
100
AcDbLine
 10
-5.688461481037105
 20
-112.9934714311128
 30
0.0
 11
-5.101548965072896
 21
-113.5285975486096
 31
0.0
  0
LINE
  5
1E6
330
1F
100
AcDbEntity
  8
0
100
AcDbLine
 10
-6.03684270709071
 20
-114.3006856712149
 30
0.0
 11
-6.445641398023101
 21
-113.8777634170643
 31
0.0
  0
LINE
  5
1E7
330
1F
100
AcDbEntity
  8
0
100
AcDbLine
 10
-11.12132546571147
 20
-113.5285975486096
 30
0.0
 11
-10.52578188333598
 21
-112.9817017950975
 31
0.0
  0
LINE
  5
1E8
330
1F
100
AcDbEntity
  8
0
100
AcDbLine
 10
-10.18603172369356
 20
-114.3006856712149
 30
0.0
 11
-10.51322760491963
 21
-114.8389503583159
 31
0.0
  0
LINE
  5
1E9
330
1F
100
AcDbEntity
  8
0
100
AcDbLine
 10
-6.435441046809777
 20
-121.6857399496314
 30
0.0
 11
-7.236560938252972
 21
-121.9187787427348
 31
0.0
  0
LINE
  5
1EA
330
1F
100
AcDbEntity
  8
0
100
AcDbLine
 10
-10.90241023582635
 20
-116.2685688129774
 30
0.0
 11
-10.95184270709075
 21
-117.1316754541014
 31
0.0
  0
LINE
  5
1EB
330
1F
100
AcDbEntity
  8
0
100
AcDbLine
 10
-5.101548965072896
 20
-113.5285975486096
 30
0.0
 11
-4.627624954855773
 21
-114.2175135767067
 31
0.0
  0
LINE
  5
1EC
330
1F
100
AcDbEntity
  8
0
100
AcDbLine
 10
-8.114575784996267
 20
-121.9964583404359
 30
0.0
 11
-9.01534526136914
 21
-121.9164248155317
 31
0.0
  0
LINE
  5
1ED
330
1F
100
AcDbEntity
  8
0
100
AcDbLine
 10
-5.321248837358986
 20
-116.2560145345611
 30
0.0
 11
-5.471900178355101
 21
-115.4870649815598
 31
0.0
  0
LINE
  5
1EE
330
1F
100
AcDbEntity
  8
0
100
AcDbLine
 10
-10.75882067643939
 20
-118.7551005818153
 30
0.0
 11
-10.51754313812523
 21
-119.4049806504615
 31
0.0
  0
LINE
  5
1EF
330
1F
100
AcDbEntity
  8
0
100
AcDbLine
 10
-11.95618498039854
 20
-119.1905771143823
 30
0.0
 11
-12.17274628308054
 21
-118.2207591067195
 31
0.0
  0
LINE
  5
1F0
330
1F
100
AcDbEntity
  8
0
100
AcDbLine
 10
-12.17274628308054
 20
-118.2207591067195
 30
0.0
 11
-12.24493338397451
 21
-117.1316754541014
 31
0.0
  0
LINE
  5
1F1
330
1F
100
AcDbEntity
  8
0
100
AcDbLine
 10
-9.767817323949005
 20
-113.869916993054
 30
0.0
 11
-10.18603172369356
 21
-114.3006856712149
 31
0.0
  0
LINE
  5
1F2
330
1F
100
AcDbEntity
  8
0
100
AcDbLine
 10
-10.52578188333598
 20
-112.9817017950975
 30
0.0
 11
-9.818819080015443
 21
-112.5838880977795
 31
0.0
  0
LINE
  5
1F3
330
1F
100
AcDbEntity
  8
0
100
AcDbLine
 10
-11.12760260491964
 20
-120.7221990811767
 30
0.0
 11
-11.60466518474085
 21
-120.0285751986735
 31
0.0
  0
LINE
  5
1F4
330
1F
100
AcDbEntity
  8
0
100
AcDbLine
 10
-10.51754313812523
 20
-119.4049806504615
 30
0.0
 11
-10.17975458448539
 21
-119.9469723889672
 31
0.0
  0
LINE
  5
1F5
330
1F
100
AcDbEntity
  8
0
100
AcDbLine
 10
-5.463269111943911
 20
-118.7551005818153
 30
0.0
 11
-5.319091070756144
 21
-117.9973321830285
 31
0.0
  0
LINE
  5
1F6
330
1F
100
AcDbEntity
  8
0
100
AcDbLine
 10
-5.319091070756144
 20
-117.9973321830285
 30
0.0
 11
-5.271031723693525
 21
-117.1316754541014
 31
0.0
  0
LINE
  5
1F7
330
1F
100
AcDbEntity
  8
0
100
AcDbLine
 10
-8.108298645788096
 20
-120.9230675358382
 30
0.0
 11
-8.114575784996267
 21
-121.9964583404359
 31
0.0
  0
LINE
  5
1F8
330
1F
100
AcDbEntity
  8
0
100
AcDbLine
 10
-7.491765879185248
 20
-120.8620615891588
 30
0.0
 11
-7.236560938252972
 21
-121.9187787427348
 31
0.0
  0
LINE
  5
1F9
330
1F
100
AcDbEntity
  8
0
100
AcDbLine
 10
-8.743074348214657
 20
-113.3928544132328
 30
0.0
 11
-9.011422049364077
 21
-112.3414335958638
 31
0.0
  0
LINE
  5
1FA
330
1F
100
AcDbEntity
  8
0
100
AcDbLine
 10
-8.108298645788096
 20
-113.3340062331563
 30
0.0
 11
-8.114575784996267
 21
-112.2606154285585
 31
0.0
  0
LINE
  5
1FB
330
1F
100
AcDbEntity
  8
0
100
AcDbLine
 10
-5.513178410034722
 20
-78.45872441986846
 30
0.0
 11
-5.513178410034722
 21
-79.54429274681614
 31
0.0
  0
LINE
  5
1FC
330
1F
100
AcDbEntity
  8
0
100
AcDbLine
 10
-4.722948524977221
 20
-78.42519951565401
 30
0.0
 11
-4.722948524977221
 21
-79.50597857057105
 31
0.0
  0
LINE
  5
1FD
330
1F
100
AcDbEntity
  8
0
100
AcDbLine
 10
-5.513178410034722
 20
-71.12155966891063
 30
0.0
 11
-5.513178410034722
 21
-70.03599134196305
 31
0.0
  0
LINE
  5
1FE
330
1F
100
AcDbEntity
  8
0
100
AcDbLine
 10
-4.727737797008049
 20
-71.15508457312517
 30
0.0
 11
-4.727737797008049
 21
-70.07168563624361
 31
0.0
  0
LINE
  5
1FF
330
1F
100
AcDbEntity
  8
0
100
AcDbLine
 10
-26.24114775869377
 20
-74.97692365358502
 30
0.0
 11
-27.05851685192485
 21
-75.4063617123334
 31
0.0
  0
LINE
  5
200
330
1F
100
AcDbEntity
  8
0
100
AcDbLine
 10
-29.77243766929391
 20
-71.12155966891063
 30
0.0
 11
-29.77243766929391
 21
-74.7103208438788
 31
0.0
  0
LINE
  5
201
330
1F
100
AcDbEntity
  8
0
100
AcDbLine
 10
-29.77243766929391
 20
-74.7103208438788
 30
0.0
 11
-29.05085401667577
 21
-74.7103208438788
 31
0.0
  0
LINE
  5
202
330
1F
100
AcDbEntity
  8
0
100
AcDbLine
 10
-25.31522183276775
 20
-79.54429274681614
 30
0.0
 11
-28.32927036405764
 21
-75.76396069062208
 31
0.0
  0
LINE
  5
203
330
1F
100
AcDbEntity
  8
0
100
AcDbLine
 10
-29.77243766929391
 20
-75.76396069062208
 30
0.0
 11
-29.77243766929391
 21
-79.54429274681614
 31
0.0
  0
LINE
  5
204
330
1F
100
AcDbEntity
  8
0
100
AcDbLine
 10
-25.21783996814451
 20
-73.57685979662457
 30
0.0
 11
-25.3834689592045
 21
-73.99272825128617
 31
0.0
  0
LINE
  5
205
330
1F
100
AcDbEntity
  8
0
100
AcDbLine
 10
-27.00743128359786
 20
-71.447230166995
 30
0.0
 11
-27.63322949560305
 21
-71.19499517338065
 31
0.0
  0
LINE
  5
206
330
1F
100
AcDbEntity
  8
0
100
AcDbLine
 10
-26.74082847389165
 20
-71.68110628449173
 30
0.0
 11
-27.00743128359786
 21
-71.447230166995
 31
0.0
  0
LINE
  5
207
330
1F
100
AcDbEntity
  8
0
100
AcDbLine
 10
-27.68431506392995
 20
-74.61453540326569
 30
0.0
 11
-27.28201621335541
 21
-74.46766439432575
 31
0.0
  0
LINE
  5
208
330
1F
100
AcDbEntity
  8
0
100
AcDbLine
 10
-25.08533677529651
 20
-72.6158125424739
 30
0.0
 11
-25.21783996814451
 21
-73.57685979662457
 31
0.0
  0
LINE
  5
209
330
1F
100
AcDbEntity
  8
0
100
AcDbLine
 10
-26.67617330147787
 20
-70.27385851948537
 30
0.0
 11
-26.16451940620324
 21
-70.54046132919167
 31
0.0
  0
LINE
  5
20A
330
1F
100
AcDbEntity
  8
0
100
AcDbLine
 10
-27.05851685192485
 20
-75.4063617123334
 30
0.0
 11
-23.67409795026474
 21
-79.54429274681614
 31
0.0
  0
LINE
  5
20B
330
1F
100
AcDbEntity
  8
0
100
AcDbLine
 10
-25.3834689592045
 20
-73.99272825128617
 30
0.0
 11
-25.61534954668867
 21
-74.36549325767194
 31
0.0
  0
LINE
  5
20C
330
1F
100
AcDbEntity
  8
0
100
AcDbLine
 10
-26.55404686469632
 20
-71.97405009036665
 30
0.0
 11
-26.74082847389165
 21
-71.68110628449173
 31
0.0
  0
LINE
  5
20D
330
1F
100
AcDbEntity
  8
0
100
AcDbLine
 10
-23.67409795026474
 20
-79.54429274681614
 30
0.0
 11
-25.31522183276775
 21
-79.54429274681614
 31
0.0
  0
LINE
  5
20E
330
1F
100
AcDbEntity
  8
0
100
AcDbLine
 10
-25.61534954668867
 20
-74.36549325767194
 30
0.0
 11
-26.24114775869377
 21
-74.97692365358502
 31
0.0
  0
LINE
  5
20F
330
1F
100
AcDbEntity
  8
0
100
AcDbLine
 10
-29.77243766929391
 20
-79.54429274681614
 30
0.0
 11
-31.03680548538602
 21
-79.54429274681614
 31
0.0
  0
LINE
  5
210
330
1F
100
AcDbEntity
  8
0
100
AcDbLine
 10
-26.40717585575639
 20
-72.71159798308693
 30
0.0
 11
-26.44389360799126
 21
-72.31967588857857
 31
0.0
  0
LINE
  5
211
330
1F
100
AcDbEntity
  8
0
100
AcDbLine
 10
-26.44389360799126
 20
-72.31967588857857
 30
0.0
 11
-26.55404686469632
 21
-71.97405009036665
 31
0.0
  0
LINE
  5
212
330
1F
100
AcDbEntity
  8
0
100
AcDbLine
 10
-27.63322949560305
 20
-71.19499517338065
 30
0.0
 11
-28.52084124528371
 21
-71.12155966891063
 31
0.0
  0
LINE
  5
213
330
1F
100
AcDbEntity
  8
0
100
AcDbLine
 10
-25.15797406776146
 20
-71.92935021808051
 30
0.0
 11
-25.08533677529651
 21
-72.6158125424739
 31
0.0
  0
LINE
  5
214
330
1F
100
AcDbEntity
  8
0
100
AcDbLine
 10
-31.03680548538602
 20
-79.54429274681614
 30
0.0
 11
-31.03680548538602
 21
-70.03599134196305
 31
0.0
  0
LINE
  5
215
330
1F
100
AcDbEntity
  8
0
100
AcDbLine
 10
-27.21496640492626
 20
-70.12539108653513
 30
0.0
 11
-26.67617330147787
 21
-70.27385851948537
 31
0.0
  0
LINE
  5
216
330
1F
100
AcDbEntity
  8
0
100
AcDbLine
 10
-25.71831889534754
 20
-70.90604242753133
 30
0.0
 11
-25.37588594515604
 21
-71.3642161184637
 31
0.0
  0
LINE
  5
217
330
1F
100
AcDbEntity
  8
0
100
AcDbLine
 10
-25.37588594515604
 20
-71.3642161184637
 30
0.0
 11
-25.15797406776146
 21
-71.92935021808051
 31
0.0
  0
LINE
  5
218
330
1F
100
AcDbEntity
  8
0
100
AcDbLine
 10
-31.03680548538602
 20
-70.03599134196305
 30
0.0
 11
-29.14663945728881
 21
-70.03599134196305
 31
0.0
  0
LINE
  5
219
330
1F
100
AcDbEntity
  8
0
100
AcDbLine
 10
-26.16451940620324
 20
-70.54046132919167
 30
0.0
 11
-25.71831889534754
 21
-70.90604242753133
 31
0.0
  0
LINE
  5
21A
330
1F
100
AcDbEntity
  8
0
100
AcDbLine
 10
-2.913401909396131
 20
-79.16274740837422
 30
0.0
 11
-3.651748014121575
 21
-79.39103604183543
 31
0.0
  0
LINE
  5
21B
330
1F
100
AcDbEntity
  8
0
100
AcDbLine
 10
-27.28201621335541
 20
-74.46766439432575
 30
0.0
 11
-26.94357432318923
 21
-74.21862224873183
 31
0.0
  0
LINE
  5
21C
330
1F
100
AcDbEntity
  8
0
100
AcDbLine
 10
-21.65621800135009
 20
-78.42041024362328
 30
0.0
 11
-16.97550280339356
 21
-78.42041024362328
 31
0.0
  0
LINE
  5
21D
330
1F
100
AcDbEntity
  8
0
100
AcDbLine
 10
-16.97550280339356
 20
-71.1598738451559
 30
0.0
 11
-21.65621800135009
 21
-71.1598738451559
 31
0.0
  0
LINE
  5
21E
330
1F
100
AcDbEntity
  8
0
100
AcDbLine
 10
-13.40589871654816
 20
-70.03599134196305
 30
0.0
 11
-11.84778888257618
 21
-70.03599134196305
 31
0.0
  0
LINE
  5
21F
330
1F
100
AcDbEntity
  8
0
100
AcDbLine
 10
-0.7717990996899018
 20
-77.14965673149058
 30
0.0
 11
-1.388816979638771
 21
-78.08196835345728
 31
0.0
  0
LINE
  5
220
330
1F
100
AcDbEntity
  8
0
100
AcDbLine
 10
-22.92058581744211
 20
-79.54429274681614
 30
0.0
 11
-22.92058581744211
 21
-70.03599134196305
 31
0.0
  0
LINE
  5
221
330
1F
100
AcDbEntity
  8
0
100
AcDbLine
 10
-16.61151812906402
 20
-79.54429274681614
 30
0.0
 11
-13.40589871654816
 21
-70.03599134196305
 31
0.0
  0
LINE
  5
222
330
1F
100
AcDbEntity
  8
0
100
AcDbLine
 10
-0.2449791763182652
 20
-74.79972058845088
 30
0.0
 11
-0.3766841571611067
 21
-76.03854562037937
 31
0.0
  0
LINE
  5
223
330
1F
100
AcDbEntity
  8
0
100
AcDbLine
 10
-26.70490893366175
 20
-73.92488023085187
 30
0.0
 11
-26.53808262459416
 21
-73.580052644645
 31
0.0
  0
LINE
  5
224
330
1F
100
AcDbEntity
  8
0
100
AcDbLine
 10
-21.65621800135009
 20
-73.7652378298302
 30
0.0
 11
-17.29478760543707
 21
-73.7652378298302
 31
0.0
  0
LINE
  5
225
330
1F
100
AcDbEntity
  8
0
100
AcDbLine
 10
-16.97550280339356
 20
-70.03599134196305
 30
0.0
 11
-16.97550280339356
 21
-71.1598738451559
 31
0.0
  0
LINE
  5
226
330
1F
100
AcDbEntity
  8
0
100
AcDbLine
 10
-7.741786328297933
 20
-79.54429274681614
 30
0.0
 11
-7.741786328297933
 21
-70.03599134196305
 31
0.0
  0
LINE
  5
227
330
1F
100
AcDbEntity
  8
0
100
AcDbLine
 10
-26.94357432318923
 20
-74.21862224873183
 30
0.0
 11
-26.70490893366175
 21
-73.92488023085187
 31
0.0
  0
LINE
  5
228
330
1F
100
AcDbEntity
  8
0
100
AcDbLine
 10
-12.65877227976648
 20
-71.32590194221842
 30
0.0
 11
-14.12109667312534
 21
-75.80866056290812
 31
0.0
  0
LINE
  5
229
330
1F
100
AcDbEntity
  8
0
100
AcDbLine
 10
-1.92441723506664
 20
-72.90636171233334
 30
0.0
 11
-2.376205229958047
 21
-72.21590832791445
 31
0.0
  0
LINE
  5
22A
330
1F
100
AcDbEntity
  8
0
100
AcDbLine
 10
-2.376205229958047
 20
-72.21590832791445
 30
0.0
 11
-3.003599865973364
 21
-71.69627231258893
 31
0.0
  0
LINE
  5
22B
330
1F
100
AcDbEntity
  8
0
100
AcDbLine
 10
-5.513178410034722
 20
-71.12155966891063
 30
0.0
 11
-6.477418512205825
 21
-71.12155966891063
 31
0.0
  0
LINE
  5
22C
330
1F
100
AcDbEntity
  8
0
100
AcDbLine
 10
-3.525630517314354
 20
-71.43286235090297
 30
0.0
 11
-4.082782496880269
 21
-71.25565928576884
 31
0.0
  0
LINE
  5
22D
330
1F
100
AcDbEntity
  8
0
100
AcDbLine
 10
-22.92058581744211
 20
-70.03599134196305
 30
0.0
 11
-16.97550280339356
 21
-70.03599134196305
 31
0.0
  0
LINE
  5
22E
330
1F
100
AcDbEntity
  8
0
100
AcDbLine
 10
-6.477418512205825
 20
-78.45872441986846
 30
0.0
 11
-5.513178410034722
 21
-78.45872441986846
 31
0.0
  0
LINE
  5
22F
330
1F
100
AcDbEntity
  8
0
100
AcDbLine
 10
-17.29478760543707
 20
-73.7652378298302
 30
0.0
 11
-17.29478760543707
 21
-74.88912033302306
 31
0.0
  0
LINE
  5
230
330
1F
100
AcDbEntity
  8
0
100
AcDbLine
 10
-4.038082624594049
 20
-78.32462480301025
 30
0.0
 11
-3.433037924721932
 21
-78.13305392178418
 31
0.0
  0
LINE
  5
231
330
1F
100
AcDbEntity
  8
0
100
AcDbLine
 10
-11.84778888257618
 20
-70.03599134196305
 30
0.0
 11
-8.642169470060226
 21
-79.54429274681614
 31
0.0
  0
LINE
  5
232
330
1F
100
AcDbEntity
  8
0
100
AcDbLine
 10
-1.388816979638771
 20
-78.08196835345728
 30
0.0
 11
-2.186230772742197
 21
-78.78439491795282
 31
0.0
  0
LINE
  5
233
330
1F
100
AcDbEntity
  8
0
100
AcDbLine
 10
-0.3710966731254871
 20
-73.5042225041598
 30
0.0
 11
-0.2449791763182652
 21
-74.79972058845088
 31
0.0
  0
LINE
  5
234
330
1F
100
AcDbEntity
  8
0
100
AcDbLine
 10
-3.472948524977325
 20
-70.23714076725041
 30
0.0
 11
-2.766530900456195
 21
-70.4758061567778
 31
0.0
  0
LINE
  5
235
330
1F
100
AcDbEntity
  8
0
100
AcDbLine
 10
-4.722948524977221
 20
-78.42519951565401
 30
0.0
 11
-4.038082624594049
 21
-78.32462480301025
 31
0.0
  0
LINE
  5
236
330
1F
100
AcDbEntity
  8
0
100
AcDbLine
 10
-3.433037924721932
 20
-78.13305392178418
 30
0.0
 11
-2.88227164119706
 21
-77.8265405118225
 31
0.0
  0
LINE
  5
237
330
1F
100
AcDbEntity
  8
0
100
AcDbLine
 10
-2.88227164119706
 20
-77.8265405118225
 30
0.0
 11
-2.305962573508466
 21
-77.30530807248667
 31
0.0
  0
LINE
  5
238
330
1F
100
AcDbEntity
  8
0
100
AcDbLine
 10
-2.305962573508466
 20
-77.30530807248667
 30
0.0
 11
-1.892488754862325
 21
-76.63560820020058
 31
0.0
  0
LINE
  5
239
330
1F
100
AcDbEntity
  8
0
100
AcDbLine
 10
-0.5287435441344016
 20
-72.92891120147772
 30
0.0
 11
-0.3710966731254871
 21
-73.5042225041598
 31
0.0
  0
LINE
  5
23A
330
1F
100
AcDbEntity
  8
0
100
AcDbLine
 10
-21.65621800135009
 20
-71.1598738451559
 30
0.0
 11
-21.65621800135009
 21
-73.7652378298302
 31
0.0
  0
LINE
  5
23B
330
1F
100
AcDbEntity
  8
0
100
AcDbLine
 10
-16.97550280339356
 20
-79.54429274681614
 30
0.0
 11
-22.92058581744211
 21
-79.54429274681614
 31
0.0
  0
LINE
  5
23C
330
1F
100
AcDbEntity
  8
0
100
AcDbLine
 10
-0.3766841571611067
 20
-76.03854562037937
 30
0.0
 11
-0.7717990996899018
 21
-77.14965673149058
 31
0.0
  0
LINE
  5
23D
330
1F
100
AcDbEntity
  8
0
100
AcDbLine
 10
-26.53808262459416
 20
-73.580052644645
 30
0.0
 11
-26.40717585575639
 21
-72.71159798308693
 31
0.0
  0
LINE
  5
23E
330
1F
100
AcDbEntity
  8
0
100
AcDbLine
 10
-17.29478760543707
 20
-74.88912033302306
 30
0.0
 11
-21.65621800135009
 21
-74.88912033302306
 31
0.0
  0
LINE
  5
23F
330
1F
100
AcDbEntity
  8
0
100
AcDbLine
 10
-10.83884890811912
 20
-76.88784319381485
 30
0.0
 11
-12.27753909362821
 21
-76.88784319381485
 31
0.0
  0
LINE
  5
240
330
1F
100
AcDbEntity
  8
0
100
AcDbLine
 10
-8.642169470060226
 20
-79.54429274681614
 30
0.0
 11
-9.976779942601736
 21
-79.54429274681614
 31
0.0
  0
LINE
  5
241
330
1F
100
AcDbEntity
  8
0
100
AcDbLine
 10
-16.97550280339356
 20
-78.42041024362328
 30
0.0
 11
-16.97550280339356
 21
-79.54429274681614
 31
0.0
  0
LINE
  5
242
330
1F
100
AcDbEntity
  8
0
100
AcDbLine
 10
-11.19006219036676
 20
-75.80866056290812
 30
0.0
 11
-12.65877227976648
 21
-71.32590194221842
 31
0.0
  0
LINE
  5
243
330
1F
100
AcDbEntity
  8
0
100
AcDbLine
 10
-2.186230772742197
 20
-78.78439491795282
 30
0.0
 11
-2.913401909396131
 21
-79.16274740837422
 31
0.0
  0
LINE
  5
244
330
1F
100
AcDbEntity
  8
0
100
AcDbLine
 10
-14.12109667312534
 20
-75.80866056290812
 30
0.0
 11
-12.9512958836082
 21
-75.80866056290812
 31
0.0
  0
LINE
  5
245
330
1F
100
AcDbEntity
  8
0
100
AcDbLine
 10
-3.651748014121575
 20
-79.39103604183543
 30
0.0
 11
-4.498650951541689
 21
-79.50597857057105
 31
0.0
  0
LINE
  5
246
330
1F
100
AcDbEntity
  8
0
100
AcDbLine
 10
-4.380515574785635
 20
-70.08627869828499
 30
0.0
 11
-3.472948524977325
 21
-70.23714076725041
 31
0.0
  0
LINE
  5
247
330
1F
100
AcDbEntity
  8
0
100
AcDbLine
 10
-0.7494491635467916
 20
-72.40189172510482
 30
0.0
 11
-0.5287435441344016
 21
-72.92891120147772
 31
0.0
  0
LINE
  5
248
330
1F
100
AcDbEntity
  8
0
100
AcDbLine
 10
-1.651428729319482
 20
-73.76284319381483
 30
0.0
 11
-1.92441723506664
 21
-72.90636171233334
 31
0.0
  0
LINE
  5
249
330
1F
100
AcDbEntity
  8
0
100
AcDbLine
 10
-3.003599865973364
 20
-71.69627231258893
 30
0.0
 11
-3.525630517314354
 21
-71.43286235090297
 31
0.0
  0
LINE
  5
24A
330
1F
100
AcDbEntity
  8
0
100
AcDbLine
 10
-2.173459380660562
 20
-70.78950347478559
 30
0.0
 11
-1.35768671143961
 21
-71.49592109930654
 31
0.0
  0
LINE
  5
24B
330
1F
100
AcDbEntity
  8
0
100
AcDbLine
 10
-4.082782496880269
 20
-71.25565928576884
 30
0.0
 11
-4.727737797008049
 21
-71.15508457312517
 31
0.0
  0
LINE
  5
24C
330
1F
100
AcDbEntity
  8
0
100
AcDbLine
 10
-21.65621800135009
 20
-74.88912033302306
 30
0.0
 11
-21.65621800135009
 21
-78.42041024362328
 31
0.0
  0
LINE
  5
24D
330
1F
100
AcDbEntity
  8
0
100
AcDbLine
 10
-14.47230995537316
 20
-76.88784319381485
 30
0.0
 11
-15.33437892089045
 21
-79.54429274681614
 31
0.0
  0
LINE
  5
24E
330
1F
100
AcDbEntity
  8
0
100
AcDbLine
 10
-4.498650951541689
 20
-79.50597857057105
 30
0.0
 11
-4.722948524977221
 21
-79.50597857057105
 31
0.0
  0
LINE
  5
24F
330
1F
100
AcDbEntity
  8
0
100
AcDbLine
 10
-1.560432560737096
 20
-74.7805635003283
 30
0.0
 11
-1.651428729319482
 21
-73.76284319381483
 31
0.0
  0
LINE
  5
250
330
1F
100
AcDbEntity
  8
0
100
AcDbLine
 10
-1.35768671143961
 20
-71.49592109930654
 30
0.0
 11
-0.7494491635467916
 21
-72.40189172510482
 31
0.0
  0
LINE
  5
251
330
1F
100
AcDbEntity
  8
0
100
AcDbLine
 10
-2.766530900456195
 20
-70.4758061567778
 30
0.0
 11
-2.173459380660562
 21
-70.78950347478559
 31
0.0
  0
LINE
  5
252
330
1F
100
AcDbEntity
  8
0
100
AcDbLine
 10
-6.477418512205825
 20
-71.12155966891063
 30
0.0
 11
-6.477418512205825
 21
-78.45872441986846
 31
0.0
  0
LINE
  5
253
330
1F
100
AcDbEntity
  8
0
100
AcDbLine
 10
-15.33437892089045
 20
-79.54429274681614
 30
0.0
 11
-16.61151812906402
 21
-79.54429274681614
 31
0.0
  0
LINE
  5
254
330
1F
100
AcDbEntity
  8
0
100
AcDbLine
 10
-9.976779942601736
 20
-79.54429274681614
 30
0.0
 11
-10.83884890811912
 21
-76.88784319381485
 31
0.0
  0
LINE
  5
255
330
1F
100
AcDbEntity
  8
0
100
AcDbLine
 10
6.440844578471098
 20
-70.03599134196305
 30
0.0
 11
7.781840747053471
 21
-70.03599134196305
 31
0.0
  0
LINE
  5
256
330
1F
100
AcDbEntity
  8
0
100
AcDbLine
 10
4.569835638496568
 20
-75.33611905588391
 30
0.0
 11
4.569835638496568
 21
-79.54429274681614
 31
0.0
  0
LINE
  5
257
330
1F
100
AcDbEntity
  8
0
100
AcDbLine
 10
3.30546782240464
 20
-75.47021867274204
 30
0.0
 11
0.093462713847827
 21
-70.03599134196305
 31
0.0
  0
LINE
  5
258
330
1F
100
AcDbEntity
  8
0
100
AcDbLine
 10
7.781840747053471
 20
-70.03599134196305
 30
0.0
 11
4.569835638496568
 21
-75.33611905588391
 31
0.0
  0
LINE
  5
259
330
1F
100
AcDbEntity
  8
0
100
AcDbLine
 10
4.569835638496568
 20
-79.54429274681614
 30
0.0
 11
3.30546782240464
 21
-79.54429274681614
 31
0.0
  0
LINE
  5
25A
330
1F
100
AcDbEntity
  8
0
100
AcDbLine
 10
3.30546782240464
 20
-79.54429274681614
 30
0.0
 11
3.30546782240464
 21
-75.47021867274204
 31
0.0
  0
LINE
  5
25B
330
1F
100
AcDbEntity
  8
0
100
AcDbLine
 10
0.093462713847827
 20
-70.03599134196305
 30
0.0
 11
1.498315842838918
 21
-70.03599134196305
 31
0.0
  0
LINE
  5
25C
330
1F
100
AcDbEntity
  8
0
100
AcDbLine
 10
1.498315842838918
 20
-70.03599134196305
 30
0.0
 11
3.950423122532329
 21
-74.23139364081365
 31
0.0
  0
LINE
  5
25D
330
1F
100
AcDbEntity
  8
0
100
AcDbLine
 10
3.950423122532329
 20
-74.23139364081365
 30
0.0
 11
6.440844578471098
 21
-70.03599134196305
 31
0.0
  0
LINE
  5
25E
330
1F
100
AcDbEntity
  8
0
100
AcDbLine
 10
-1.643446609268403
 20
-75.79988023085188
 30
0.0
 11
-1.560432560737096
 21
-74.7805635003283
 31
0.0
  0
LINE
  5
25F
330
1F
100
AcDbEntity
  8
0
100
AcDbLine
 10
-1.892488754862325
 20
-76.63560820020058
 30
0.0
 11
-1.643446609268403
 21
-75.79988023085188
 31
0.0
  0
LINE
  5
260
330
1F
100
AcDbEntity
  8
0
100
AcDbLine
 10
-4.727737797008049
 20
-70.07168563624361
 30
0.0
 11
-4.380515574785635
 21
-70.08627869828499
 31
0.0
  0
LINE
  5
261
330
1F
100
AcDbEntity
  8
0
100
AcDbLine
 10
-12.9512958836082
 20
-76.88784319381485
 30
0.0
 11
-14.47230995537316
 21
-76.88784319381485
 31
0.0
  0
LINE
  5
262
330
1F
100
AcDbEntity
  8
0
100
AcDbLine
 10
-12.9512958836082
 20
-75.80866056290812
 30
0.0
 11
-12.9512958836082
 21
-76.88784319381485
 31
0.0
  0
LINE
  5
263
330
1F
100
AcDbEntity
  8
0
100
AcDbLine
 10
-12.27753909362821
 20
-75.80866056290812
 30
0.0
 11
-11.19006219036676
 21
-75.80866056290812
 31
0.0
  0
LINE
  5
264
330
1F
100
AcDbEntity
  8
0
100
AcDbLine
 10
-12.27753909362821
 20
-75.80866056290812
 30
0.0
 11
-12.27753909362821
 21
-76.88784319381485
 31
0.0
  0
LINE
  5
265
330
1F
100
AcDbEntity
  8
0
100
AcDbLine
 10
-29.14663945728881
 20
-71.12155966891063
 30
0.0
 11
-29.77243766929391
 21
-71.12155966891063
 31
0.0
  0
LINE
  5
266
330
1F
100
AcDbEntity
  8
0
100
AcDbLine
 10
-29.14663945728881
 20
-71.12155966891063
 30
0.0
 11
-29.14663945728881
 21
-70.03599134196305
 31
0.0
  0
LINE
  5
267
330
1F
100
AcDbEntity
  8
0
100
AcDbLine
 10
-28.52084124528371
 20
-70.03599134196305
 30
0.0
 11
-27.21496640492626
 21
-70.12539108653513
 31
0.0
  0
LINE
  5
268
330
1F
100
AcDbEntity
  8
0
100
AcDbLine
 10
-28.52084124528371
 20
-71.12155966891063
 30
0.0
 11
-28.52084124528371
 21
-70.03599134196305
 31
0.0
  0
LINE
  5
269
330
1F
100
AcDbEntity
  8
0
100
AcDbLine
 10
-29.05085401667577
 20
-75.76396069062208
 30
0.0
 11
-29.77243766929391
 21
-75.76396069062208
 31
0.0
  0
LINE
  5
26A
330
1F
100
AcDbEntity
  8
0
100
AcDbLine
 10
-28.32927036405764
 20
-74.677766315043
 30
0.0
 11
-27.68431506392995
 21
-74.61453540326569
 31
0.0
  0
LINE
  5
26B
330
1F
100
AcDbEntity
  8
0
100
AcDbLine
 10
-28.32927036405764
 20
-75.76396069062208
 30
0.0
 11
-28.32927036405764
 21
-74.677766315043
 31
0.0
  0
LINE
  5
26C
330
1F
100
AcDbEntity
  8
0
100
AcDbLine
 10
-49.56046206555149
 20
239.2654178708065
 30
0.0
 11
-49.56046206555149
 21
240.5136839496893
 31
0.0
  0
LINE
  5
26D
330
1F
100
AcDbEntity
  8
0
100
AcDbLine
 10
-48.65179778754115
 20
230.867157119499
 30
0.0
 11
-48.65179778754115
 21
229.6243980968465
 31
0.0
  0
LINE
  5
26E
330
1F
100
AcDbEntity
  8
0
100
AcDbLine
 10
-48.65730484377172
 20
239.226868477194
 30
0.0
 11
-48.65730484377172
 21
240.4726400322739
 31
0.0
  0
LINE
  5
26F
330
1F
100
AcDbEntity
  8
0
100
AcDbLine
 10
-46.57104837516807
 20
230.0190704600229
 30
0.0
 11
-47.42005287734945
 21
229.7565674463753
 31
0.0
  0
LINE
  5
270
330
1F
100
AcDbEntity
  8
0
100
AcDbLine
 10
-44.10847639748966
 20
232.3338697621864
 30
0.0
 11
-44.8179688085017
 21
231.2618294826753
 31
0.0
  0
LINE
  5
271
330
1F
100
AcDbEntity
  8
0
100
AcDbLine
 10
-43.50270021214947
 20
235.0359986858858
 30
0.0
 11
-43.65414425848444
 21
233.6115068076313
 31
0.0
  0
LINE
  5
272
330
1F
100
AcDbEntity
  8
0
100
AcDbLine
 10
-43.82899329379867
 20
237.1871925258723
 30
0.0
 11
-43.64771935954918
 21
236.5256573961996
 31
0.0
  0
LINE
  5
273
330
1F
100
AcDbEntity
  8
0
100
AcDbLine
 10
-45.95334023466204
 20
238.0070555221681
 30
0.0
 11
-46.67476460083991
 21
238.6045711231625
 31
0.0
  0
LINE
  5
274
330
1F
100
AcDbEntity
  8
0
100
AcDbLine
 10
-43.65414425848444
 20
233.6115068076313
 30
0.0
 11
-44.10847639748966
 21
232.3338697621864
 31
0.0
  0
LINE
  5
275
330
1F
100
AcDbEntity
  8
0
100
AcDbLine
 10
-43.64771935954918
 20
236.5256573961996
 30
0.0
 11
-43.50270021214947
 21
235.0359986858858
 31
0.0
  0
LINE
  5
276
330
1F
100
AcDbEntity
  8
0
100
AcDbLine
 10
-48.25804326707
 20
240.4558598592704
 30
0.0
 11
-47.21445611141588
 21
240.282387588014
 31
0.0
  0
LINE
  5
277
330
1F
100
AcDbEntity
  8
0
100
AcDbLine
 10
-46.67476460083991
 20
238.6045711231625
 30
0.0
 11
-47.27503372994974
 21
238.9074592158328
 31
0.0
  0
LINE
  5
278
330
1F
100
AcDbEntity
  8
0
100
AcDbLine
 10
-48.393883987419
 20
229.6243980968465
 30
0.0
 11
-48.65179778754115
 21
229.6243980968465
 31
0.0
  0
LINE
  5
279
330
1F
100
AcDbEntity
  8
0
100
AcDbLine
 10
-44.08277680174788
 20
237.7931981718887
 30
0.0
 11
-43.82899329379867
 21
237.1871925258723
 31
0.0
  0
LINE
  5
27A
330
1F
100
AcDbEntity
  8
0
100
AcDbLine
 10
-44.7821729430044
 20
238.834949642133
 30
0.0
 11
-44.08277680174788
 21
237.7931981718887
 31
0.0
  0
LINE
  5
27B
330
1F
100
AcDbEntity
  8
0
100
AcDbLine
 10
-47.21445611141588
 20
240.282387588014
 30
0.0
 11
-46.4021653174369
 21
240.0079526192008
 31
0.0
  0
LINE
  5
27C
330
1F
100
AcDbEntity
  8
0
100
AcDbLine
 10
-45.01530499008977
 20
235.0580269108072
 30
0.0
 11
-45.11993905846673
 21
236.22827635976
 31
0.0
  0
LINE
  5
27D
330
1F
100
AcDbEntity
  8
0
100
AcDbLine
 10
-47.27503372994974
 20
238.9074592158328
 30
0.0
 11
-47.91568793808242
 21
239.1112202963564
 31
0.0
  0
LINE
  5
27E
330
1F
100
AcDbEntity
  8
0
100
AcDbLine
 10
-45.39712755539519
 20
232.9249604642457
 30
0.0
 11
-45.11076063141613
 21
233.8859417764445
 31
0.0
  0
LINE
  5
27F
330
1F
100
AcDbEntity
  8
0
100
AcDbLine
 10
-44.8179688085017
 20
231.2618294826753
 30
0.0
 11
-45.73489367085752
 21
230.4541279022217
 31
0.0
  0
LINE
  5
280
330
1F
100
AcDbEntity
  8
0
100
AcDbLine
 10
-49.56046206555149
 20
239.2654178708065
 30
0.0
 11
-50.66921605326504
 21
239.2654178708065
 31
0.0
  0
LINE
  5
281
330
1F
100
AcDbEntity
  8
0
100
AcDbLine
 10
-48.65179778754115
 20
230.867157119499
 30
0.0
 11
-47.86428874659885
 21
230.9828053003368
 31
0.0
  0
LINE
  5
282
330
1F
100
AcDbEntity
  8
0
100
AcDbLine
 10
-47.42005287734945
 20
229.7565674463753
 30
0.0
 11
-48.393883987419
 21
229.6243980968465
 31
0.0
  0
LINE
  5
283
330
1F
100
AcDbEntity
  8
0
100
AcDbLine
 10
-48.65730484377172
 20
240.4726400322739
 30
0.0
 11
-48.25804326707
 21
240.4558598592704
 31
0.0
  0
LINE
  5
284
330
1F
100
AcDbEntity
  8
0
100
AcDbLine
 10
-47.91568793808242
 20
239.1112202963564
 30
0.0
 11
-48.65730484377172
 21
239.226868477194
 31
0.0
  0
LINE
  5
285
330
1F
100
AcDbEntity
  8
0
100
AcDbLine
 10
-46.4021653174369
 20
240.0079526192008
 30
0.0
 11
-45.72020818757667
 21
239.6472404361118
 31
0.0
  0
LINE
  5
286
330
1F
100
AcDbEntity
  8
0
100
AcDbLine
 10
-45.72020818757667
 20
239.6472404361118
 30
0.0
 11
-44.7821729430044
 21
238.834949642133
 31
0.0
  0
LINE
  5
287
330
1F
100
AcDbEntity
  8
0
100
AcDbLine
 10
-45.73489367085752
 20
230.4541279022217
 30
0.0
 11
-46.57104837516807
 21
230.0190704600229
 31
0.0
  0
LINE
  5
288
330
1F
100
AcDbEntity
  8
0
100
AcDbLine
 10
-47.86428874659885
 20
230.9828053003368
 30
0.0
 11
-47.16856397616287
 21
231.2030875495515
 31
0.0
  0
LINE
  5
289
330
1F
100
AcDbEntity
  8
0
100
AcDbLine
 10
-47.16856397616287
 20
231.2030875495515
 30
0.0
 11
-46.53525250967088
 21
231.5555391482949
 31
0.0
  0
LINE
  5
28A
330
1F
100
AcDbEntity
  8
0
100
AcDbLine
 10
-46.53525250967088
 20
231.5555391482949
 30
0.0
 11
-45.87257007661665
 21
232.1548904346996
 31
0.0
  0
LINE
  5
28B
330
1F
100
AcDbEntity
  8
0
100
AcDbLine
 10
-45.87257007661665
 20
232.1548904346996
 30
0.0
 11
-45.39712755539519
 21
232.9249604642457
 31
0.0
  0
LINE
  5
28C
330
1F
100
AcDbEntity
  8
0
100
AcDbLine
 10
-45.11076063141613
 20
233.8859417764445
 30
0.0
 11
-45.01530499008977
 21
235.0580269108072
 31
0.0
  0
LINE
  5
28D
330
1F
100
AcDbEntity
  8
0
100
AcDbLine
 10
-45.11993905846673
 20
236.22827635976
 30
0.0
 11
-45.4338412635976
 21
237.2131215822903
 31
0.0
  0
LINE
  5
28E
330
1F
100
AcDbEntity
  8
0
100
AcDbLine
 10
-45.4338412635976
 20
237.2131215822903
 30
0.0
 11
-45.95334023466204
 21
238.0070555221681
 31
0.0
  0
LINE
  5
28F
330
1F
100
AcDbEntity
  8
0
100
AcDbLine
 10
-150.4096606185142
 20
218.7155940118463
 30
0.0
 11
-125.8096606185142
 21
218.7155940118463
 31
0.0
  0
LINE
  5
290
330
1F
100
AcDbEntity
  8
0
100
AcDbLine
 10
-125.8096606185142
 20
218.7155940118463
 30
0.0
 11
-125.8096606185142
 21
221.315594011846
 31
0.0
  0
LINE
  5
291
330
1F
100
AcDbEntity
  8
0
100
AcDbLine
 10
-125.8096606185142
 20
221.315594011846
 30
0.0
 11
-150.4096606185142
 21
221.315594011846
 31
0.0
  0
LINE
  5
292
330
1F
100
AcDbEntity
  8
0
100
AcDbLine
 10
-150.4096606185142
 20
221.315594011846
 30
0.0
 11
-150.4096606185142
 21
218.7155940118463
 31
0.0
  0
LINE
  5
293
330
1F
100
AcDbEntity
  8
0
100
AcDbLine
 10
-0.40966061851421
 20
51.71559401184607
 30
0.0
 11
24.19033938148579
 21
51.71559401184607
 31
0.0
  0
LINE
  5
294
330
1F
100
AcDbEntity
  8
0
100
AcDbLine
 10
24.19033938148579
 20
51.71559401184607
 30
0.0
 11
24.19033938148579
 21
54.31559401184585
 31
0.0
  0
LINE
  5
295
330
1F
100
AcDbEntity
  8
0
100
AcDbLine
 10
24.19033938148579
 20
54.31559401184585
 30
0.0
 11
-0.40966061851421
 21
54.31559401184585
 31
0.0
  0
LINE
  5
296
330
1F
100
AcDbEntity
  8
0
100
AcDbLine
 10
-0.40966061851421
 20
54.31559401184585
 30
0.0
 11
-0.40966061851421
 21
51.71559401184607
 31
0.0
  0
LINE
  5
297
330
1F
100
AcDbEntity
  8
0
100
AcDbLine
 10
49.59033938148579
 20
218.7155940118463
 30
0.0
 11
74.19033938148578
 21
218.7155940118463
 31
0.0
  0
LINE
  5
298
330
1F
100
AcDbEntity
  8
0
100
AcDbLine
 10
74.19033938148578
 20
218.7155940118463
 30
0.0
 11
74.19033938148578
 21
221.315594011846
 31
0.0
  0
LINE
  5
299
330
1F
100
AcDbEntity
  8
0
100
AcDbLine
 10
74.19033938148578
 20
221.315594011846
 30
0.0
 11
49.59033938148579
 21
221.315594011846
 31
0.0
  0
LINE
  5
29A
330
1F
100
AcDbEntity
  8
0
100
AcDbLine
 10
49.59033938148579
 20
221.315594011846
 30
0.0
 11
49.59033938148579
 21
218.7155940118463
 31
0.0
  0
LINE
  5
29B
330
1F
100
AcDbEntity
  8
0
100
AcDbLine
 10
-100.4096606185143
 20
51.71559401184607
 30
0.0
 11
-75.8096606185143
 21
51.71559401184607
 31
0.0
  0
LINE
  5
29C
330
1F
100
AcDbEntity
  8
0
100
AcDbLine
 10
-75.8096606185143
 20
51.71559401184607
 30
0.0
 11
-75.8096606185143
 21
54.31559401184585
 31
0.0
  0
LINE
  5
29D
330
1F
100
AcDbEntity
  8
0
100
AcDbLine
 10
-75.8096606185143
 20
54.31559401184585
 30
0.0
 11
-100.4096606185143
 21
54.31559401184585
 31
0.0
  0
LINE
  5
29E
330
1F
100
AcDbEntity
  8
0
100
AcDbLine
 10
-100.4096606185143
 20
54.31559401184585
 30
0.0
 11
-100.4096606185143
 21
51.71559401184607
 31
0.0
  0
LINE
  5
29F
330
1F
100
AcDbEntity
  8
0
100
AcDbLine
 10
-0.40966061851421
 20
218.7155940118463
 30
0.0
 11
24.19033938148579
 21
218.7155940118463
 31
0.0
  0
LINE
  5
2A0
330
1F
100
AcDbEntity
  8
0
100
AcDbLine
 10
24.19033938148579
 20
218.7155940118463
 30
0.0
 11
24.19033938148579
 21
221.315594011846
 31
0.0
  0
LINE
  5
2A1
330
1F
100
AcDbEntity
  8
0
100
AcDbLine
 10
24.19033938148579
 20
221.315594011846
 30
0.0
 11
-0.40966061851421
 21
221.315594011846
 31
0.0
  0
LINE
  5
2A2
330
1F
100
AcDbEntity
  8
0
100
AcDbLine
 10
-0.40966061851421
 20
221.315594011846
 30
0.0
 11
-0.40966061851421
 21
218.7155940118463
 31
0.0
  0
LINE
  5
2A3
330
1F
100
AcDbEntity
  8
0
100
AcDbLine
 10
-150.4096606185142
 20
51.71559401184607
 30
0.0
 11
-125.8096606185142
 21
51.71559401184607
 31
0.0
  0
LINE
  5
2A4
330
1F
100
AcDbEntity
  8
0
100
AcDbLine
 10
-125.8096606185142
 20
51.71559401184607
 30
0.0
 11
-125.8096606185142
 21
54.31559401184585
 31
0.0
  0
LINE
  5
2A5
330
1F
100
AcDbEntity
  8
0
100
AcDbLine
 10
-125.8096606185142
 20
54.31559401184585
 30
0.0
 11
-150.4096606185142
 21
54.31559401184585
 31
0.0
  0
LINE
  5
2A6
330
1F
100
AcDbEntity
  8
0
100
AcDbLine
 10
-150.4096606185142
 20
54.31559401184585
 30
0.0
 11
-150.4096606185142
 21
51.71559401184607
 31
0.0
  0
LINE
  5
2A7
330
1F
100
AcDbEntity
  8
0
100
AcDbLine
 10
-50.40966061851421
 20
218.7155940118463
 30
0.0
 11
-25.80966061851421
 21
218.7155940118463
 31
0.0
  0
LINE
  5
2A8
330
1F
100
AcDbEntity
  8
0
100
AcDbLine
 10
-25.80966061851421
 20
218.7155940118463
 30
0.0
 11
-25.80966061851421
 21
221.315594011846
 31
0.0
  0
LINE
  5
2A9
330
1F
100
AcDbEntity
  8
0
100
AcDbLine
 10
-25.80966061851421
 20
221.315594011846
 30
0.0
 11
-50.40966061851421
 21
221.315594011846
 31
0.0
  0
LINE
  5
2AA
330
1F
100
AcDbEntity
  8
0
100
AcDbLine
 10
-50.40966061851421
 20
221.315594011846
 30
0.0
 11
-50.40966061851421
 21
218.7155940118463
 31
0.0
  0
LINE
  5
2AB
330
1F
100
AcDbEntity
  8
0
100
AcDbLine
 10
99.59033938148588
 20
218.7155940118463
 30
0.0
 11
124.1903393814859
 21
218.7155940118463
 31
0.0
  0
LINE
  5
2AC
330
1F
100
AcDbEntity
  8
0
100
AcDbLine
 10
124.1903393814859
 20
218.7155940118463
 30
0.0
 11
124.1903393814859
 21
221.315594011846
 31
0.0
  0
LINE
  5
2AD
330
1F
100
AcDbEntity
  8
0
100
AcDbLine
 10
124.1903393814859
 20
221.315594011846
 30
0.0
 11
99.59033938148588
 21
221.315594011846
 31
0.0
  0
LINE
  5
2AE
330
1F
100
AcDbEntity
  8
0
100
AcDbLine
 10
99.59033938148588
 20
221.315594011846
 30
0.0
 11
99.59033938148588
 21
218.7155940118463
 31
0.0
  0
LINE
  5
2AF
330
1F
100
AcDbEntity
  8
0
100
AcDbLine
 10
-100.4096606185143
 20
218.7155940118463
 30
0.0
 11
-75.8096606185143
 21
218.7155940118463
 31
0.0
  0
LINE
  5
2B0
330
1F
100
AcDbEntity
  8
0
100
AcDbLine
 10
-75.8096606185143
 20
218.7155940118463
 30
0.0
 11
-75.8096606185143
 21
221.315594011846
 31
0.0
  0
LINE
  5
2B1
330
1F
100
AcDbEntity
  8
0
100
AcDbLine
 10
-75.8096606185143
 20
221.315594011846
 30
0.0
 11
-100.4096606185143
 21
221.315594011846
 31
0.0
  0
LINE
  5
2B2
330
1F
100
AcDbEntity
  8
0
100
AcDbLine
 10
-100.4096606185143
 20
221.315594011846
 30
0.0
 11
-100.4096606185143
 21
218.7155940118463
 31
0.0
  0
LINE
  5
2B3
330
1F
100
AcDbEntity
  8
0
100
AcDbLine
 10
49.59033938148579
 20
51.71559401184607
 30
0.0
 11
74.19033938148578
 21
51.71559401184607
 31
0.0
  0
LINE
  5
2B4
330
1F
100
AcDbEntity
  8
0
100
AcDbLine
 10
74.19033938148578
 20
51.71559401184607
 30
0.0
 11
74.19033938148578
 21
54.31559401184585
 31
0.0
  0
LINE
  5
2B5
330
1F
100
AcDbEntity
  8
0
100
AcDbLine
 10
74.19033938148578
 20
54.31559401184585
 30
0.0
 11
49.59033938148579
 21
54.31559401184585
 31
0.0
  0
LINE
  5
2B6
330
1F
100
AcDbEntity
  8
0
100
AcDbLine
 10
49.59033938148579
 20
54.31559401184585
 30
0.0
 11
49.59033938148579
 21
51.71559401184607
 31
0.0
  0
LINE
  5
2B7
330
1F
100
AcDbEntity
  8
0
100
AcDbLine
 10
99.59033938148588
 20
51.71559401184607
 30
0.0
 11
124.1903393814859
 21
51.71559401184607
 31
0.0
  0
LINE
  5
2B8
330
1F
100
AcDbEntity
  8
0
100
AcDbLine
 10
124.1903393814859
 20
51.71559401184607
 30
0.0
 11
124.1903393814859
 21
54.31559401184585
 31
0.0
  0
LINE
  5
2B9
330
1F
100
AcDbEntity
  8
0
100
AcDbLine
 10
124.1903393814859
 20
54.31559401184585
 30
0.0
 11
99.59033938148588
 21
54.31559401184585
 31
0.0
  0
LINE
  5
2BA
330
1F
100
AcDbEntity
  8
0
100
AcDbLine
 10
99.59033938148588
 20
54.31559401184585
 30
0.0
 11
99.59033938148588
 21
51.71559401184607
 31
0.0
  0
LINE
  5
2BB
330
1F
100
AcDbEntity
  8
0
100
AcDbLine
 10
-50.40966061851421
 20
51.71559401184607
 30
0.0
 11
-25.80966061851421
 21
51.71559401184607
 31
0.0
  0
LINE
  5
2BC
330
1F
100
AcDbEntity
  8
0
100
AcDbLine
 10
-25.80966061851421
 20
51.71559401184607
 30
0.0
 11
-25.80966061851421
 21
54.31559401184585
 31
0.0
  0
LINE
  5
2BD
330
1F
100
AcDbEntity
  8
0
100
AcDbLine
 10
-25.80966061851421
 20
54.31559401184585
 30
0.0
 11
-50.40966061851421
 21
54.31559401184585
 31
0.0
  0
LINE
  5
2BE
330
1F
100
AcDbEntity
  8
0
100
AcDbLine
 10
-50.40966061851421
 20
54.31559401184585
 30
0.0
 11
-50.40966061851421
 21
51.71559401184607
 31
0.0
  0
LINE
  5
2BF
330
1F
100
AcDbEntity
  8
0
100
AcDbLine
 10
133.8832899961869
 20
27.39673767650052
 30
0.0
 11
130.6656912923442
 21
26.74338061058549
 31
0.0
  0
LINE
  5
2C0
330
1F
100
AcDbEntity
  8
0
100
AcDbLine
 10
-178.6096606185143
 20
51.51559401184603
 30
0.0
 11
-178.3957821528602
 21
48.25243920634448
 31
0.0
  0
LINE
  5
2C1
330
1F
100
AcDbEntity
  8
0
100
AcDbLine
 10
-178.6096606185143
 20
85.31559401184602
 30
0.0
 11
-175.6096606185143
 21
85.31559401184602
 31
0.0
  0
LINE
  5
2C2
330
1F
100
AcDbEntity
  8
0
100
AcDbLine
 10
-178.6096606185143
 20
102.715594011846
 30
0.0
 11
-178.6096606185143
 21
85.31559401184602
 31
0.0
  0
LINE
  5
2C3
330
1F
100
AcDbEntity
  8
0
100
AcDbLine
 10
-178.6096606185143
 20
102.715594011846
 30
0.0
 11
-175.6096606185143
 21
102.715594011846
 31
0.0
  0
LINE
  5
2C4
330
1F
100
AcDbEntity
  8
0
100
AcDbLine
 10
147.2643843656933
 20
36.41501747775674
 30
0.0
 11
145.1094302673851
 21
33.93792448218115
 31
0.0
  0
LINE
  5
2C5
330
1F
100
AcDbEntity
  8
0
100
AcDbLine
 10
-178.6096606185143
 20
68.715594011846
 30
0.0
 11
-178.6096606185143
 21
51.51559401184603
 31
0.0
  0
LINE
  5
2C6
330
1F
100
AcDbEntity
  8
0
100
AcDbLine
 10
-178.6096606185143
 20
68.715594011846
 30
0.0
 11
-175.6096606185143
 21
68.715594011846
 31
0.0
  0
LINE
  5
2C7
330
1F
100
AcDbEntity
  8
0
100
AcDbLine
 10
-175.6096606185143
 20
85.31559401184602
 30
0.0
 11
-175.6096606185143
 21
68.715594011846
 31
0.0
  0
LINE
  5
2C8
330
1F
100
AcDbEntity
  8
0
100
AcDbLine
 10
-175.6096606185143
 20
119.3155940118459
 30
0.0
 11
-175.6096606185143
 21
102.715594011846
 31
0.0
  0
LINE
  5
2C9
330
1F
100
AcDbEntity
  8
0
100
AcDbLine
 10
-178.6096606185143
 20
119.3155940118459
 30
0.0
 11
-175.6096606185143
 21
119.3155940118459
 31
0.0
  0
LINE
  5
2CA
330
1F
100
AcDbEntity
  8
0
100
AcDbLine
 10
-178.6096606185143
 20
136.9155940118461
 30
0.0
 11
-178.6096606185143
 21
119.3155940118459
 31
0.0
  0
LINE
  5
2CB
330
1F
100
AcDbEntity
  8
0
100
AcDbLine
 10
-178.6096606185143
 20
136.9155940118461
 30
0.0
 11
-175.6096606185143
 21
136.9155940118461
 31
0.0
  0
LINE
  5
2CC
330
1F
100
AcDbEntity
  8
0
100
AcDbLine
 10
-175.6096606185143
 20
153.315594011846
 30
0.0
 11
-175.6096606185143
 21
136.9155940118461
 31
0.0
  0
LINE
  5
2CD
330
1F
100
AcDbEntity
  8
0
100
AcDbLine
 10
-178.6096606185143
 20
153.315594011846
 30
0.0
 11
-175.6096606185143
 21
153.315594011846
 31
0.0
  0
LINE
  5
2CE
330
1F
100
AcDbEntity
  8
0
100
AcDbLine
 10
-178.6096606185143
 20
170.5155940118461
 30
0.0
 11
-178.6096606185143
 21
153.315594011846
 31
0.0
  0
LINE
  5
2CF
330
1F
100
AcDbEntity
  8
0
100
AcDbLine
 10
-178.6096606185143
 20
170.5155940118461
 30
0.0
 11
-175.6096606185143
 21
170.5155940118461
 31
0.0
  0
LINE
  5
2D0
330
1F
100
AcDbEntity
  8
0
100
AcDbLine
 10
-175.6096606185143
 20
187.3155940118462
 30
0.0
 11
-175.6096606185143
 21
170.5155940118461
 31
0.0
  0
LINE
  5
2D1
330
1F
100
AcDbEntity
  8
0
100
AcDbLine
 10
-178.6096606185143
 20
187.3155940118462
 30
0.0
 11
-175.6096606185143
 21
187.3155940118462
 31
0.0
  0
LINE
  5
2D2
330
1F
100
AcDbEntity
  8
0
100
AcDbLine
 10
-178.6096606185143
 20
204.7155940118462
 30
0.0
 11
-178.6096606185143
 21
187.3155940118462
 31
0.0
  0
LINE
  5
2D3
330
1F
100
AcDbEntity
  8
0
100
AcDbLine
 10
-178.6096606185143
 20
204.7155940118462
 30
0.0
 11
-175.6096606185143
 21
204.7155940118462
 31
0.0
  0
LINE
  5
2D4
330
1F
100
AcDbEntity
  8
0
100
AcDbLine
 10
-175.6096606185143
 20
204.7155940118462
 30
0.0
 11
-175.6096606185143
 21
221.315594011846
 31
0.0
  0
LINE
  5
2D5
330
1F
100
AcDbEntity
  8
0
100
AcDbLine
 10
-178.6096606185142
 20
221.3155940118459
 30
0.0
 11
-175.6096606185143
 21
221.315594011846
 31
0.0
  0
LINE
  5
2D6
330
1F
100
AcDbEntity
  8
0
100
AcDbLine
 10
-178.6096606185142
 20
221.3155940118459
 30
0.0
 11
-178.4079792582188
 21
224.5926569504319
 31
0.0
  0
LINE
  5
2D7
330
1F
100
AcDbEntity
  8
0
100
AcDbLine
 10
-178.4079792582188
 20
224.5926569504319
 30
0.0
 11
-177.78028076288
 21
227.8153594612904
 31
0.0
  0
LINE
  5
2D8
330
1F
100
AcDbEntity
  8
0
100
AcDbLine
 10
-177.78028076288
 20
227.8153594612904
 30
0.0
 11
-176.7373052277839
 21
230.9285602109585
 31
0.0
  0
LINE
  5
2D9
330
1F
100
AcDbEntity
  8
0
100
AcDbLine
 10
-176.7373052277839
 20
230.9285602109585
 30
0.0
 11
-175.2968982535035
 21
233.8789914714676
 31
0.0
  0
LINE
  5
2DA
330
1F
100
AcDbEntity
  8
0
100
AcDbLine
 10
-175.2968982535035
 20
233.8789914714676
 30
0.0
 11
-173.483705602725
 21
236.6161705459358
 31
0.0
  0
LINE
  5
2DB
330
1F
100
AcDbEntity
  8
0
100
AcDbLine
 10
-173.483705602725
 20
236.6161705459358
 30
0.0
 11
-171.3287515044152
 21
239.0932635415098
 31
0.0
  0
LINE
  5
2DC
330
1F
100
AcDbEntity
  8
0
100
AcDbLine
 10
-171.3287515044152
 20
239.0932635415098
 30
0.0
 11
-168.8689078206621
 21
241.2678867102553
 31
0.0
  0
LINE
  5
2DD
330
1F
100
AcDbEntity
  8
0
100
AcDbLine
 10
-168.8689078206621
 20
241.2678867102553
 30
0.0
 11
-166.1462631588925
 21
243.1028316468355
 31
0.0
  0
LINE
  5
2DE
330
1F
100
AcDbEntity
  8
0
100
AcDbLine
 10
-166.1462631588925
 20
243.1028316468355
 30
0.0
 11
-163.2074027241289
 21
244.5667019346428
 31
0.0
  0
LINE
  5
2DF
330
1F
100
AcDbEntity
  8
0
100
AcDbLine
 10
-163.2074027241289
 20
244.5667019346428
 30
0.0
 11
-160.1026112332164
 21
245.6344503471914
 31
0.0
  0
LINE
  5
2E0
330
1F
100
AcDbEntity
  8
0
100
AcDbLine
 10
-160.1026112332164
 20
245.6344503471914
 30
0.0
 11
-156.8850125293747
 21
246.2878074131066
 31
0.0
  0
LINE
  5
2E1
330
1F
100
AcDbEntity
  8
0
100
AcDbLine
 10
-156.8850125293747
 20
246.2878074131066
 30
0.0
 11
-153.6096606185141
 21
246.5155940118461
 31
0.0
  0
LINE
  5
2E2
330
1F
100
AcDbEntity
  8
0
100
AcDbLine
 10
130.653494186987
 20
246.3017155461914
 30
0.0
 11
127.3903393814857
 21
246.5155940118462
 31
0.0
  0
LINE
  5
2E3
330
1F
100
AcDbEntity
  8
0
100
AcDbLine
 10
133.8608155090488
 20
245.663739669073
 30
0.0
 11
130.653494186987
 21
246.3017155461914
 31
0.0
  0
LINE
  5
2E4
330
1F
100
AcDbEntity
  8
0
100
AcDbLine
 10
136.957425190613
 20
244.6125823246284
 30
0.0
 11
133.8608155090488
 21
245.663739669073
 31
0.0
  0
LINE
  5
2E5
330
1F
100
AcDbEntity
  8
0
100
AcDbLine
 10
139.8903393814857
 20
243.1662291064577
 30
0.0
 11
136.957425190613
 21
244.6125823246284
 31
0.0
  0
LINE
  5
2E6
330
1F
100
AcDbEntity
  8
0
100
AcDbLine
 10
142.6093751067038
 20
241.3494275191274
 30
0.0
 11
139.8903393814857
 21
243.1662291064577
 31
0.0
  0
LINE
  5
2E7
330
1F
100
AcDbEntity
  8
0
100
AcDbLine
 10
145.0680089111495
 20
239.1932635415102
 30
0.0
 11
142.6093751067038
 21
241.3494275191274
 31
0.0
  0
LINE
  5
2E8
330
1F
100
AcDbEntity
  8
0
100
AcDbLine
 10
147.2241728887666
 20
236.7346297370646
 30
0.0
 11
145.0680089111495
 21
239.1932635415102
 31
0.0
  0
LINE
  5
2E9
330
1F
100
AcDbEntity
  8
0
100
AcDbLine
 10
149.0409744760967
 20
234.0155940118463
 30
0.0
 11
147.2241728887666
 21
236.7346297370646
 31
0.0
  0
LINE
  5
2EA
330
1F
100
AcDbEntity
  8
0
100
AcDbLine
 10
150.4873276942679
 20
231.0826798209735
 30
0.0
 11
149.0409744760967
 21
234.0155940118463
 31
0.0
  0
LINE
  5
2EB
330
1F
100
AcDbEntity
  8
0
100
AcDbLine
 10
151.5384850387125
 20
227.9860701394093
 30
0.0
 11
150.4873276942679
 21
231.0826798209735
 31
0.0
  0
LINE
  5
2EC
330
1F
100
AcDbEntity
  8
0
100
AcDbLine
 10
152.1764609158311
 20
224.7787488173475
 30
0.0
 11
151.5384850387125
 21
227.9860701394093
 31
0.0
  0
LINE
  5
2ED
330
1F
100
AcDbEntity
  8
0
100
AcDbLine
 10
152.3903393814858
 20
221.5155940118461
 30
0.0
 11
152.1764609158311
 21
224.7787488173475
 31
0.0
  0
LINE
  5
2EE
330
1F
100
AcDbEntity
  8
0
100
AcDbLine
 10
152.3903393814858
 20
204.3155940118461
 30
0.0
 11
152.3903393814858
 21
221.5155940118461
 31
0.0
  0
LINE
  5
2EF
330
1F
100
AcDbEntity
  8
0
100
AcDbLine
 10
149.3903393814857
 20
204.3155940118461
 30
0.0
 11
152.3903393814858
 21
204.3155940118461
 31
0.0
  0
LINE
  5
2F0
330
1F
100
AcDbEntity
  8
0
100
AcDbLine
 10
149.3903393814857
 20
187.7155940118463
 30
0.0
 11
149.3903393814857
 21
204.3155940118461
 31
0.0
  0
LINE
  5
2F1
330
1F
100
AcDbEntity
  8
0
100
AcDbLine
 10
149.3903393814857
 20
187.7155940118463
 30
0.0
 11
152.3903393814858
 21
187.7155940118463
 31
0.0
  0
LINE
  5
2F2
330
1F
100
AcDbEntity
  8
0
100
AcDbLine
 10
152.3903393814858
 20
187.7155940118463
 30
0.0
 11
152.3903393814858
 21
170.3155940118461
 31
0.0
  0
LINE
  5
2F3
330
1F
100
AcDbEntity
  8
0
100
AcDbLine
 10
149.3903393814857
 20
170.3155940118461
 30
0.0
 11
152.3903393814858
 21
170.3155940118461
 31
0.0
  0
LINE
  5
2F4
330
1F
100
AcDbEntity
  8
0
100
AcDbLine
 10
149.3903393814857
 20
153.7155940118461
 30
0.0
 11
149.3903393814857
 21
170.3155940118461
 31
0.0
  0
LINE
  5
2F5
330
1F
100
AcDbEntity
  8
0
100
AcDbLine
 10
149.3903393814857
 20
153.7155940118461
 30
0.0
 11
152.3903393814858
 21
153.7155940118461
 31
0.0
  0
LINE
  5
2F6
330
1F
100
AcDbEntity
  8
0
100
AcDbLine
 10
152.3903393814858
 20
153.7155940118461
 30
0.0
 11
152.3903393814858
 21
136.315594011846
 31
0.0
  0
LINE
  5
2F7
330
1F
100
AcDbEntity
  8
0
100
AcDbLine
 10
149.3903393814857
 20
136.315594011846
 30
0.0
 11
152.3903393814858
 21
136.315594011846
 31
0.0
  0
LINE
  5
2F8
330
1F
100
AcDbEntity
  8
0
100
AcDbLine
 10
149.3903393814857
 20
119.715594011846
 30
0.0
 11
149.3903393814857
 21
136.315594011846
 31
0.0
  0
LINE
  5
2F9
330
1F
100
AcDbEntity
  8
0
100
AcDbLine
 10
149.3903393814857
 20
119.715594011846
 30
0.0
 11
152.3903393814858
 21
119.715594011846
 31
0.0
  0
LINE
  5
2FA
330
1F
100
AcDbEntity
  8
0
100
AcDbLine
 10
152.3903393814858
 20
119.715594011846
 30
0.0
 11
152.3903393814858
 21
102.3155940118459
 31
0.0
  0
LINE
  5
2FB
330
1F
100
AcDbEntity
  8
0
100
AcDbLine
 10
149.3903393814857
 20
102.3155940118459
 30
0.0
 11
152.3903393814858
 21
102.3155940118459
 31
0.0
  0
LINE
  5
2FC
330
1F
100
AcDbEntity
  8
0
100
AcDbLine
 10
149.3903393814857
 20
85.71559401184611
 30
0.0
 11
149.3903393814857
 21
102.3155940118459
 31
0.0
  0
LINE
  5
2FD
330
1F
100
AcDbEntity
  8
0
100
AcDbLine
 10
149.3903393814857
 20
85.71559401184611
 30
0.0
 11
152.3903393814858
 21
85.71559401184611
 31
0.0
  0
LINE
  5
2FE
330
1F
100
AcDbEntity
  8
0
100
AcDbLine
 10
152.3903393814858
 20
85.71559401184611
 30
0.0
 11
152.3903393814858
 21
68.3155940118459
 31
0.0
  0
LINE
  5
2FF
330
1F
100
AcDbEntity
  8
0
100
AcDbLine
 10
149.3903393814857
 20
68.3155940118459
 30
0.0
 11
152.3903393814858
 21
68.3155940118459
 31
0.0
  0
LINE
  5
300
330
1F
100
AcDbEntity
  8
0
100
AcDbLine
 10
149.3903393814857
 20
51.71559401184607
 30
0.0
 11
149.3903393814857
 21
68.3155940118459
 31
0.0
  0
LINE
  5
301
330
1F
100
AcDbEntity
  8
0
100
AcDbLine
 10
149.3903393814857
 20
51.71559401184607
 30
0.0
 11
152.3903393814843
 21
51.71559401184544
 31
0.0
  0
LINE
  5
302
330
1F
100
AcDbEntity
  8
0
100
AcDbLine
 10
152.3903393814843
 20
51.71559401184544
 30
0.0
 11
152.1886580211898
 21
48.43853107326088
 31
0.0
  0
LINE
  5
303
330
1F
100
AcDbEntity
  8
0
100
AcDbLine
 10
152.1886580211898
 20
48.43853107326088
 30
0.0
 11
151.5609595258499
 21
45.21582856240254
 31
0.0
  0
LINE
  5
304
330
1F
100
AcDbEntity
  8
0
100
AcDbLine
 10
151.5609595258499
 20
45.21582856240254
 30
0.0
 11
150.517983990754
 21
42.1026278127333
 31
0.0
  0
LINE
  5
305
330
1F
100
AcDbEntity
  8
0
100
AcDbLine
 10
150.517983990754
 20
42.1026278127333
 30
0.0
 11
149.0775770164751
 21
39.1521965522238
 31
0.0
  0
LINE
  5
306
330
1F
100
AcDbEntity
  8
0
100
AcDbLine
 10
149.0775770164751
 20
39.1521965522238
 30
0.0
 11
147.2643843656933
 21
36.41501747775674
 31
0.0
  0
LINE
  5
307
330
1F
100
AcDbEntity
  8
0
100
AcDbLine
 10
145.1094302673851
 20
33.93792448218115
 30
0.0
 11
142.6495865836333
 21
31.7633013134365
 31
0.0
  0
LINE
  5
308
330
1F
100
AcDbEntity
  8
0
100
AcDbLine
 10
142.6495865836333
 20
31.7633013134365
 30
0.0
 11
139.9269419218637
 21
29.92835637685711
 31
0.0
  0
LINE
  5
309
330
1F
100
AcDbEntity
  8
0
100
AcDbLine
 10
139.9269419218637
 20
29.92835637685711
 30
0.0
 11
136.9880814870992
 21
28.46448608904978
 31
0.0
  0
LINE
  5
30A
330
1F
100
AcDbEntity
  8
0
100
AcDbLine
 10
136.9880814870992
 20
28.46448608904978
 30
0.0
 11
133.8832899961869
 21
27.39673767650052
 31
0.0
  0
LINE
  5
30B
330
1F
100
AcDbEntity
  8
0
100
AcDbLine
 10
130.6656912923442
 20
26.74338061058549
 30
0.0
 11
127.3903393814851
 21
26.51559401184558
 31
0.0
  0
LINE
  5
30C
330
1F
100
AcDbEntity
  8
0
100
AcDbLine
 10
-156.8728154240157
 20
26.72947247750085
 30
0.0
 11
-153.609660618514
 21
26.5155940118454
 31
0.0
  0
LINE
  5
30D
330
1F
100
AcDbEntity
  8
0
100
AcDbLine
 10
-160.0801367460787
 20
27.367448354618
 30
0.0
 11
-156.8728154240157
 21
26.72947247750085
 31
0.0
  0
LINE
  5
30E
330
1F
100
AcDbEntity
  8
0
100
AcDbLine
 10
-163.176746427642
 20
28.41860569906246
 30
0.0
 11
-160.0801367460787
 21
27.367448354618
 31
0.0
  0
LINE
  5
30F
330
1F
100
AcDbEntity
  8
0
100
AcDbLine
 10
-166.1096606185151
 20
29.86495891723434
 30
0.0
 11
-163.176746427642
 21
28.41860569906246
 31
0.0
  0
LINE
  5
310
330
1F
100
AcDbEntity
  8
0
100
AcDbLine
 10
-168.8286963437333
 20
31.68176050456437
 30
0.0
 11
-166.1096606185151
 21
29.86495891723434
 31
0.0
  0
LINE
  5
311
330
1F
100
AcDbEntity
  8
0
100
AcDbLine
 10
-171.28733014818
 20
33.83792448218153
 30
0.0
 11
-168.8286963437333
 21
31.68176050456437
 31
0.0
  0
LINE
  5
312
330
1F
100
AcDbEntity
  8
0
100
AcDbLine
 10
-173.4434941257951
 20
36.2965582866273
 30
0.0
 11
-171.28733014818
 21
33.83792448218153
 31
0.0
  0
LINE
  5
313
330
1F
100
AcDbEntity
  8
0
100
AcDbLine
 10
-175.2602957131253
 20
39.01559401184598
 30
0.0
 11
-173.4434941257951
 21
36.2965582866273
 31
0.0
  0
LINE
  5
314
330
1F
100
AcDbEntity
  8
0
100
AcDbLine
 10
-176.7066489312972
 20
41.94850820271886
 30
0.0
 11
-175.2602957131253
 21
39.01559401184598
 31
0.0
  0
LINE
  5
315
330
1F
100
AcDbEntity
  8
0
100
AcDbLine
 10
-177.7578062757404
 20
45.0451178842825
 30
0.0
 11
-176.7066489312972
 21
41.94850820271886
 31
0.0
  0
LINE
  5
316
330
1F
100
AcDbEntity
  8
0
100
AcDbLine
 10
-178.3957821528602
 20
48.25243920634448
 30
0.0
 11
-177.7578062757404
 21
45.0451178842825
 31
0.0
  0
LINE
  5
317
330
1F
100
AcDbEntity
  8
0
100
AcDbLine
 10
-53.71144415989462
 20
239.1469636137984
 30
0.0
 11
-59.052140200763
 21
239.1469636137984
 31
0.0
  0
LINE
  5
318
330
1F
100
AcDbEntity
  8
0
100
AcDbLine
 10
-54.07574811902617
 20
236.1742433072849
 30
0.0
 11
-54.07574811902617
 21
234.8918933711419
 31
0.0
  0
LINE
  5
319
330
1F
100
AcDbEntity
  8
0
100
AcDbLine
 10
-60.49478387892392
 20
240.4293135499414
 30
0.0
 11
-53.71144415989462
 21
240.4293135499414
 31
0.0
  0
LINE
  5
31A
330
1F
100
AcDbEntity
  8
0
100
AcDbLine
 10
-53.71144415989462
 20
229.580341647004
 30
0.0
 11
-60.49478387892392
 21
229.580341647004
 31
0.0
  0
LINE
  5
31B
330
1F
100
AcDbEntity
  8
0
100
AcDbLine
 10
-53.71144415989462
 20
240.4293135499414
 30
0.0
 11
-53.71144415989462
 21
239.1469636137984
 31
0.0
  0
LINE
  5
31C
330
1F
100
AcDbEntity
  8
0
100
AcDbLine
 10
-59.052140200763
 20
236.1742433072849
 30
0.0
 11
-54.07574811902617
 21
236.1742433072849
 31
0.0
  0
LINE
  5
31D
330
1F
100
AcDbEntity
  8
0
100
AcDbLine
 10
-53.71144415989462
 20
230.862691583147
 30
0.0
 11
-53.71144415989462
 21
229.580341647004
 31
0.0
  0
LINE
  5
31E
330
1F
100
AcDbEntity
  8
0
100
AcDbLine
 10
-59.052140200763
 20
239.1469636137984
 30
0.0
 11
-59.052140200763
 21
236.1742433072849
 31
0.0
  0
LINE
  5
31F
330
1F
100
AcDbEntity
  8
0
100
AcDbLine
 10
-66.4766548878639
 20
230.862691583147
 30
0.0
 11
-61.63141223141442
 21
230.862691583147
 31
0.0
  0
LINE
  5
320
330
1F
100
AcDbEntity
  8
0
100
AcDbLine
 10
-61.63141223141442
 20
230.862691583147
 30
0.0
 11
-61.63141223141442
 21
229.580341647004
 31
0.0
  0
LINE
  5
321
330
1F
100
AcDbEntity
  8
0
100
AcDbLine
 10
-60.49478387892392
 20
229.580341647004
 30
0.0
 11
-60.49478387892392
 21
240.4293135499414
 31
0.0
  0
LINE
  5
322
330
1F
100
AcDbEntity
  8
0
100
AcDbLine
 10
-67.91929856602482
 20
229.580341647004
 30
0.0
 11
-67.91929856602482
 21
240.4293135499414
 31
0.0
  0
LINE
  5
323
330
1F
100
AcDbEntity
  8
0
100
AcDbLine
 10
-59.052140200763
 20
230.862691583147
 30
0.0
 11
-53.71144415989462
 21
230.862691583147
 31
0.0
  0
LINE
  5
324
330
1F
100
AcDbEntity
  8
0
100
AcDbLine
 10
-61.63141223141442
 20
229.580341647004
 30
0.0
 11
-67.91929856602482
 21
229.580341647004
 31
0.0
  0
LINE
  5
325
330
1F
100
AcDbEntity
  8
0
100
AcDbLine
 10
-67.91929856602482
 20
240.4293135499414
 30
0.0
 11
-66.4766548878639
 21
240.4293135499414
 31
0.0
  0
LINE
  5
326
330
1F
100
AcDbEntity
  8
0
100
AcDbLine
 10
-59.052140200763
 20
234.8918933711419
 30
0.0
 11
-59.052140200763
 21
230.862691583147
 31
0.0
  0
LINE
  5
327
330
1F
100
AcDbEntity
  8
0
100
AcDbLine
 10
-54.07574811902617
 20
234.8918933711419
 30
0.0
 11
-59.052140200763
 21
234.8918933711419
 31
0.0
  0
LINE
  5
328
330
1F
100
AcDbEntity
  8
0
100
AcDbLine
 10
-66.4766548878639
 20
240.4293135499414
 30
0.0
 11
-66.4766548878639
 21
230.862691583147
 31
0.0
  0
LINE
  5
329
330
1F
100
AcDbEntity
  8
0
100
AcDbLine
 10
-8.72719128633134
 20
234.8918933711419
 30
0.0
 11
-8.72719128633134
 21
230.862691583147
 31
0.0
  0
LINE
  5
32A
330
1F
100
AcDbEntity
  8
0
100
AcDbLine
 10
-3.386495245462871
 20
239.1469636137984
 30
0.0
 11
-8.72719128633134
 21
239.1469636137984
 31
0.0
  0
LINE
  5
32B
330
1F
100
AcDbEntity
  8
0
100
AcDbLine
 10
-8.72719128633134
 20
230.862691583147
 30
0.0
 11
-3.386495245462871
 21
230.862691583147
 31
0.0
  0
LINE
  5
32C
330
1F
100
AcDbEntity
  8
0
100
AcDbLine
 10
-10.16983496449226
 20
240.4293135499414
 30
0.0
 11
-3.386495245462871
 21
240.4293135499414
 31
0.0
  0
LINE
  5
32D
330
1F
100
AcDbEntity
  8
0
100
AcDbLine
 10
-3.750799204594421
 20
236.1742433072849
 30
0.0
 11
-3.750799204594421
 21
234.8918933711419
 31
0.0
  0
LINE
  5
32E
330
1F
100
AcDbEntity
  8
0
100
AcDbLine
 10
-3.386495245462871
 20
230.862691583147
 30
0.0
 11
-3.386495245462871
 21
229.580341647004
 31
0.0
  0
LINE
  5
32F
330
1F
100
AcDbEntity
  8
0
100
AcDbLine
 10
-8.72719128633134
 20
239.1469636137984
 30
0.0
 11
-8.72719128633134
 21
236.1742433072849
 31
0.0
  0
LINE
  5
330
330
1F
100
AcDbEntity
  8
0
100
AcDbLine
 10
-10.16983496449226
 20
229.580341647004
 30
0.0
 11
-10.16983496449226
 21
240.4293135499414
 31
0.0
  0
LINE
  5
331
330
1F
100
AcDbEntity
  8
0
100
AcDbLine
 10
-8.72719128633134
 20
236.1742433072849
 30
0.0
 11
-3.750799204594421
 21
236.1742433072849
 31
0.0
  0
LINE
  5
332
330
1F
100
AcDbEntity
  8
0
100
AcDbLine
 10
-3.386495245462871
 20
229.580341647004
 30
0.0
 11
-10.16983496449226
 21
229.580341647004
 31
0.0
  0
LINE
  5
333
330
1F
100
AcDbEntity
  8
0
100
AcDbLine
 10
-3.750799204594421
 20
234.8918933711419
 30
0.0
 11
-8.72719128633134
 21
234.8918933711419
 31
0.0
  0
LINE
  5
334
330
1F
100
AcDbEntity
  8
0
100
AcDbLine
 10
32.38086746207222
 20
238.9283812383194
 30
0.0
 11
32.38086746207222
 21
229.580341647004
 31
0.0
  0
LINE
  5
335
330
1F
100
AcDbEntity
  8
0
100
AcDbLine
 10
36.06033744930084
 20
232.5676341118827
 30
0.0
 11
35.18600794738511
 21
232.5676341118827
 31
0.0
  0
LINE
  5
336
330
1F
100
AcDbEntity
  8
0
100
AcDbLine
 10
43.97301944163799
 20
230.862691583147
 30
0.0
 11
49.31371548250646
 21
230.862691583147
 31
0.0
  0
LINE
  5
337
330
1F
100
AcDbEntity
  8
0
100
AcDbLine
 10
49.31371548250646
 20
230.862691583147
 30
0.0
 11
49.31371548250646
 21
229.580341647004
 31
0.0
  0
LINE
  5
338
330
1F
100
AcDbEntity
  8
0
100
AcDbLine
 10
40.32997985032249
 20
240.4293135499414
 30
0.0
 11
40.32997985032249
 21
229.580341647004
 31
0.0
  0
LINE
  5
339
330
1F
100
AcDbEntity
  8
0
100
AcDbLine
 10
35.18600794738511
 20
232.5676341118827
 30
0.0
 11
32.38086746207222
 21
238.9283812383194
 31
0.0
  0
LINE
  5
33A
330
1F
100
AcDbEntity
  8
0
100
AcDbLine
 10
49.31371548250646
 20
229.580341647004
 30
0.0
 11
42.53037576347707
 21
229.580341647004
 31
0.0
  0
LINE
  5
33B
330
1F
100
AcDbEntity
  8
0
100
AcDbLine
 10
40.32997985032249
 20
229.580341647004
 30
0.0
 11
38.88733617216156
 21
229.580341647004
 31
0.0
  0
LINE
  5
33C
330
1F
100
AcDbEntity
  8
0
100
AcDbLine
 10
38.88733617216156
 20
229.580341647004
 30
0.0
 11
38.88733617216156
 21
238.9283812383194
 31
0.0
  0
LINE
  5
33D
330
1F
100
AcDbEntity
  8
0
100
AcDbLine
 10
38.88733617216156
 20
238.9283812383194
 30
0.0
 11
36.06033744930084
 21
232.5676341118827
 31
0.0
  0
LINE
  5
33E
330
1F
100
AcDbEntity
  8
0
100
AcDbLine
 10
32.38086746207222
 20
229.580341647004
 30
0.0
 11
31.03294281328553
 21
229.580341647004
 31
0.0
  0
LINE
  5
33F
330
1F
100
AcDbEntity
  8
0
100
AcDbLine
 10
31.03294281328553
 20
229.580341647004
 30
0.0
 11
31.03294281328553
 21
240.4293135499414
 31
0.0
  0
LINE
  5
340
330
1F
100
AcDbEntity
  8
0
100
AcDbLine
 10
31.03294281328553
 20
240.4293135499414
 30
0.0
 11
33.00018419259581
 21
240.4293135499414
 31
0.0
  0
LINE
  5
341
330
1F
100
AcDbEntity
  8
0
100
AcDbLine
 10
33.00018419259581
 20
240.4293135499414
 30
0.0
 11
35.71060564853457
 21
234.3891539075404
 31
0.0
  0
LINE
  5
342
330
1F
100
AcDbEntity
  8
0
100
AcDbLine
 10
35.71060564853457
 20
234.3891539075404
 30
0.0
 11
38.326308075099
 21
240.4293135499414
 31
0.0
  0
LINE
  5
343
330
1F
100
AcDbEntity
  8
0
100
AcDbLine
 10
38.326308075099
 20
240.4293135499414
 30
0.0
 11
40.32997985032249
 21
240.4293135499414
 31
0.0
  0
LINE
  5
344
330
1F
100
AcDbEntity
  8
0
100
AcDbLine
 10
42.53037576347707
 20
229.580341647004
 30
0.0
 11
42.53037576347707
 21
240.4293135499414
 31
0.0
  0
LINE
  5
345
330
1F
100
AcDbEntity
  8
0
100
AcDbLine
 10
42.53037576347707
 20
240.4293135499414
 30
0.0
 11
49.31371548250646
 21
240.4293135499414
 31
0.0
  0
LINE
  5
346
330
1F
100
AcDbEntity
  8
0
100
AcDbLine
 10
49.31371548250646
 20
240.4293135499414
 30
0.0
 11
49.31371548250646
 21
239.1469636137984
 31
0.0
  0
LINE
  5
347
330
1F
100
AcDbEntity
  8
0
100
AcDbLine
 10
49.31371548250646
 20
239.1469636137984
 30
0.0
 11
43.97301944163799
 21
239.1469636137984
 31
0.0
  0
LINE
  5
348
330
1F
100
AcDbEntity
  8
0
100
AcDbLine
 10
43.97301944163799
 20
239.1469636137984
 30
0.0
 11
43.97301944163799
 21
236.1742433072849
 31
0.0
  0
LINE
  5
349
330
1F
100
AcDbEntity
  8
0
100
AcDbLine
 10
43.97301944163799
 20
236.1742433072849
 30
0.0
 11
48.94941152337491
 21
236.1742433072849
 31
0.0
  0
LINE
  5
34A
330
1F
100
AcDbEntity
  8
0
100
AcDbLine
 10
48.94941152337491
 20
236.1742433072849
 30
0.0
 11
48.94941152337491
 21
234.8918933711419
 31
0.0
  0
LINE
  5
34B
330
1F
100
AcDbEntity
  8
0
100
AcDbLine
 10
48.94941152337491
 20
234.8918933711419
 30
0.0
 11
43.97301944163799
 21
234.8918933711419
 31
0.0
  0
LINE
  5
34C
330
1F
100
AcDbEntity
  8
0
100
AcDbLine
 10
43.97301944163799
 20
234.8918933711419
 30
0.0
 11
43.97301944163799
 21
230.862691583147
 31
0.0
  0
LINE
  5
34D
330
1F
100
AcDbEntity
  8
0
100
AcDbLine
 10
-25.5973382534058
 20
240.420789887245
 30
0.0
 11
-23.82093169153948
 21
240.420789887245
 31
0.0
  0
LINE
  5
34E
330
1F
100
AcDbEntity
  8
0
100
AcDbLine
 10
-24.74553674628135
 20
238.9501582253722
 30
0.0
 11
-26.41273798672135
 21
233.8393491826259
 31
0.0
  0
LINE
  5
34F
330
1F
100
AcDbEntity
  8
0
100
AcDbLine
 10
-20.16619360114258
 20
229.580341647004
 30
0.0
 11
-21.68778774634767
 21
229.580341647004
 31
0.0
  0
LINE
  5
350
330
1F
100
AcDbEntity
  8
0
100
AcDbLine
 10
-23.0710551510796
 20
233.8393491826259
 30
0.0
 11
-24.74553674628135
 21
238.9501582253722
 31
0.0
  0
LINE
  5
351
330
1F
100
AcDbEntity
  8
0
100
AcDbLine
 10
-23.82093169153948
 20
240.420789887245
 30
0.0
 11
-20.16619360114258
 21
229.580341647004
 31
0.0
  0
LINE
  5
352
330
1F
100
AcDbEntity
  8
0
100
AcDbLine
 10
-21.68778774634767
 20
229.580341647004
 30
0.0
 11
-22.67063563918366
 21
232.6089692278907
 31
0.0
  0
LINE
  5
353
330
1F
100
AcDbEntity
  8
0
100
AcDbLine
 10
-25.07904394714441
 20
232.6089692278907
 30
0.0
 11
-26.81315749861749
 21
232.6089692278907
 31
0.0
  0
LINE
  5
354
330
1F
100
AcDbEntity
  8
0
100
AcDbLine
 10
-24.31089143521825
 20
233.8393491826259
 30
0.0
 11
-24.31089143521825
 21
232.6089692278907
 31
0.0
  0
LINE
  5
355
330
1F
100
AcDbEntity
  8
0
100
AcDbLine
 10
-22.67063563918366
 20
232.6089692278907
 30
0.0
 11
-24.31089143521825
 21
232.6089692278907
 31
0.0
  0
LINE
  5
356
330
1F
100
AcDbEntity
  8
0
100
AcDbLine
 10
-26.81315749861749
 20
232.6089692278907
 30
0.0
 11
-27.79600539145338
 21
229.580341647004
 31
0.0
  0
LINE
  5
357
330
1F
100
AcDbEntity
  8
0
100
AcDbLine
 10
-25.07904394714441
 20
233.8393491826259
 30
0.0
 11
-25.07904394714441
 21
232.6089692278907
 31
0.0
  0
LINE
  5
358
330
1F
100
AcDbEntity
  8
0
100
AcDbLine
 10
-26.41273798672135
 20
233.8393491826259
 30
0.0
 11
-25.07904394714441
 21
233.8393491826259
 31
0.0
  0
LINE
  5
359
330
1F
100
AcDbEntity
  8
0
100
AcDbLine
 10
-24.31089143521825
 20
233.8393491826259
 30
0.0
 11
-23.0710551510796
 21
233.8393491826259
 31
0.0
  0
LINE
  5
35A
330
1F
100
AcDbEntity
  8
0
100
AcDbLine
 10
24.56731691900795
 20
240.420789887245
 30
0.0
 11
26.34372348087427
 21
240.420789887245
 31
0.0
  0
LINE
  5
35B
330
1F
100
AcDbEntity
  8
0
100
AcDbLine
 10
25.41911842613241
 20
238.9501582253722
 30
0.0
 11
23.7519171856924
 21
233.8393491826259
 31
0.0
  0
LINE
  5
35C
330
1F
100
AcDbEntity
  8
0
100
AcDbLine
 10
29.99846157127118
 20
229.580341647004
 30
0.0
 11
28.47686742606608
 21
229.580341647004
 31
0.0
  0
LINE
  5
35D
330
1F
100
AcDbEntity
  8
0
100
AcDbLine
 10
27.09360002133416
 20
233.8393491826259
 30
0.0
 11
25.41911842613241
 21
238.9501582253722
 31
0.0
  0
LINE
  5
35E
330
1F
100
AcDbEntity
  8
0
100
AcDbLine
 10
26.34372348087427
 20
240.420789887245
 30
0.0
 11
29.99846157127118
 21
229.580341647004
 31
0.0
  0
LINE
  5
35F
330
1F
100
AcDbEntity
  8
0
100
AcDbLine
 10
28.47686742606608
 20
229.580341647004
 30
0.0
 11
27.49401953323009
 21
232.6089692278907
 31
0.0
  0
LINE
  5
360
330
1F
100
AcDbEntity
  8
0
100
AcDbLine
 10
25.08561122526935
 20
232.6089692278907
 30
0.0
 11
23.35149767379627
 21
232.6089692278907
 31
0.0
  0
LINE
  5
361
330
1F
100
AcDbEntity
  8
0
100
AcDbLine
 10
25.85376373719551
 20
233.8393491826259
 30
0.0
 11
25.85376373719551
 21
232.6089692278907
 31
0.0
  0
LINE
  5
362
330
1F
100
AcDbEntity
  8
0
100
AcDbLine
 10
20.91257882861115
 20
229.580341647004
 30
0.0
 11
24.56731691900795
 21
240.420789887245
 31
0.0
  0
LINE
  5
363
330
1F
100
AcDbEntity
  8
0
100
AcDbLine
 10
27.49401953323009
 20
232.6089692278907
 30
0.0
 11
25.85376373719551
 21
232.6089692278907
 31
0.0
  0
LINE
  5
364
330
1F
100
AcDbEntity
  8
0
100
AcDbLine
 10
23.35149767379627
 20
232.6089692278907
 30
0.0
 11
22.36864978096038
 21
229.580341647004
 31
0.0
  0
LINE
  5
365
330
1F
100
AcDbEntity
  8
0
100
AcDbLine
 10
25.08561122526935
 20
233.8393491826259
 30
0.0
 11
25.08561122526935
 21
232.6089692278907
 31
0.0
  0
LINE
  5
366
330
1F
100
AcDbEntity
  8
0
100
AcDbLine
 10
23.7519171856924
 20
233.8393491826259
 30
0.0
 11
25.08561122526935
 21
233.8393491826259
 31
0.0
  0
LINE
  5
367
330
1F
100
AcDbEntity
  8
0
100
AcDbLine
 10
22.36864978096038
 20
229.580341647004
 30
0.0
 11
20.91257882861115
 21
229.580341647004
 31
0.0
  0
LINE
  5
368
330
1F
100
AcDbEntity
  8
0
100
AcDbLine
 10
25.85376373719551
 20
233.8393491826259
 30
0.0
 11
27.09360002133416
 21
233.8393491826259
 31
0.0
  0
LINE
  5
369
330
1F
100
AcDbEntity
  8
0
100
AcDbLine
 10
-0.3432783944587975
 20
229.5803416470041
 30
0.0
 11
-1.798129983649599
 21
229.5803416470041
 31
0.0
  0
LINE
  5
36A
330
1F
100
AcDbEntity
  8
0
100
AcDbLine
 10
-0.3432783944587975
 20
239.2720045063093
 30
0.0
 11
-0.3432783944587975
 21
235.1425772683035
 31
0.0
  0
LINE
  5
36B
330
1F
100
AcDbEntity
  8
0
100
AcDbLine
 10
3.219454758615905
 20
240.2474163672439
 30
0.0
 11
3.808192049443732
 21
239.940648418513
 31
0.0
  0
LINE
  5
36C
330
1F
100
AcDbEntity
  8
0
100
AcDbLine
 10
6.673808816031094
 20
229.5803416470041
 30
0.0
 11
4.785440844203063
 21
229.5803416470041
 31
0.0
  0
LINE
  5
36D
330
1F
100
AcDbEntity
  8
0
100
AcDbLine
 10
4.440097285152651
 20
235.5393549744464
 30
0.0
 11
3.720019225856291
 21
234.8358093195727
 31
0.0
  0
LINE
  5
36E
330
1F
100
AcDbEntity
  8
0
100
AcDbLine
 10
2.599489592767498
 20
240.4182512129444
 30
0.0
 11
3.219454758615905
 21
240.2474163672439
 31
0.0
  0
LINE
  5
36F
330
1F
100
AcDbEntity
  8
0
100
AcDbLine
 10
3.186389949770693
 20
236.0463487100736
 30
0.0
 11
3.378349534455451
 21
236.4431264162164
 31
0.0
  0
LINE
  5
370
330
1F
100
AcDbEntity
  8
0
100
AcDbLine
 10
2.118212930686872
 20
239.1875055503715
 30
0.0
 11
1.096877724133924
 21
239.2720045063093
 31
0.0
  0
LINE
  5
371
330
1F
100
AcDbEntity
  8
0
100
AcDbLine
 10
4.785440844203063
 20
229.5803416470041
 30
0.0
 11
1.317309783102215
 21
233.930200943978
 31
0.0
  0
LINE
  5
372
330
1F
100
AcDbEntity
  8
0
100
AcDbLine
 10
-1.798129983649599
 20
240.5211195071295
 30
0.0
 11
0.3767996648375631
 21
240.5211195071295
 31
0.0
  0
LINE
  5
373
330
1F
100
AcDbEntity
  8
0
100
AcDbLine
 10
1.096877724133924
 20
239.2720045063093
 30
0.0
 11
1.096877724133924
 21
240.5211195071295
 31
0.0
  0
LINE
  5
374
330
1F
100
AcDbEntity
  8
0
100
AcDbLine
 10
0.3767996648375631
 20
239.2720045063093
 30
0.0
 11
-0.3432783944587975
 21
239.2720045063093
 31
0.0
  0
LINE
  5
375
330
1F
100
AcDbEntity
  8
0
100
AcDbLine
 10
2.779509107591744
 20
234.3416741207188
 30
0.0
 11
6.673808816031094
 21
229.5803416470041
 31
0.0
  0
LINE
  5
376
330
1F
100
AcDbEntity
  8
0
100
AcDbLine
 10
4.897493807511943
 20
236.4468002838659
 30
0.0
 11
4.706911923195658
 21
235.9682790225222
 31
0.0
  0
LINE
  5
377
330
1F
100
AcDbEntity
  8
0
100
AcDbLine
 10
3.720019225856291
 20
234.8358093195727
 30
0.0
 11
2.779509107591744
 21
234.3416741207188
 31
0.0
  0
LINE
  5
378
330
1F
100
AcDbEntity
  8
0
100
AcDbLine
 10
2.059431048295383
 20
235.2527932977877
 30
0.0
 11
2.522338372128565
 21
235.4217912096634
 31
0.0
  0
LINE
  5
379
330
1F
100
AcDbEntity
  8
0
100
AcDbLine
 10
3.486728630114966
 20
237.8933856708453
 30
0.0
 11
3.35998019620811
 21
238.2910818439004
 31
0.0
  0
LINE
  5
37A
330
1F
100
AcDbEntity
  8
0
100
AcDbLine
 10
2.911768342972697
 20
235.7083528863222
 30
0.0
 11
3.186389949770693
 21
236.0463487100736
 31
0.0
  0
LINE
  5
37B
330
1F
100
AcDbEntity
  8
0
100
AcDbLine
 10
1.317309783102215
 20
233.930200943978
 30
0.0
 11
1.317309783102214
 21
235.180036311004
 31
0.0
  0
LINE
  5
37C
330
1F
100
AcDbEntity
  8
0
100
AcDbLine
 10
4.321615053457358
 20
239.5199905726486
 30
0.0
 11
4.715637358863066
 21
238.9927905649494
 31
0.0
  0
LINE
  5
37D
330
1F
100
AcDbEntity
  8
0
100
AcDbLine
 10
0.3767996648375631
 20
239.2720045063093
 30
0.0
 11
0.3767996648375631
 21
240.5211195071295
 31
0.0
  0
LINE
  5
37E
330
1F
100
AcDbEntity
  8
0
100
AcDbLine
 10
0.4870156943217084
 20
233.930200943978
 30
0.0
 11
-0.3432783944587975
 21
233.930200943978
 31
0.0
  0
LINE
  5
37F
330
1F
100
AcDbEntity
  8
0
100
AcDbLine
 10
1.317309783102214
 20
235.180036311004
 30
0.0
 11
2.059431048295383
 21
235.2527932977877
 31
0.0
  0
LINE
  5
380
330
1F
100
AcDbEntity
  8
0
100
AcDbLine
 10
2.522338372128565
 20
235.4217912096634
 30
0.0
 11
2.911768342972697
 21
235.7083528863222
 31
0.0
  0
LINE
  5
381
330
1F
100
AcDbEntity
  8
0
100
AcDbLine
 10
3.378349534455451
 20
236.4431264162164
 30
0.0
 11
3.528978108083745
 21
237.4424184168726
 31
0.0
  0
LINE
  5
382
330
1F
100
AcDbEntity
  8
0
100
AcDbLine
 10
3.528978108083745
 20
237.4424184168726
 30
0.0
 11
3.486728630114966
 21
237.8933856708453
 31
0.0
  0
LINE
  5
383
330
1F
100
AcDbEntity
  8
0
100
AcDbLine
 10
3.35998019620811
 20
238.2910818439004
 30
0.0
 11
3.145058938714126
 21
238.6281592007395
 31
0.0
  0
LINE
  5
384
330
1F
100
AcDbEntity
  8
0
100
AcDbLine
 10
3.145058938714126
 20
238.6281592007395
 30
0.0
 11
2.838290989983336
 21
238.8972700060632
 31
0.0
  0
LINE
  5
385
330
1F
100
AcDbEntity
  8
0
100
AcDbLine
 10
2.838290989983336
 20
238.8972700060632
 30
0.0
 11
2.118212930686872
 21
239.1875055503715
 31
0.0
  0
LINE
  5
386
330
1F
100
AcDbEntity
  8
0
100
AcDbLine
 10
1.096877724133924
 20
240.5211195071295
 30
0.0
 11
2.599489592767498
 21
240.4182512129444
 31
0.0
  0
LINE
  5
387
330
1F
100
AcDbEntity
  8
0
100
AcDbLine
 10
3.808192049443732
 20
239.940648418513
 30
0.0
 11
4.321615053457358
 21
239.5199905726486
 31
0.0
  0
LINE
  5
388
330
1F
100
AcDbEntity
  8
0
100
AcDbLine
 10
4.715637358863066
 20
238.9927905649494
 30
0.0
 11
4.966378825939417
 21
238.3425159909931
 31
0.0
  0
LINE
  5
389
330
1F
100
AcDbEntity
  8
0
100
AcDbLine
 10
4.966378825939417
 20
238.3425159909931
 30
0.0
 11
5.049959314964971
 21
237.5526344463567
 31
0.0
  0
LINE
  5
38A
330
1F
100
AcDbEntity
  8
0
100
AcDbLine
 10
5.049959314964971
 20
237.5526344463567
 30
0.0
 11
4.897493807511943
 21
236.4468002838659
 31
0.0
  0
LINE
  5
38B
330
1F
100
AcDbEntity
  8
0
100
AcDbLine
 10
4.706911923195658
 20
235.9682790225222
 30
0.0
 11
4.440097285152651
 21
235.5393549744464
 31
0.0
  0
LINE
  5
38C
330
1F
100
AcDbEntity
  8
0
100
AcDbLine
 10
-0.3432783944587975
 20
233.930200943978
 30
0.0
 11
-0.3432783944587975
 21
229.5803416470041
 31
0.0
  0
LINE
  5
38D
330
1F
100
AcDbEntity
  8
0
100
AcDbLine
 10
-1.798129983649599
 20
229.5803416470041
 30
0.0
 11
-1.798129983649599
 21
240.5211195071295
 31
0.0
  0
LINE
  5
38E
330
1F
100
AcDbEntity
  8
0
100
AcDbLine
 10
-0.3432783944587975
 20
235.1425772683035
 30
0.0
 11
0.4870156943217084
 21
235.1425772683035
 31
0.0
  0
LINE
  5
38F
330
1F
100
AcDbEntity
  8
0
100
AcDbLine
 10
-35.88477264733214
 20
229.580341647004
 30
0.0
 11
-37.33962423652294
 21
229.580341647004
 31
0.0
  0
LINE
  5
390
330
1F
100
AcDbEntity
  8
0
100
AcDbLine
 10
-35.88477264733214
 20
239.2720045063092
 30
0.0
 11
-35.88477264733214
 21
235.1425772683034
 31
0.0
  0
LINE
  5
391
330
1F
100
AcDbEntity
  8
0
100
AcDbLine
 10
-32.32203949425744
 20
240.2474163672438
 30
0.0
 11
-31.73330220342961
 21
239.9406484185129
 31
0.0
  0
LINE
  5
392
330
1F
100
AcDbEntity
  8
0
100
AcDbLine
 10
-31.10139696772069
 20
235.5393549744463
 30
0.0
 11
-31.82147502701705
 21
234.8358093195726
 31
0.0
  0
LINE
  5
393
330
1F
100
AcDbEntity
  8
0
100
AcDbLine
 10
-32.94200466010584
 20
240.4182512129443
 30
0.0
 11
-32.32203949425744
 21
240.2474163672438
 31
0.0
  0
LINE
  5
394
330
1F
100
AcDbEntity
  8
0
100
AcDbLine
 10
-32.35510430310265
 20
236.0463487100735
 30
0.0
 11
-32.16314471841789
 21
236.4431264162164
 31
0.0
  0
LINE
  5
395
330
1F
100
AcDbEntity
  8
0
100
AcDbLine
 10
-33.42328132218647
 20
239.1875055503714
 30
0.0
 11
-34.44461652873942
 21
239.2720045063092
 31
0.0
  0
LINE
  5
396
330
1F
100
AcDbEntity
  8
0
100
AcDbLine
 10
-30.75605340867028
 20
229.580341647004
 30
0.0
 11
-34.22418446977112
 21
233.9302009439779
 31
0.0
  0
LINE
  5
397
330
1F
100
AcDbEntity
  8
0
100
AcDbLine
 10
-37.33962423652294
 20
240.5211195071294
 30
0.0
 11
-35.16469458803577
 21
240.5211195071294
 31
0.0
  0
LINE
  5
398
330
1F
100
AcDbEntity
  8
0
100
AcDbLine
 10
-34.44461652873942
 20
239.2720045063092
 30
0.0
 11
-34.44461652873942
 21
240.5211195071294
 31
0.0
  0
LINE
  5
399
330
1F
100
AcDbEntity
  8
0
100
AcDbLine
 10
-35.16469458803577
 20
239.2720045063092
 30
0.0
 11
-35.88477264733214
 21
239.2720045063092
 31
0.0
  0
LINE
  5
39A
330
1F
100
AcDbEntity
  8
0
100
AcDbLine
 10
-30.6440004453614
 20
236.4468002838659
 30
0.0
 11
-30.83458232967768
 21
235.9682790225222
 31
0.0
  0
LINE
  5
39B
330
1F
100
AcDbEntity
  8
0
100
AcDbLine
 10
-31.82147502701705
 20
234.8358093195726
 30
0.0
 11
-32.7619851452816
 21
234.3416741207187
 31
0.0
  0
LINE
  5
39C
330
1F
100
AcDbEntity
  8
0
100
AcDbLine
 10
-33.48206320457795
 20
235.2527932977876
 30
0.0
 11
-33.01915588074478
 21
235.4217912096633
 31
0.0
  0
LINE
  5
39D
330
1F
100
AcDbEntity
  8
0
100
AcDbLine
 10
-32.05476562275837
 20
237.8933856708452
 30
0.0
 11
-32.18151405666523
 21
238.2910818439003
 31
0.0
  0
LINE
  5
39E
330
1F
100
AcDbEntity
  8
0
100
AcDbLine
 10
-32.62972590990065
 20
235.7083528863221
 30
0.0
 11
-32.35510430310265
 21
236.0463487100735
 31
0.0
  0
LINE
  5
39F
330
1F
100
AcDbEntity
  8
0
100
AcDbLine
 10
-34.22418446977112
 20
233.9302009439779
 30
0.0
 11
-34.22418446977112
 21
235.1800363110039
 31
0.0
  0
LINE
  5
3A0
330
1F
100
AcDbEntity
  8
0
100
AcDbLine
 10
-31.21987919941598
 20
239.5199905726485
 30
0.0
 11
-30.82585689401028
 21
238.9927905649494
 31
0.0
  0
LINE
  5
3A1
330
1F
100
AcDbEntity
  8
0
100
AcDbLine
 10
-35.16469458803577
 20
239.2720045063092
 30
0.0
 11
-35.16469458803577
 21
240.5211195071294
 31
0.0
  0
LINE
  5
3A2
330
1F
100
AcDbEntity
  8
0
100
AcDbLine
 10
-35.05447855855164
 20
233.9302009439779
 30
0.0
 11
-35.88477264733214
 21
233.9302009439779
 31
0.0
  0
LINE
  5
3A3
330
1F
100
AcDbEntity
  8
0
100
AcDbLine
 10
-34.22418446977112
 20
235.1800363110039
 30
0.0
 11
-33.48206320457795
 21
235.2527932977876
 31
0.0
  0
LINE
  5
3A4
330
1F
100
AcDbEntity
  8
0
100
AcDbLine
 10
-33.01915588074478
 20
235.4217912096633
 30
0.0
 11
-32.62972590990065
 21
235.7083528863221
 31
0.0
  0
LINE
  5
3A5
330
1F
100
AcDbEntity
  8
0
100
AcDbLine
 10
-32.16314471841789
 20
236.4431264162164
 30
0.0
 11
-32.01251614478959
 21
237.4424184168725
 31
0.0
  0
LINE
  5
3A6
330
1F
100
AcDbEntity
  8
0
100
AcDbLine
 10
-32.01251614478959
 20
237.4424184168725
 30
0.0
 11
-32.05476562275837
 21
237.8933856708452
 31
0.0
  0
LINE
  5
3A7
330
1F
100
AcDbEntity
  8
0
100
AcDbLine
 10
-32.18151405666523
 20
238.2910818439003
 30
0.0
 11
-32.39643531415922
 21
238.6281592007394
 31
0.0
  0
LINE
  5
3A8
330
1F
100
AcDbEntity
  8
0
100
AcDbLine
 10
-32.39643531415922
 20
238.6281592007394
 30
0.0
 11
-32.70320326289
 21
238.8972700060631
 31
0.0
  0
LINE
  5
3A9
330
1F
100
AcDbEntity
  8
0
100
AcDbLine
 10
-32.70320326289
 20
238.8972700060631
 30
0.0
 11
-33.42328132218647
 21
239.1875055503714
 31
0.0
  0
LINE
  5
3AA
330
1F
100
AcDbEntity
  8
0
100
AcDbLine
 10
-34.44461652873942
 20
240.5211195071294
 30
0.0
 11
-32.94200466010584
 21
240.4182512129443
 31
0.0
  0
LINE
  5
3AB
330
1F
100
AcDbEntity
  8
0
100
AcDbLine
 10
-31.73330220342961
 20
239.9406484185129
 30
0.0
 11
-31.21987919941598
 21
239.5199905726485
 31
0.0
  0
LINE
  5
3AC
330
1F
100
AcDbEntity
  8
0
100
AcDbLine
 10
-30.82585689401028
 20
238.9927905649494
 30
0.0
 11
-30.57511542693392
 21
238.342515990993
 31
0.0
  0
LINE
  5
3AD
330
1F
100
AcDbEntity
  8
0
100
AcDbLine
 10
-30.57511542693392
 20
238.342515990993
 30
0.0
 11
-30.49153493790837
 21
237.5526344463566
 31
0.0
  0
LINE
  5
3AE
330
1F
100
AcDbEntity
  8
0
100
AcDbLine
 10
-30.49153493790837
 20
237.5526344463566
 30
0.0
 11
-30.6440004453614
 21
236.4468002838659
 31
0.0
  0
LINE
  5
3AF
330
1F
100
AcDbEntity
  8
0
100
AcDbLine
 10
-30.83458232967768
 20
235.9682790225222
 30
0.0
 11
-31.10139696772069
 21
235.5393549744463
 31
0.0
  0
LINE
  5
3B0
330
1F
100
AcDbEntity
  8
0
100
AcDbLine
 10
-35.88477264733214
 20
233.9302009439779
 30
0.0
 11
-35.88477264733214
 21
229.580341647004
 31
0.0
  0
LINE
  5
3B1
330
1F
100
AcDbEntity
  8
0
100
AcDbLine
 10
-37.33962423652294
 20
229.580341647004
 30
0.0
 11
-37.33962423652294
 21
240.5211195071294
 31
0.0
  0
LINE
  5
3B2
330
1F
100
AcDbEntity
  8
0
100
AcDbLine
 10
-35.88477264733214
 20
235.1425772683034
 30
0.0
 11
-35.05447855855164
 21
235.1425772683034
 31
0.0
  0
LINE
  5
3B3
330
1F
100
AcDbEntity
  8
0
100
AcDbLine
 10
-3.386495245462871
 20
240.4293135499414
 30
0.0
 11
-3.386495245462871
 21
239.1469636137984
 31
0.0
  0
LINE
  5
3B4
330
1F
100
AcDbEntity
  8
0
100
AcDbLine
 10
72.09868105174496
 20
229.6726500057785
 30
0.0
 11
71.52726003263948
 21
229.6726500057785
 31
0.0
  0
LINE
  5
3B5
330
1F
100
AcDbEntity
  8
0
100
AcDbLine
 10
68.21916794445482
 20
230.1236369984358
 30
0.0
 11
68.21916794445482
 21
229.6726500057785
 31
0.0
  0
LINE
  5
3B6
330
1F
100
AcDbEntity
  8
0
100
AcDbLine
 10
68.21916794445482
 20
229.6726500057785
 30
0.0
 11
65.83354925034175
 21
229.6726500057785
 31
0.0
  0
LINE
  5
3B7
330
1F
100
AcDbEntity
  8
0
100
AcDbLine
 10
73.0570284111416
 20
233.4881024607026
 30
0.0
 11
72.09868105174496
 21
229.6726500057785
 31
0.0
  0
LINE
  5
3B8
330
1F
100
AcDbEntity
  8
0
100
AcDbLine
 10
59.08155649095627
 20
231.3331021151075
 30
0.0
 11
60.43964232111723
 21
229.6726500057785
 31
0.0
  0
LINE
  5
3B9
330
1F
100
AcDbEntity
  8
0
100
AcDbLine
 10
57.99252540073281
 20
233.0524900246132
 30
0.0
 11
57.99252540073281
 21
231.6124065594237
 31
0.0
  0
LINE
  5
3BA
330
1F
100
AcDbEntity
  8
0
100
AcDbLine
 10
60.84194321797631
 20
229.6726500057785
 30
0.0
 11
60.84194321797631
 21
230.4029414427519
 31
0.0
  0
LINE
  5
3BB
330
1F
100
AcDbEntity
  8
0
100
AcDbLine
 10
59.3429239526099
 20
232.4144459270471
 30
0.0
 11
59.32819000256565
 21
232.5717148286058
 31
0.0
  0
LINE
  5
3BC
330
1F
100
AcDbEntity
  8
0
100
AcDbLine
 10
60.84194321797631
 20
230.4029414427519
 30
0.0
 11
61.45436305459604
 21
230.4029414427519
 31
0.0
  0
LINE
  5
3BD
330
1F
100
AcDbEntity
  8
0
100
AcDbLine
 10
59.28398815243306
 20
232.7104061409784
 30
0.0
 11
59.20903718916476
 21
232.8279574380702
 31
0.0
  0
LINE
  5
3BE
330
1F
100
AcDbEntity
  8
0
100
AcDbLine
 10
58.99187157764371
 20
231.7097787510201
 30
0.0
 11
59.1276801606598
 21
231.8097133687112
 31
0.0
  0
LINE
  5
3BF
330
1F
100
AcDbEntity
  8
0
100
AcDbLine
 10
59.87334615420102
 20
232.4528823184667
 30
0.0
 11
59.82017581273719
 21
232.0672371912229
 31
0.0
  0
LINE
  5
3C0
330
1F
100
AcDbEntity
  8
0
100
AcDbLine
 10
59.4095470310706
 20
231.5054252699723
 30
0.0
 11
59.08155649095627
 21
231.3331021151075
 31
0.0
  0
LINE
  5
3C1
330
1F
100
AcDbEntity
  8
0
100
AcDbLine
 10
59.32819000256565
 20
232.5717148286058
 30
0.0
 11
59.28398815243306
 21
232.7104061409784
 31
0.0
  0
LINE
  5
3C2
330
1F
100
AcDbEntity
  8
0
100
AcDbLine
 10
59.10205589971336
 20
232.9218062937864
 30
0.0
 11
58.85093814243835
 21
233.0230221245248
 31
0.0
  0
LINE
  5
3C3
330
1F
100
AcDbEntity
  8
0
100
AcDbLine
 10
58.43838754120073
 20
231.6124065594237
 30
0.0
 11
58.83043873368118
 21
231.6508429508433
 31
0.0
  0
LINE
  5
3C4
330
1F
100
AcDbEntity
  8
0
100
AcDbLine
 10
58.85093814243835
 20
233.0230221245248
 30
0.0
 11
58.4947609152829
 21
233.0524900246132
 31
0.0
  0
LINE
  5
3C5
330
1F
100
AcDbEntity
  8
0
100
AcDbLine
 10
57.99252540073281
 20
231.6124065594237
 30
0.0
 11
58.21545647096677
 21
231.6124065594237
 31
0.0
  0
LINE
  5
3C6
330
1F
100
AcDbEntity
  8
0
100
AcDbLine
 10
58.83043873368118
 20
231.6508429508433
 30
0.0
 11
58.99187157764371
 21
231.7097787510201
 31
0.0
  0
LINE
  5
3C7
330
1F
100
AcDbEntity
  8
0
100
AcDbLine
 10
59.20903718916476
 20
232.8279574380702
 30
0.0
 11
59.10205589971336
 21
232.9218062937864
 31
0.0
  0
LINE
  5
3C8
330
1F
100
AcDbEntity
  8
0
100
AcDbLine
 10
59.1276801606598
 20
231.8097133687112
 30
0.0
 11
59.2234508359471
 21
231.9275849690648
 31
0.0
  0
LINE
  5
3C9
330
1F
100
AcDbEntity
  8
0
100
AcDbLine
 10
59.66066478834569
 20
231.7507775685343
 30
0.0
 11
59.4095470310706
 21
231.5054252699723
 31
0.0
  0
LINE
  5
3CA
330
1F
100
AcDbEntity
  8
0
100
AcDbLine
 10
59.2234508359471
 20
231.9275849690648
 30
0.0
 11
59.29039421766971
 21
232.0659559781756
 31
0.0
  0
LINE
  5
3CB
330
1F
100
AcDbEntity
  8
0
100
AcDbLine
 10
59.29039421766971
 20
232.0659559781756
 30
0.0
 11
59.3429239526099
 21
232.4144459270471
 31
0.0
  0
LINE
  5
3CC
330
1F
100
AcDbEntity
  8
0
100
AcDbLine
 10
61.45436305459604
 20
229.6726500057785
 30
0.0
 11
60.84194321797631
 21
229.6726500057785
 31
0.0
  0
LINE
  5
3CD
330
1F
100
AcDbEntity
  8
0
100
AcDbLine
 10
59.82017581273719
 20
232.0672371912229
 30
0.0
 11
59.75371288590735
 21
231.9003591918092
 31
0.0
  0
LINE
  5
3CE
330
1F
100
AcDbEntity
  8
0
100
AcDbLine
 10
59.84419855737452
 20
232.7283431236409
 30
0.0
 11
59.87334615420102
 21
232.4528823184667
 31
0.0
  0
LINE
  5
3CF
330
1F
100
AcDbEntity
  8
0
100
AcDbLine
 10
59.75371288590735
 20
231.9003591918092
 30
0.0
 11
59.66066478834569
 21
231.7507775685343
 31
0.0
  0
LINE
  5
3D0
330
1F
100
AcDbEntity
  8
0
100
AcDbLine
 10
65.83354925034175
 20
229.6726500057785
 30
0.0
 11
65.83354925034175
 21
233.4881024607026
 31
0.0
  0
LINE
  5
3D1
330
1F
100
AcDbEntity
  8
0
100
AcDbLine
 10
65.83354925034175
 20
233.4881024607026
 30
0.0
 11
68.21916794445482
 21
233.4881024607026
 31
0.0
  0
LINE
  5
3D2
330
1F
100
AcDbEntity
  8
0
100
AcDbLine
 10
68.21916794445482
 20
233.4881024607026
 30
0.0
 11
68.21916794445482
 21
233.0371154680454
 31
0.0
  0
LINE
  5
3D3
330
1F
100
AcDbEntity
  8
0
100
AcDbLine
 10
68.21916794445482
 20
233.0371154680454
 30
0.0
 11
66.34090961708111
 21
233.0371154680454
 31
0.0
  0
LINE
  5
3D4
330
1F
100
AcDbEntity
  8
0
100
AcDbLine
 10
66.34090961708111
 20
233.0371154680454
 30
0.0
 11
66.34090961708111
 21
231.9916456214309
 31
0.0
  0
LINE
  5
3D5
330
1F
100
AcDbEntity
  8
0
100
AcDbLine
 10
68.0910466397226
 20
231.5406586287736
 30
0.0
 11
66.34090961708111
 21
231.5406586287736
 31
0.0
  0
LINE
  5
3D6
330
1F
100
AcDbEntity
  8
0
100
AcDbLine
 10
66.34090961708111
 20
231.5406586287736
 30
0.0
 11
66.34090961708111
 21
230.1236369984358
 31
0.0
  0
LINE
  5
3D7
330
1F
100
AcDbEntity
  8
0
100
AcDbLine
 10
66.34090961708111
 20
230.1236369984358
 30
0.0
 11
68.21916794445482
 21
230.1236369984358
 31
0.0
  0
LINE
  5
3D8
330
1F
100
AcDbEntity
  8
0
100
AcDbLine
 10
66.34090961708111
 20
231.9916456214309
 30
0.0
 11
68.0910466397226
 21
231.9916456214309
 31
0.0
  0
LINE
  5
3D9
330
1F
100
AcDbEntity
  8
0
100
AcDbLine
 10
68.0910466397226
 20
231.9916456214309
 30
0.0
 11
68.0910466397226
 21
231.5406586287736
 31
0.0
  0
LINE
  5
3DA
330
1F
100
AcDbEntity
  8
0
100
AcDbLine
 10
61.45436305459604
 20
230.4029414427519
 30
0.0
 11
61.45436305459604
 21
229.6726500057785
 31
0.0
  0
LINE
  5
3DB
330
1F
100
AcDbEntity
  8
0
100
AcDbLine
 10
62.80476160647314
 20
229.6726500057785
 30
0.0
 11
62.33071277896417
 21
229.6726500057785
 31
0.0
  0
LINE
  5
3DC
330
1F
100
AcDbEntity
  8
0
100
AcDbLine
 10
62.33071277896417
 20
229.6726500057785
 30
0.0
 11
62.33071277896417
 21
233.4881024607026
 31
0.0
  0
LINE
  5
3DD
330
1F
100
AcDbEntity
  8
0
100
AcDbLine
 10
65.0596965697594
 20
229.6726500057785
 30
0.0
 11
64.49083797674861
 21
229.6726500057785
 31
0.0
  0
LINE
  5
3DE
330
1F
100
AcDbEntity
  8
0
100
AcDbLine
 10
64.49083797674861
 20
229.6726500057785
 30
0.0
 11
62.80476160647314
 21
232.9628051113008
 31
0.0
  0
LINE
  5
3DF
330
1F
100
AcDbEntity
  8
0
100
AcDbLine
 10
64.58564774225034
 20
230.4670020951181
 30
0.0
 11
64.58564774225034
 21
233.4881024607026
 31
0.0
  0
LINE
  5
3E0
330
1F
100
AcDbEntity
  8
0
100
AcDbLine
 10
62.33071277896417
 20
233.4881024607026
 30
0.0
 11
63.05075451155895
 21
233.4881024607026
 31
0.0
  0
LINE
  5
3E1
330
1F
100
AcDbEntity
  8
0
100
AcDbLine
 10
63.05075451155895
 20
233.4881024607026
 30
0.0
 11
64.58564774225034
 21
230.4670020951181
 31
0.0
  0
LINE
  5
3E2
330
1F
100
AcDbEntity
  8
0
100
AcDbLine
 10
64.58564774225034
 20
233.4881024607026
 30
0.0
 11
65.0596965697594
 21
233.4881024607026
 31
0.0
  0
LINE
  5
3E3
330
1F
100
AcDbEntity
  8
0
100
AcDbLine
 10
65.0596965697594
 20
233.4881024607026
 30
0.0
 11
65.0596965697594
 21
229.6726500057785
 31
0.0
  0
LINE
  5
3E4
330
1F
100
AcDbEntity
  8
0
100
AcDbLine
 10
62.80476160647314
 20
232.9628051113008
 30
0.0
 11
62.80476160647314
 21
229.6726500057785
 31
0.0
  0
LINE
  5
3E5
330
1F
100
AcDbEntity
  8
0
100
AcDbLine
 10
56.7113123534111
 20
229.6726500057785
 30
0.0
 11
56.20395198667164
 21
229.6726500057785
 31
0.0
  0
LINE
  5
3E6
330
1F
100
AcDbEntity
  8
0
100
AcDbLine
 10
56.20395198667164
 20
229.6726500057785
 30
0.0
 11
56.20395198667164
 21
232.9602426852061
 31
0.0
  0
LINE
  5
3E7
330
1F
100
AcDbEntity
  8
0
100
AcDbLine
 10
56.20395198667164
 20
232.9602426852061
 30
0.0
 11
55.20973066195
 21
230.7232447045823
 31
0.0
  0
LINE
  5
3E8
330
1F
100
AcDbEntity
  8
0
100
AcDbLine
 10
59.44029614420632
 20
233.2856707992258
 30
0.0
 11
59.61934566756953
 21
233.1389719053075
 31
0.0
  0
LINE
  5
3E9
330
1F
100
AcDbEntity
  8
0
100
AcDbLine
 10
53.91570548415508
 20
229.6726500057785
 30
0.0
 11
53.44165665664602
 21
229.6726500057785
 31
0.0
  0
LINE
  5
3EA
330
1F
100
AcDbEntity
  8
0
100
AcDbLine
 10
59.75675576689482
 20
232.9551178330168
 30
0.0
 11
59.84419855737452
 21
232.7283431236409
 31
0.0
  0
LINE
  5
3EB
330
1F
100
AcDbEntity
  8
0
100
AcDbLine
 10
53.91570548415508
 20
232.9602426852061
 30
0.0
 11
53.91570548415508
 21
229.6726500057785
 31
0.0
  0
LINE
  5
3EC
330
1F
100
AcDbEntity
  8
0
100
AcDbLine
 10
53.44165665664602
 20
233.4881024607026
 30
0.0
 11
54.13351170219977
 21
233.4881024607026
 31
0.0
  0
LINE
  5
3ED
330
1F
100
AcDbEntity
  8
0
100
AcDbLine
 10
60.43964232111723
 20
229.6726500057785
 30
0.0
 11
59.78109881479388
 21
229.6726500057785
 31
0.0
  0
LINE
  5
3EE
330
1F
100
AcDbEntity
  8
0
100
AcDbLine
 10
55.20973066195
 20
230.7232447045823
 30
0.0
 11
54.90223953059276
 21
230.7232447045823
 31
0.0
  0
LINE
  5
3EF
330
1F
100
AcDbEntity
  8
0
100
AcDbLine
 10
57.48516503399335
 20
229.6726500057785
 30
0.0
 11
57.48516503399335
 21
233.4881024607026
 31
0.0
  0
LINE
  5
3F0
330
1F
100
AcDbEntity
  8
0
100
AcDbLine
 10
59.23498175337303
 20
233.3926520886772
 30
0.0
 11
59.44029614420632
 21
233.2856707992258
 31
0.0
  0
LINE
  5
3F1
330
1F
100
AcDbEntity
  8
0
100
AcDbLine
 10
59.78109881479388
 20
229.6726500057785
 30
0.0
 11
58.57163369812223
 21
231.1896062538075
 31
0.0
  0
LINE
  5
3F2
330
1F
100
AcDbEntity
  8
0
100
AcDbLine
 10
58.57163369812223
 20
231.1896062538075
 30
0.0
 11
58.43838754120073
 21
231.1896062538075
 31
0.0
  0
LINE
  5
3F3
330
1F
100
AcDbEntity
  8
0
100
AcDbLine
 10
53.44165665664602
 20
229.6726500057785
 30
0.0
 11
53.44165665664602
 21
233.4881024607026
 31
0.0
  0
LINE
  5
3F4
330
1F
100
AcDbEntity
  8
0
100
AcDbLine
 10
57.48516503399335
 20
233.4881024607026
 30
0.0
 11
58.2436431580079
 21
233.4881024607026
 31
0.0
  0
LINE
  5
3F5
330
1F
100
AcDbEntity
  8
0
100
AcDbLine
 10
54.13351170219977
 20
233.4881024607026
 30
0.0
 11
55.08673420940714
 21
231.3638512282433
 31
0.0
  0
LINE
  5
3F6
330
1F
100
AcDbEntity
  8
0
100
AcDbLine
 10
54.90223953059276
 20
230.7232447045823
 30
0.0
 11
53.91570548415508
 21
232.9602426852061
 31
0.0
  0
LINE
  5
3F7
330
1F
100
AcDbEntity
  8
0
100
AcDbLine
 10
56.00664517738412
 20
233.4881024607026
 30
0.0
 11
56.7113123534111
 21
233.4881024607026
 31
0.0
  0
LINE
  5
3F8
330
1F
100
AcDbEntity
  8
0
100
AcDbLine
 10
55.08673420940714
 20
231.3638512282433
 30
0.0
 11
56.00664517738412
 21
233.4881024607026
 31
0.0
  0
LINE
  5
3F9
330
1F
100
AcDbEntity
  8
0
100
AcDbLine
 10
57.99252540073281
 20
229.6726500057785
 30
0.0
 11
57.48516503399335
 21
229.6726500057785
 31
0.0
  0
LINE
  5
3FA
330
1F
100
AcDbEntity
  8
0
100
AcDbLine
 10
59.01877705163745
 20
233.4522284953777
 30
0.0
 11
59.23498175337303
 21
233.3926520886772
 31
0.0
  0
LINE
  5
3FB
330
1F
100
AcDbEntity
  8
0
100
AcDbLine
 10
57.99252540073281
 20
231.1896062538075
 30
0.0
 11
57.99252540073281
 21
229.6726500057785
 31
0.0
  0
LINE
  5
3FC
330
1F
100
AcDbEntity
  8
0
100
AcDbLine
 10
56.7113123534111
 20
233.4881024607026
 30
0.0
 11
56.7113123534111
 21
229.6726500057785
 31
0.0
  0
LINE
  5
3FD
330
1F
100
AcDbEntity
  8
0
100
AcDbLine
 10
59.61934566756953
 20
233.1389719053075
 30
0.0
 11
59.75675576689482
 21
232.9551178330168
 31
0.0
  0
LINE
  5
3FE
330
1F
100
AcDbEntity
  8
0
100
AcDbLine
 10
69.9923668019481
 20
229.6726500057785
 30
0.0
 11
69.43375791331574
 21
229.6726500057785
 31
0.0
  0
LINE
  5
3FF
330
1F
100
AcDbEntity
  8
0
100
AcDbLine
 10
70.75084492596254
 20
232.8398086587578
 30
0.0
 11
69.9923668019481
 21
229.6726500057785
 31
0.0
  0
LINE
  5
400
330
1F
100
AcDbEntity
  8
0
100
AcDbLine
 10
70.50997687306608
 20
233.4881024607026
 30
0.0
 11
71.0250245180894
 21
233.4881024607026
 31
0.0
  0
LINE
  5
401
330
1F
100
AcDbEntity
  8
0
100
AcDbLine
 10
71.0250245180894
 20
233.4881024607026
 30
0.0
 11
71.79631477257706
 21
230.2850698423983
 31
0.0
  0
LINE
  5
402
330
1F
100
AcDbEntity
  8
0
100
AcDbLine
 10
68.45747357125661
 20
233.4881024607026
 30
0.0
 11
68.97764606846928
 21
233.4881024607026
 31
0.0
  0
LINE
  5
403
330
1F
100
AcDbEntity
  8
0
100
AcDbLine
 10
68.97764606846928
 20
233.4881024607026
 30
0.0
 11
69.74637389686227
 21
230.3158189555341
 31
0.0
  0
LINE
  5
404
330
1F
100
AcDbEntity
  8
0
100
AcDbLine
 10
71.79631477257706
 20
230.2850698423983
 30
0.0
 11
72.55991774878079
 21
233.4881024607026
 31
0.0
  0
LINE
  5
405
330
1F
100
AcDbEntity
  8
0
100
AcDbLine
 10
69.43375791331574
 20
229.6726500057785
 30
0.0
 11
68.45747357125661
 21
233.4881024607026
 31
0.0
  0
LINE
  5
406
330
1F
100
AcDbEntity
  8
0
100
AcDbLine
 10
69.74637389686227
 20
230.3158189555341
 30
0.0
 11
70.50997687306608
 21
233.4881024607026
 31
0.0
  0
LINE
  5
407
330
1F
100
AcDbEntity
  8
0
100
AcDbLine
 10
72.55991774878079
 20
233.4881024607026
 30
0.0
 11
73.0570284111416
 21
233.4881024607026
 31
0.0
  0
LINE
  5
408
330
1F
100
AcDbEntity
  8
0
100
AcDbLine
 10
71.52726003263948
 20
229.6726500057785
 30
0.0
 11
70.75084492596254
 21
232.8398086587578
 31
0.0
  0
LINE
  5
409
330
1F
100
AcDbEntity
  8
0
100
AcDbLine
 10
77.64601324338624
 20
233.1053400628153
 30
0.0
 11
77.4221212633667
 21
233.0332718289035
 31
0.0
  0
LINE
  5
40A
330
1F
100
AcDbEntity
  8
0
100
AcDbLine
 10
77.2276971834357
 20
232.9105956796224
 30
0.0
 11
77.05697554488009
 21
232.7347491888775
 31
0.0
  0
LINE
  5
40B
330
1F
100
AcDbEntity
  8
0
100
AcDbLine
 10
76.92340908469677
 20
232.5150211512618
 30
0.0
 11
76.82507598331479
 21
232.2453258048006
 31
0.0
  0
LINE
  5
40C
330
1F
100
AcDbEntity
  8
0
100
AcDbLine
 10
76.82507598331479
 20
232.2453258048006
 30
0.0
 11
76.76453866682883
 21
231.9314286082068
 31
0.0
  0
LINE
  5
40D
330
1F
100
AcDbEntity
  8
0
100
AcDbLine
 10
76.76453866682883
 20
231.9314286082068
 30
0.0
 11
76.74435956133357
 21
231.5790950201933
 31
0.0
  0
LINE
  5
40E
330
1F
100
AcDbEntity
  8
0
100
AcDbLine
 10
79.47078092603421
 20
232.4272580575203
 30
0.0
 11
79.56110644587041
 21
232.0294414063268
 31
0.0
  0
LINE
  5
40F
330
1F
100
AcDbEntity
  8
0
100
AcDbLine
 10
76.76405821193615
 20
231.2257204465789
 30
0.0
 11
76.82315416374385
 21
230.9163875714661
 31
0.0
  0
LINE
  5
410
330
1F
100
AcDbEntity
  8
0
100
AcDbLine
 10
76.9216474167567
 20
230.6510963948551
 30
0.0
 11
77.05953797097469
 21
230.4298469167457
 31
0.0
  0
LINE
  5
411
330
1F
100
AcDbEntity
  8
0
100
AcDbLine
 10
78.58802513642951
 20
229.7200548885294
 30
0.0
 11
78.26099550610064
 21
229.6249248197658
 31
0.0
  0
LINE
  5
412
330
1F
100
AcDbEntity
  8
0
100
AcDbLine
 10
76.82315416374385
 20
230.9163875714661
 30
0.0
 11
76.9216474167567
 21
230.6510963948551
 31
0.0
  0
LINE
  5
413
330
1F
100
AcDbEntity
  8
0
100
AcDbLine
 10
79.13254068154124
 20
233.0499275985187
 30
0.0
 11
79.32600385168688
 21
232.7687013346315
 31
0.0
  0
LINE
  5
414
330
1F
100
AcDbEntity
  8
0
100
AcDbLine
 10
79.32600385168688
 20
232.7687013346315
 30
0.0
 11
79.47078092603421
 21
232.4272580575203
 31
0.0
  0
LINE
  5
415
330
1F
100
AcDbEntity
  8
0
100
AcDbLine
 10
79.32920688430511
 20
230.397175984039
 30
0.0
 11
79.13254068154124
 21
230.1133872940572
 31
0.0
  0
LINE
  5
416
330
1F
100
AcDbEntity
  8
0
100
AcDbLine
 10
76.2462879891872
 20
232.0313632258979
 30
0.0
 11
76.33565259923792
 21
232.4246956314256
 31
0.0
  0
LINE
  5
417
330
1F
100
AcDbEntity
  8
0
100
AcDbLine
 10
79.06335517698585
 20
231.5790950201933
 30
0.0
 11
79.04285576822868
 21
231.936553460396
 31
0.0
  0
LINE
  5
418
330
1F
100
AcDbEntity
  8
0
100
AcDbLine
 10
78.15849846231487
 20
233.1046994562916
 30
0.0
 11
77.905138582207
 21
233.1293628074526
 31
0.0
  0
LINE
  5
419
330
1F
100
AcDbEntity
  8
0
100
AcDbLine
 10
77.4221212633667
 20
233.0332718289035
 30
0.0
 11
77.2276971834357
 21
232.9105956796224
 31
0.0
  0
LINE
  5
41A
330
1F
100
AcDbEntity
  8
0
100
AcDbLine
 10
77.05697554488009
 20
232.7347491888775
 30
0.0
 11
76.92340908469677
 21
232.5150211512618
 31
0.0
  0
LINE
  5
41B
330
1F
100
AcDbEntity
  8
0
100
AcDbLine
 10
76.74435956133357
 20
231.5790950201933
 30
0.0
 11
76.76405821193615
 21
231.2257204465789
 31
0.0
  0
LINE
  5
41C
330
1F
100
AcDbEntity
  8
0
100
AcDbLine
 10
79.56110644587041
 20
232.0294414063268
 30
0.0
 11
79.59121495248239
 21
231.5790950201933
 31
0.0
  0
LINE
  5
41D
330
1F
100
AcDbEntity
  8
0
100
AcDbLine
 10
77.2055962583694
 20
229.7238985276714
 30
0.0
 11
76.91732332272203
 21
229.8866125846812
 31
0.0
  0
LINE
  5
41E
330
1F
100
AcDbEntity
  8
0
100
AcDbLine
 10
78.87982140795702
 20
229.8818080357538
 30
0.0
 11
78.58802513642951
 21
229.7200548885294
 31
0.0
  0
LINE
  5
41F
330
1F
100
AcDbEntity
  8
0
100
AcDbLine
 10
76.47786724749066
 20
230.3965353775153
 30
0.0
 11
76.33437138619063
 21
230.7386192611502
 31
0.0
  0
LINE
  5
420
330
1F
100
AcDbEntity
  8
0
100
AcDbLine
 10
77.20687747141669
 20
233.4355727257625
 30
0.0
 11
77.53646952784024
 21
233.5345464336681
 31
0.0
  0
LINE
  5
421
330
1F
100
AcDbEntity
  8
0
100
AcDbLine
 10
78.6046809060447
 20
233.4317290866205
 30
0.0
 11
78.89295384169208
 21
233.268374423087
 31
0.0
  0
LINE
  5
422
330
1F
100
AcDbEntity
  8
0
100
AcDbLine
 10
79.59121495248239
 20
231.5790950201933
 30
0.0
 11
79.56174705239405
 21
231.137717125391
 31
0.0
  0
LINE
  5
423
330
1F
100
AcDbEntity
  8
0
100
AcDbLine
 10
76.24596768592536
 20
231.1345140927727
 30
0.0
 11
76.21649978583703
 21
231.5790950201933
 31
0.0
  0
LINE
  5
424
330
1F
100
AcDbEntity
  8
0
100
AcDbLine
 10
79.04285576822868
 20
231.936553460396
 30
0.0
 11
78.98135754195725
 21
232.2504506569899
 31
0.0
  0
LINE
  5
425
330
1F
100
AcDbEntity
  8
0
100
AcDbLine
 10
79.56174705239405
 20
231.137717125391
 30
0.0
 11
79.4733433521288
 21
230.7411816872449
 31
0.0
  0
LINE
  5
426
330
1F
100
AcDbEntity
  8
0
100
AcDbLine
 10
79.4733433521288
 20
230.7411816872449
 30
0.0
 11
79.32920688430511
 21
230.397175984039
 31
0.0
  0
LINE
  5
427
330
1F
100
AcDbEntity
  8
0
100
AcDbLine
 10
76.91732332272203
 20
229.8866125846812
 30
0.0
 11
76.6726116306835
 21
230.1133872940572
 31
0.0
  0
LINE
  5
428
330
1F
100
AcDbEntity
  8
0
100
AcDbLine
 10
76.6726116306835
 20
230.1133872940572
 30
0.0
 11
76.47786724749066
 21
230.3965353775153
 31
0.0
  0
LINE
  5
429
330
1F
100
AcDbEntity
  8
0
100
AcDbLine
 10
76.48010937032343
 20
232.7629358759186
 30
0.0
 11
76.67517405677819
 21
233.0499275985187
 31
0.0
  0
LINE
  5
42A
330
1F
100
AcDbEntity
  8
0
100
AcDbLine
 10
76.33437138619063
 20
230.7386192611502
 30
0.0
 11
76.24596768592536
 21
231.1345140927727
 31
0.0
  0
LINE
  5
42B
330
1F
100
AcDbEntity
  8
0
100
AcDbLine
 10
78.98135754195725
 20
232.2504506569899
 30
0.0
 11
78.88270413731354
 21
232.5175835773564
 31
0.0
  0
LINE
  5
42C
330
1F
100
AcDbEntity
  8
0
100
AcDbLine
 10
76.33565259923792
 20
232.4246956314256
 30
0.0
 11
76.48010937032343
 21
232.7629358759186
 31
0.0
  0
LINE
  5
42D
330
1F
100
AcDbEntity
  8
0
100
AcDbLine
 10
78.89295384169208
 20
233.268374423087
 30
0.0
 11
79.13254068154124
 21
233.0499275985187
 31
0.0
  0
LINE
  5
42E
330
1F
100
AcDbEntity
  8
0
100
AcDbLine
 10
78.75073919343933
 20
232.7347491888775
 30
0.0
 11
78.5838611940257
 21
232.9073926470041
 31
0.0
  0
LINE
  5
42F
330
1F
100
AcDbEntity
  8
0
100
AcDbLine
 10
78.5838611940257
 20
232.9073926470041
 30
0.0
 11
78.38559347495271
 21
233.0307094028088
 31
0.0
  0
LINE
  5
430
330
1F
100
AcDbEntity
  8
0
100
AcDbLine
 10
77.53486801153103
 20
229.6258857295514
 30
0.0
 11
77.2055962583694
 21
229.7238985276714
 31
0.0
  0
LINE
  5
431
330
1F
100
AcDbEntity
  8
0
100
AcDbLine
 10
78.2728467267884
 20
233.5335855238826
 30
0.0
 11
78.6046809060447
 21
233.4317290866205
 31
0.0
  0
LINE
  5
432
330
1F
100
AcDbEntity
  8
0
100
AcDbLine
 10
78.88270413731354
 20
232.5175835773564
 30
0.0
 11
78.75073919343933
 21
232.7347491888775
 31
0.0
  0
LINE
  5
433
330
1F
100
AcDbEntity
  8
0
100
AcDbLine
 10
76.21649978583703
 20
231.5790950201933
 30
0.0
 11
76.2462879891872
 21
232.0313632258979
 31
0.0
  0
LINE
  5
434
330
1F
100
AcDbEntity
  8
0
100
AcDbLine
 10
78.38559347495271
 20
233.0307094028088
 30
0.0
 11
78.15849846231487
 21
233.1046994562916
 31
0.0
  0
LINE
  5
435
330
1F
100
AcDbEntity
  8
0
100
AcDbLine
 10
76.67517405677819
 20
233.0499275985187
 30
0.0
 11
76.9182842325075
 21
233.2731789720144
 31
0.0
  0
LINE
  5
436
330
1F
100
AcDbEntity
  8
0
100
AcDbLine
 10
79.13254068154124
 20
230.1133872940572
 30
0.0
 11
78.87982140795702
 21
229.8818080357538
 31
0.0
  0
LINE
  5
437
330
1F
100
AcDbEntity
  8
0
100
AcDbLine
 10
77.90257615611242
 20
229.5932147968446
 30
0.0
 11
77.53486801153103
 21
229.6258857295514
 31
0.0
  0
LINE
  5
438
330
1F
100
AcDbEntity
  8
0
100
AcDbLine
 10
76.9182842325075
 20
233.2731789720144
 30
0.0
 11
77.20687747141669
 21
233.4355727257625
 31
0.0
  0
LINE
  5
439
330
1F
100
AcDbEntity
  8
0
100
AcDbLine
 10
77.05953797097469
 20
230.4298469167457
 30
0.0
 11
77.23057991279211
 21
230.2555218664945
 31
0.0
  0
LINE
  5
43A
330
1F
100
AcDbEntity
  8
0
100
AcDbLine
 10
77.23057991279211
 20
230.2555218664945
 30
0.0
 11
77.42852732860337
 21
230.1310039734579
 31
0.0
  0
LINE
  5
43B
330
1F
100
AcDbEntity
  8
0
100
AcDbLine
 10
77.42852732860337
 20
230.1310039734579
 30
0.0
 11
77.65338021840836
 21
230.0562932376359
 31
0.0
  0
LINE
  5
43C
330
1F
100
AcDbEntity
  8
0
100
AcDbLine
 10
77.65338021840836
 20
230.0562932376359
 30
0.0
 11
77.905138582207
 21
230.0313896590287
 31
0.0
  0
LINE
  5
43D
330
1F
100
AcDbEntity
  8
0
100
AcDbLine
 10
78.15681687019031
 20
230.0562932376359
 30
0.0
 11
78.38142953254892
 21
230.1310039734579
 31
0.0
  0
LINE
  5
43E
330
1F
100
AcDbEntity
  8
0
100
AcDbLine
 10
78.38142953254892
 20
230.1310039734579
 30
0.0
 11
78.57897656928283
 21
230.2555218664945
 31
0.0
  0
LINE
  5
43F
330
1F
100
AcDbEntity
  8
0
100
AcDbLine
 10
78.57897656928283
 20
230.2555218664945
 30
0.0
 11
78.74945798039204
 21
230.4298469167457
 31
0.0
  0
LINE
  5
440
330
1F
100
AcDbEntity
  8
0
100
AcDbLine
 10
78.74945798039204
 20
230.4298469167457
 30
0.0
 11
78.88678800390181
 21
230.6510963948551
 31
0.0
  0
LINE
  5
441
330
1F
100
AcDbEntity
  8
0
100
AcDbLine
 10
78.88678800390181
 20
230.6510963948551
 30
0.0
 11
78.9848808778374
 21
230.9163875714661
 31
0.0
  0
LINE
  5
442
330
1F
100
AcDbEntity
  8
0
100
AcDbLine
 10
78.9848808778374
 20
230.9163875714661
 30
0.0
 11
79.04373660219872
 21
231.2257204465789
 31
0.0
  0
LINE
  5
443
330
1F
100
AcDbEntity
  8
0
100
AcDbLine
 10
79.04373660219872
 20
231.2257204465789
 30
0.0
 11
79.06335517698585
 21
231.5790950201933
 31
0.0
  0
LINE
  5
444
330
1F
100
AcDbEntity
  8
0
100
AcDbLine
 10
80.14726141502005
 20
229.6726500057785
 30
0.0
 11
80.14726141502005
 21
233.4881024607026
 31
0.0
  0
LINE
  5
445
330
1F
100
AcDbEntity
  8
0
100
AcDbLine
 10
80.14726141502005
 20
233.4881024607026
 30
0.0
 11
80.86730314761483
 21
233.4881024607026
 31
0.0
  0
LINE
  5
446
330
1F
100
AcDbEntity
  8
0
100
AcDbLine
 10
80.86730314761483
 20
233.4881024607026
 30
0.0
 11
82.40219637830631
 21
230.4670020951181
 31
0.0
  0
LINE
  5
447
330
1F
100
AcDbEntity
  8
0
100
AcDbLine
 10
82.87624520581537
 20
229.6726500057785
 30
0.0
 11
82.30738661280448
 21
229.6726500057785
 31
0.0
  0
LINE
  5
448
330
1F
100
AcDbEntity
  8
0
100
AcDbLine
 10
82.30738661280448
 20
229.6726500057785
 30
0.0
 11
80.6213102425291
 21
232.9628051113008
 31
0.0
  0
LINE
  5
449
330
1F
100
AcDbEntity
  8
0
100
AcDbLine
 10
80.6213102425291
 20
232.9628051113008
 30
0.0
 11
80.6213102425291
 21
229.6726500057785
 31
0.0
  0
LINE
  5
44A
330
1F
100
AcDbEntity
  8
0
100
AcDbLine
 10
80.6213102425291
 20
229.6726500057785
 30
0.0
 11
80.14726141502005
 21
229.6726500057785
 31
0.0
  0
LINE
  5
44B
330
1F
100
AcDbEntity
  8
0
100
AcDbLine
 10
82.40219637830631
 20
230.4670020951181
 30
0.0
 11
82.40219637830631
 21
233.4881024607026
 31
0.0
  0
LINE
  5
44C
330
1F
100
AcDbEntity
  8
0
100
AcDbLine
 10
82.40219637830631
 20
233.4881024607026
 30
0.0
 11
82.87624520581537
 21
233.4881024607026
 31
0.0
  0
LINE
  5
44D
330
1F
100
AcDbEntity
  8
0
100
AcDbLine
 10
82.87624520581537
 20
233.4881024607026
 30
0.0
 11
82.87624520581537
 21
229.6726500057785
 31
0.0
  0
LINE
  5
44E
330
1F
100
AcDbEntity
  8
0
100
AcDbLine
 10
77.905138582207
 20
230.0313896590287
 30
0.0
 11
77.90257615611242
 21
229.5932147968446
 31
0.0
  0
LINE
  5
44F
330
1F
100
AcDbEntity
  8
0
100
AcDbLine
 10
78.15681687019031
 20
230.0562932376359
 30
0.0
 11
78.26099550610064
 21
229.6249248197658
 31
0.0
  0
LINE
  5
450
330
1F
100
AcDbEntity
  8
0
100
AcDbLine
 10
77.53646952784024
 20
233.5345464336681
 30
0.0
 11
77.64601324338624
 21
233.1053400628153
 31
0.0
  0
LINE
  5
451
330
1F
100
AcDbEntity
  8
0
100
AcDbLine
 10
78.08771144145045
 20
233.5505615967596
 30
0.0
 11
78.2728467267884
 21
233.5335855238826
 31
0.0
  0
LINE
  5
452
330
1F
100
AcDbEntity
  8
0
100
AcDbLine
 10
78.08771144145045
 20
233.5505615967596
 30
0.0
 11
77.905138582207
 21
233.1293628074526
 31
0.0
  0
LINE
  5
453
330
1F
100
AcDbEntity
  8
0
100
AcDbLine
 10
58.21545647096677
 20
231.1896062538075
 30
0.0
 11
57.99252540073281
 21
231.1896062538075
 31
0.0
  0
LINE
  5
454
330
1F
100
AcDbEntity
  8
0
100
AcDbLine
 10
58.21545647096677
 20
231.6124065594237
 30
0.0
 11
58.21545647096677
 21
231.1896062538075
 31
0.0
  0
LINE
  5
455
330
1F
100
AcDbEntity
  8
0
100
AcDbLine
 10
58.43838754120073
 20
231.6124065594237
 30
0.0
 11
58.43838754120073
 21
231.1896062538075
 31
0.0
  0
LINE
  5
456
330
1F
100
AcDbEntity
  8
0
100
AcDbLine
 10
58.2436431580079
 20
233.0524900246132
 30
0.0
 11
57.99252540073281
 21
233.0524900246132
 31
0.0
  0
LINE
  5
457
330
1F
100
AcDbEntity
  8
0
100
AcDbLine
 10
58.2436431580079
 20
233.0524900246132
 30
0.0
 11
58.2436431580079
 21
233.4881024607026
 31
0.0
  0
LINE
  5
458
330
1F
100
AcDbEntity
  8
0
100
AcDbLine
 10
58.4947609152829
 20
233.4864300147668
 30
0.0
 11
59.01877705163745
 21
233.4522284953777
 31
0.0
  0
LINE
  5
459
330
1F
100
AcDbEntity
  8
0
100
AcDbLine
 10
58.4947609152829
 20
233.0524900246132
 30
0.0
 11
58.4947609152829
 21
233.4864300147668
 31
0.0
  0
LINE
  5
45A
330
1F
100
AcDbEntity
  8
0
100
AcDbLine
 10
-178.1268437995622
 20
-191.4844059881541
 30
0.0
 11
-175.1268437995618
 21
-191.4844059881537
 31
0.0
  0
LINE
  5
45B
330
1F
100
AcDbEntity
  8
0
100
AcDbLine
 10
152.8731562004378
 20
-21.48440598815406
 30
0.0
 11
149.8731562004377
 21
-21.48440598815406
 31
0.0
  0
LINE
  5
45C
330
1F
100
AcDbEntity
  8
0
100
AcDbLine
 10
-29.25207634380261
 20
229.580341647004
 30
0.0
 11
-29.13987837233414
 21
229.9131360285111
 31
0.0
  0
LINE
  5
45D
330
1F
100
AcDbEntity
  8
0
100
AcDbLine
 10
-29.13987837233414
 20
229.9131360285111
 30
0.0
 11
-25.5973382534058
 21
240.420789887245
 31
0.0
  0
LINE
  5
45E
330
1F
100
AcDbEntity
  8
0
100
AcDbLine
 10
-27.79600539145338
 20
229.580341647004
 30
0.0
 11
-28.86768543684225
 21
229.580341647004
 31
0.0
  0
LINE
  5
45F
330
1F
100
AcDbEntity
  8
0
100
AcDbLine
 10
-28.86768543684225
 20
229.580341647004
 30
0.0
 11
-29.25207634380261
 21
229.580341647004
 31
0.0
  0
LINE
  5
460
330
1F
100
AcDbEntity
  8
0
100
AcDbLine
 10
-29.25207634380261
 20
229.580341647004
 30
0.0
 11
-30.75605340867028
 21
229.580341647004
 31
0.0
  0
LINE
  5
461
330
1F
100
AcDbEntity
  8
0
100
AcDbLine
 10
-32.7619851452816
 20
234.3416741207187
 30
0.0
 11
-29.13987837233414
 21
229.9131360285111
 31
0.0
  0
LINE
  5
462
330
1F
100
AcDbEntity
  8
0
100
AcDbLine
 10
-29.13987837233414
 20
229.9131360285111
 30
0.0
 11
-28.86768543684225
 21
229.580341647004
 31
0.0
  0
LINE
  5
463
330
1F
100
AcDbEntity
  8
0
100
AcDbLine
 10
-100.1268437995622
 20
26.51559401184576
 30
0.0
 11
-125.1268437995623
 21
26.51559401184576
 31
0.0
  0
LINE
  5
464
330
1F
100
AcDbEntity
  8
0
100
AcDbLine
 10
-50.12684379956239
 20
26.51559401184576
 30
0.0
 11
-75.12684379956212
 21
26.51559401184576
 31
0.0
  0
LINE
  5
465
330
1F
100
AcDbEntity
  8
0
100
AcDbLine
 10
49.87315620043778
 20
26.51559401184576
 30
0.0
 11
24.8731562004377
 21
26.51559401184576
 31
0.0
  0
LINE
  5
466
330
1F
100
AcDbEntity
  8
0
100
AcDbLine
 10
-0.1268437995622122
 20
26.51559401184576
 30
0.0
 11
-25.12684379956231
 21
26.51559401184576
 31
0.0
  0
LINE
  5
467
330
1F
100
AcDbEntity
  8
0
100
AcDbLine
 10
99.87315620043779
 20
26.51559401184576
 30
0.0
 11
74.87315620043769
 21
26.51559401184576
 31
0.0
  0
LINE
  5
468
330
1F
100
AcDbEntity
  8
0
100
AcDbLine
 10
127.3903393814851
 20
26.51559401184558
 30
0.0
 11
124.8731562004377
 21
26.51559401184576
 31
0.0
  0
LINE
  5
469
330
1F
100
AcDbEntity
  8
0
100
AcDbLine
 10
49.87315620043778
 20
-188.4844059881541
 30
0.0
 11
74.87315620043788
 21
-188.4844059881541
 31
0.0
  0
LINE
  5
46A
330
1F
100
AcDbEntity
  8
0
100
AcDbLine
 10
-75.12684379956212
 20
26.51559401184576
 30
0.0
 11
-100.1268437995622
 21
26.51559401184576
 31
0.0
  0
LINE
  5
46B
330
1F
100
AcDbEntity
  8
0
100
AcDbLine
 10
74.87315620043788
 20
-24.48440598815392
 30
0.0
 11
49.87315620043778
 21
-24.48440598815392
 31
0.0
  0
LINE
  5
46C
330
1F
100
AcDbEntity
  8
0
100
AcDbLine
 10
49.8731562004382
 20
-239.484405988154
 30
0.0
 11
74.87315620043817
 21
-239.484405988154
 31
0.0
  0
LINE
  5
46D
330
1F
100
AcDbEntity
  8
0
100
AcDbLine
 10
-100.1268437995622
 20
-188.4844059881541
 30
0.0
 11
-75.12684379956221
 21
-188.4844059881541
 31
0.0
  0
LINE
  5
46E
330
1F
100
AcDbEntity
  8
0
100
AcDbLine
 10
-178.1268437995622
 20
-174.4844059881542
 30
0.0
 11
-178.1268437995622
 21
-191.4844059881541
 31
0.0
  0
LINE
  5
46F
330
1F
100
AcDbEntity
  8
0
100
AcDbLine
 10
-223.1268437995628
 20
-188.4844059881543
 30
0.0
 11
-203.126843799563
 21
-188.484405988154
 31
0.0
  0
LINE
  5
470
330
1F
100
AcDbEntity
  8
0
100
AcDbLine
 10
152.8731562004378
 20
-38.48440598815399
 30
0.0
 11
152.8731562004378
 21
-21.48440598815406
 31
0.0
  0
LINE
  5
471
330
1F
100
AcDbEntity
  8
0
100
AcDbLine
 10
197.8731562004353
 20
-24.484405988156
 30
0.0
 11
177.8731562004357
 21
-24.48440598815618
 31
0.0
  0
LINE
  5
472
330
1F
100
AcDbEntity
  8
0
100
AcDbLine
 10
-7.741786328297933
 20
-79.54429274681614
 30
0.0
 11
-5.513178410034722
 21
-79.54429274681614
 31
0.0
  0
LINE
  5
473
330
1F
100
AcDbEntity
  8
0
100
AcDbLine
 10
-5.513178410034722
 20
-70.03599134196305
 30
0.0
 11
-7.741786328297933
 21
-70.03599134196305
 31
0.0
  0
LINE
  5
474
330
1F
100
AcDbEntity
  8
0
100
AcDbLine
 10
-29.05085401667577
 20
-75.76396069062208
 30
0.0
 11
-29.05085401667577
 21
-74.7103208438788
 31
0.0
  0
LINE
  5
475
330
1F
100
AcDbEntity
  8
0
100
AcDbLine
 10
-49.56046206555149
 20
230.8286077258866
 30
0.0
 11
-49.56046206555149
 21
229.5803416470037
 31
0.0
  0
LINE
  5
476
330
1F
100
AcDbEntity
  8
0
100
AcDbLine
 10
-50.66921605326504
 20
239.2654178708065
 30
0.0
 11
-50.66921605326504
 21
230.8286077258866
 31
0.0
  0
LINE
  5
477
330
1F
100
AcDbEntity
  8
0
100
AcDbLine
 10
-52.12307889808171
 20
229.5803416470037
 30
0.0
 11
-52.12307889808171
 21
240.5136839496893
 31
0.0
  0
LINE
  5
478
330
1F
100
AcDbEntity
  8
0
100
AcDbLine
 10
-49.56046206555149
 20
230.8286077258866
 30
0.0
 11
-50.66921605326504
 21
230.8286077258866
 31
0.0
  0
LINE
  5
479
330
1F
100
AcDbEntity
  8
0
100
AcDbLine
 10
-52.12307889808171
 20
229.5803416470037
 30
0.0
 11
-49.56046206555149
 21
229.5803416470037
 31
0.0
  0
LINE
  5
47A
330
1F
100
AcDbEntity
  8
0
100
AcDbLine
 10
-52.12307889808171
 20
240.5136839496893
 30
0.0
 11
-49.56046206555149
 21
240.5136839496893
 31
0.0
  0
LINE
  5
47B
330
1F
100
AcDbEntity
  8
0
100
AcDbLine
 10
-153.6096606185141
 20
246.5155940118461
 30
0.0
 11
127.3903393814857
 21
246.5155940118462
 31
0.0
  0
LINE
  5
47C
330
1F
100
AcDbEntity
  8
0
100
AcDbLine
 10
-153.609660618514
 20
26.5155940118454
 30
0.0
 11
-150.1268437995624
 21
26.51559401184576
 31
0.0
  0
LINE
  5
47D
330
1F
100
AcDbEntity
  8
0
100
AcDbLine
 10
0.4870156943217084
 20
233.930200943978
 30
0.0
 11
0.4870156943217084
 21
235.1425772683035
 31
0.0
  0
LINE
  5
47E
330
1F
100
AcDbEntity
  8
0
100
AcDbLine
 10
-35.05447855855164
 20
233.9302009439779
 30
0.0
 11
-35.05447855855164
 21
235.1425772683034
 31
0.0
  0
LINE
  5
47F
330
1F
100
AcDbEntity
  8
0
100
AcDbLine
 10
152.8731562004376
 20
-21.48440598815406
 30
0.0
 11
149.8731562004377
 21
-21.48440598815406
 31
0.0
  0
LINE
  5
480
330
1F
100
AcDbEntity
  8
0
100
AcDbLine
 10
-12.62684379956217
 20
-104.2844059881542
 30
0.0
 11
-12.62684379956217
 21
-106.4844059881541
 31
0.0
  0
LINE
  5
481
330
1F
100
AcDbEntity
  8
0
100
AcDbLine
 10
-12.62684379956208
 20
-125.5344059881541
 30
0.0
 11
-12.62684379956208
 21
-127.7344059881541
 31
0.0
  0
LINE
  5
482
330
1F
100
AcDbEntity
  8
0
100
AcDbLine
 10
-12.62684379956217
 20
-83.03440598815413
 30
0.0
 11
-12.62684379956217
 21
-85.2344059881541
 31
0.0
  0
LINE
  5
483
330
1F
100
AcDbEntity
  8
0
100
AcDbLine
 10
-20.2755454896511
 20
-101.0383196997649
 30
0.0
 11
-21.23765137786099
 21
-100.9845573190226
 31
0.0
  0
LINE
  5
484
330
1F
100
AcDbEntity
  8
0
100
AcDbLine
 10
-21.23765137786099
 20
-100.9845573190226
 30
0.0
 11
-22.04408708899605
 21
-100.8232701767956
 31
0.0
  0
LINE
  5
485
330
1F
100
AcDbEntity
  8
0
100
AcDbLine
 10
-22.04408708899605
 20
-100.8232701767956
 30
0.0
 11
-23.41462658612907
 21
-100.2936706053039
 31
0.0
  0
LINE
  5
486
330
1F
100
AcDbEntity
  8
0
100
AcDbLine
 10
-23.41462658612907
 20
-100.2936706053039
 30
0.0
 11
-23.41462658612907
 21
-98.70166219645616
 31
0.0
  0
LINE
  5
487
330
1F
100
AcDbEntity
  8
0
100
AcDbLine
 10
-23.32475514369412
 20
-98.70166219645616
 30
0.0
 11
-22.65392901980466
 21
-99.22564480279566
 31
0.0
  0
LINE
  5
488
330
1F
100
AcDbEntity
  8
0
100
AcDbLine
 10
-22.65392901980466
 20
-99.22564480279566
 30
0.0
 11
-21.89965084222559
 21
-99.61642509266906
 31
0.0
  0
LINE
  5
489
330
1F
100
AcDbEntity
  8
0
100
AcDbLine
 10
-21.89965084222559
 20
-99.61642509266906
 30
0.0
 11
-21.11809026247878
 21
-99.85955944139934
 31
0.0
  0
LINE
  5
48A
330
1F
100
AcDbEntity
  8
0
100
AcDbLine
 10
-21.11809026247878
 20
-99.85955944139934
 30
0.0
 11
-20.36541693208605
 21
-99.94060422430942
 31
0.0
  0
LINE
  5
48B
330
1F
100
AcDbEntity
  8
0
100
AcDbLine
 10
-20.36541693208605
 20
-99.94060422430942
 30
0.0
 11
-19.44102495275512
 21
-99.83067219204524
 31
0.0
  0
LINE
  5
48C
330
1F
100
AcDbEntity
  8
0
100
AcDbLine
 10
-19.44102495275512
 20
-99.83067219204524
 30
0.0
 11
-19.07511979426995
 21
-99.69325715171502
 31
0.0
  0
LINE
  5
48D
330
1F
100
AcDbEntity
  8
0
100
AcDbLine
 10
-19.07511979426995
 20
-99.69325715171502
 30
0.0
 11
-18.77340852323833
 21
-99.50087609525269
 31
0.0
  0
LINE
  5
48E
330
1F
100
AcDbEntity
  8
0
100
AcDbLine
 10
-18.77340852323833
 20
-99.50087609525269
 30
0.0
 11
-18.36898703228104
 21
-98.99133711359025
 31
0.0
  0
LINE
  5
48F
330
1F
100
AcDbEntity
  8
0
100
AcDbLine
 10
-18.36898703228104
 20
-98.99133711359025
 30
0.0
 11
-18.23417986862862
 21
-98.34217642671635
 31
0.0
  0
LINE
  5
490
330
1F
100
AcDbEntity
  8
0
100
AcDbLine
 10
-18.23417986862862
 20
-98.34217642671635
 30
0.0
 11
-18.3047931448275
 21
-97.82381078552903
 31
0.0
  0
LINE
  5
491
330
1F
100
AcDbEntity
  8
0
100
AcDbLine
 10
-18.3047931448275
 20
-97.82381078552903
 30
0.0
 11
-18.51663297342418
 21
-97.41136505864006
 31
0.0
  0
LINE
  5
492
330
1F
100
AcDbEntity
  8
0
100
AcDbLine
 10
-18.51663297342418
 20
-97.41136505864006
 30
0.0
 11
-18.88253813190934
 21
-97.09841985730407
 31
0.0
  0
LINE
  5
493
330
1F
100
AcDbEntity
  8
0
100
AcDbLine
 10
-18.88253813190934
 20
-97.09841985730407
 30
0.0
 11
-19.4153473977737
 21
-96.8785557927757
 31
0.0
  0
LINE
  5
494
330
1F
100
AcDbEntity
  8
0
100
AcDbLine
 10
-19.4153473977737
 20
-96.8785557927757
 30
0.0
 11
-20.22419037968827
 21
-96.66671596417902
 31
0.0
  0
LINE
  5
495
330
1F
100
AcDbEntity
  8
0
100
AcDbLine
 10
-20.22419037968827
 20
-96.66671596417902
 30
0.0
 11
-21.14216297027385
 21
-96.44203735809164
 31
0.0
  0
LINE
  5
496
330
1F
100
AcDbEntity
  8
0
100
AcDbLine
 10
-21.14216297027385
 20
-96.44203735809164
 30
0.0
 11
-22.02803861713267
 21
-96.1146485320786
 31
0.0
  0
LINE
  5
497
330
1F
100
AcDbEntity
  8
0
100
AcDbLine
 10
-22.02803861713267
 20
-96.1146485320786
 30
0.0
 11
-22.39715346999051
 21
-95.88515538443221
 31
0.0
  0
LINE
  5
498
330
1F
100
AcDbEntity
  8
0
100
AcDbLine
 10
-22.39715346999051
 20
-95.88515538443221
 30
0.0
 11
-22.72133260163087
 21
-95.59467804370496
 31
0.0
  0
LINE
  5
499
330
1F
100
AcDbEntity
  8
0
100
AcDbLine
 10
-22.72133260163087
 20
-95.59467804370496
 30
0.0
 11
-22.9837251165972
 21
-95.2520431694217
 31
0.0
  0
LINE
  5
49A
330
1F
100
AcDbEntity
  8
0
100
AcDbLine
 10
-22.9837251165972
 20
-95.2520431694217
 30
0.0
 11
-23.18031889692366
 21
-94.85323864361659
 31
0.0
  0
LINE
  5
49B
330
1F
100
AcDbEntity
  8
0
100
AcDbLine
 10
-23.18031889692366
 20
-94.85323864361659
 30
0.0
 11
-23.30308970667855
 21
-94.39344992473063
 31
0.0
  0
LINE
  5
49C
330
1F
100
AcDbEntity
  8
0
100
AcDbLine
 10
-23.30308970667855
 20
-94.39344992473063
 30
0.0
 11
-23.34401330993018
 21
-93.8678624712048
 31
0.0
  0
LINE
  5
49D
330
1F
100
AcDbEntity
  8
0
100
AcDbLine
 10
-23.34401330993018
 20
-93.8678624712048
 30
0.0
 11
-23.28744244661175
 21
-93.31037867985049
 31
0.0
  0
LINE
  5
49E
330
1F
100
AcDbEntity
  8
0
100
AcDbLine
 10
-23.28744244661175
 20
-93.31037867985049
 30
0.0
 11
-23.11772985665646
 21
-92.79983666869657
 31
0.0
  0
LINE
  5
49F
330
1F
100
AcDbEntity
  8
0
100
AcDbLine
 10
-23.11772985665646
 20
-92.79983666869657
 30
0.0
 11
-22.83487554006431
 21
-92.33623643774305
 31
0.0
  0
LINE
  5
4A0
330
1F
100
AcDbEntity
  8
0
100
AcDbLine
 10
-22.83487554006431
 20
-92.33623643774305
 30
0.0
 11
-22.43887949683531
 21
-91.91957798698994
 31
0.0
  0
LINE
  5
4A1
330
1F
100
AcDbEntity
  8
0
100
AcDbLine
 10
-22.43887949683531
 20
-91.91957798698994
 30
0.0
 11
-21.95501807015427
 21
-91.57553887141864
 31
0.0
  0
LINE
  5
4A2
330
1F
100
AcDbEntity
  8
0
100
AcDbLine
 10
-21.95501807015427
 20
-91.57553887141864
 30
0.0
 11
-21.40856760320603
 21
-91.32979664601058
 31
0.0
  0
LINE
  5
4A3
330
1F
100
AcDbEntity
  8
0
100
AcDbLine
 10
-21.40856760320603
 20
-91.32979664601058
 30
0.0
 11
-20.7995280959906
 21
-91.18235131076572
 31
0.0
  0
LINE
  5
4A4
330
1F
100
AcDbEntity
  8
0
100
AcDbLine
 10
-20.7995280959906
 20
-91.18235131076572
 30
0.0
 11
-20.12789954850797
 21
-91.13320286568411
 31
0.0
  0
LINE
  5
4A5
330
1F
100
AcDbEntity
  8
0
100
AcDbLine
 10
-20.12789954850797
 20
-91.13320286568411
 30
0.0
 11
-19.34714139235432
 21
-91.17332404534257
 31
0.0
  0
LINE
  5
4A6
330
1F
100
AcDbEntity
  8
0
100
AcDbLine
 10
-19.34714139235432
 20
-91.17332404534257
 30
0.0
 11
-18.60971411023181
 21
-91.29368758431795
 31
0.0
  0
LINE
  5
4A7
330
1F
100
AcDbEntity
  8
0
100
AcDbLine
 10
-18.60971411023181
 20
-91.29368758431795
 30
0.0
 11
-17.92043224369945
 21
-91.4878740938649
 31
0.0
  0
LINE
  5
4A8
330
1F
100
AcDbEntity
  8
0
100
AcDbLine
 10
-17.92043224369945
 20
-91.4878740938649
 30
0.0
 11
-17.28411033431626
 21
-91.74946418523807
 31
0.0
  0
LINE
  5
4A9
330
1F
100
AcDbEntity
  8
0
100
AcDbLine
 10
-17.28411033431626
 20
-91.74946418523807
 30
0.0
 11
-17.28411033431626
 21
-93.2708593178869
 31
0.0
  0
LINE
  5
4AA
330
1F
100
AcDbEntity
  8
0
100
AcDbLine
 10
-17.38040116549657
 20
-93.2708593178869
 30
0.0
 11
-17.90037165387022
 21
-92.8800790280135
 31
0.0
  0
LINE
  5
4AB
330
1F
100
AcDbEntity
  8
0
100
AcDbLine
 10
-17.90037165387022
 20
-92.8800790280135
 30
0.0
 11
-18.54872991715095
 21
-92.54225869528926
 31
0.0
  0
LINE
  5
4AC
330
1F
100
AcDbEntity
  8
0
100
AcDbLine
 10
-18.54872991715095
 20
-92.54225869528926
 30
0.0
 11
-19.27893538693493
 21
-92.30875342967701
 31
0.0
  0
LINE
  5
4AD
330
1F
100
AcDbEntity
  8
0
100
AcDbLine
 10
-19.27893538693493
 20
-92.30875342967701
 30
0.0
 11
-20.04444749481836
 21
-92.2309183411396
 31
0.0
  0
LINE
  5
4AE
330
1F
100
AcDbEntity
  8
0
100
AcDbLine
 10
-20.04444749481836
 20
-92.2309183411396
 30
0.0
 11
-20.84526624080124
 21
-92.33443098465844
 31
0.0
  0
LINE
  5
4AF
330
1F
100
AcDbEntity
  8
0
100
AcDbLine
 10
-20.84526624080124
 20
-92.33443098465844
 30
0.0
 11
-21.47597118503225
 21
-92.64496891521492
 31
0.0
  0
LINE
  5
4B0
330
1F
100
AcDbEntity
  8
0
100
AcDbLine
 10
-21.47597118503225
 20
-92.64496891521492
 30
0.0
 11
-21.88520721754855
 21
-93.12401580033693
 31
0.0
  0
LINE
  5
4B1
330
1F
100
AcDbEntity
  8
0
100
AcDbLine
 10
-21.88520721754855
 20
-93.12401580033693
 30
0.0
 11
-22.02161922838732
 21
-93.73305530755236
 31
0.0
  0
LINE
  5
4B2
330
1F
100
AcDbEntity
  8
0
100
AcDbLine
 10
-22.02161922838732
 20
-93.73305530755236
 30
0.0
 11
-21.94137686907039
 21
-94.28030819809378
 31
0.0
  0
LINE
  5
4B3
330
1F
100
AcDbEntity
  8
0
100
AcDbLine
 10
-21.94137686907039
 20
-94.28030819809378
 30
0.0
 11
-21.70064979111963
 21
-94.7023830081008
 31
0.0
  0
LINE
  5
4B4
330
1F
100
AcDbEntity
  8
0
100
AcDbLine
 10
-21.70064979111963
 20
-94.7023830081008
 30
0.0
 11
-21.30746223046671
 21
-95.01372336225045
 31
0.0
  0
LINE
  5
4B5
330
1F
100
AcDbEntity
  8
0
100
AcDbLine
 10
-21.30746223046671
 20
-95.01372336225045
 30
0.0
 11
-20.76983842304334
 21
-95.22877288521978
 31
0.0
  0
LINE
  5
4B6
330
1F
100
AcDbEntity
  8
0
100
AcDbLine
 10
-20.76983842304334
 20
-95.22877288521978
 30
0.0
 11
-19.78125255625886
 21
-95.4759193519159
 31
0.0
  0
LINE
  5
4B7
330
1F
100
AcDbEntity
  8
0
100
AcDbLine
 10
-19.78125255625886
 20
-95.4759193519159
 30
0.0
 11
-18.81192485571045
 21
-95.72948520735738
 31
0.0
  0
LINE
  5
4B8
330
1F
100
AcDbEntity
  8
0
100
AcDbLine
 10
-18.81192485571045
 20
-95.72948520735738
 30
0.0
 11
-17.95654130539207
 21
-96.10822914333326
 31
0.0
  0
LINE
  5
4B9
330
1F
100
AcDbEntity
  8
0
100
AcDbLine
 10
-17.95654130539207
 20
-96.10822914333326
 30
0.0
 11
-17.36756238800586
 21
-96.6410384091976
 31
0.0
  0
LINE
  5
4BA
330
1F
100
AcDbEntity
  8
0
100
AcDbLine
 10
-17.36756238800586
 20
-96.6410384091976
 30
0.0
 11
-17.02572993731577
 21
-97.3214936162051
 31
0.0
  0
LINE
  5
4BB
330
1F
100
AcDbEntity
  8
0
100
AcDbLine
 10
-17.02572993731577
 20
-97.3214936162051
 30
0.0
 11
-16.91178578708574
 21
-98.14317537561038
 31
0.0
  0
LINE
  5
4BC
330
1F
100
AcDbEntity
  8
0
100
AcDbLine
 10
-16.91178578708574
 20
-98.14317537561038
 30
0.0
 11
-16.96875786220076
 21
-98.69845250208347
 31
0.0
  0
LINE
  5
4BD
330
1F
100
AcDbEntity
  8
0
100
AcDbLine
 10
-16.96875786220076
 20
-98.69845250208347
 30
0.0
 11
-17.1396740875458
 21
-99.24731023981123
 31
0.0
  0
LINE
  5
4BE
330
1F
100
AcDbEntity
  8
0
100
AcDbLine
 10
-17.1396740875458
 20
-99.24731023981123
 30
0.0
 11
-17.41330053281651
 21
-99.75123225632149
 31
0.0
  0
LINE
  5
4BF
330
1F
100
AcDbEntity
  8
0
100
AcDbLine
 10
-17.41330053281651
 20
-99.75123225632149
 30
0.0
 11
-17.7784032677085
 21
-100.1717022191422
 31
0.0
  0
LINE
  5
4C0
330
1F
100
AcDbEntity
  8
0
100
AcDbLine
 10
-17.7784032677085
 20
-100.1717022191422
 30
0.0
 11
-18.27028893032123
 21
-100.540817072
 31
0.0
  0
LINE
  5
4C1
330
1F
100
AcDbEntity
  8
0
100
AcDbLine
 10
-18.27028893032123
 20
-100.540817072
 30
0.0
 11
-18.82155393882848
 21
-100.8136410936775
 31
0.0
  0
LINE
  5
4C2
330
1F
100
AcDbEntity
  8
0
100
AcDbLine
 10
-18.82155393882848
 20
-100.8136410936775
 30
0.0
 11
-19.47552916726139
 21
-100.9821500482431
 31
0.0
  0
LINE
  5
4C3
330
1F
100
AcDbEntity
  8
0
100
AcDbLine
 10
-19.47552916726139
 20
-100.9821500482431
 30
0.0
 11
-20.2755454896511
 21
-101.0383196997649
 31
0.0
  0
LINE
  5
4C4
330
1F
100
AcDbEntity
  8
0
100
AcDbLine
 10
184.3731562004377
 20
-165.9832171556125
 30
0.0
 11
165.3731562004375
 21
-165.9832171556123
 31
0.0
  0
LINE
  5
4C5
330
1F
100
AcDbEntity
  8
0
100
AcDbLine
 10
184.3731562004379
 20
-177.9832171556122
 30
0.0
 11
165.3731562004384
 21
-177.9832171556126
 31
0.0
  0
LINE
  5
4C6
330
1F
100
AcDbEntity
  8
0
100
AcDbLine
 10
165.3731562004384
 20
-177.9832171556126
 30
0.0
 11
165.3731562004375
 21
-165.9832171556123
 31
0.0
  0
LINE
  5
4C7
330
1F
100
AcDbEntity
  8
0
100
AcDbLine
 10
184.3731562004377
 20
-165.9832171556125
 30
0.0
 11
184.3731562004379
 21
-177.9832171556122
 31
0.0
  0
LINE
  5
4C8
330
1F
100
AcDbEntity
  8
0
100
AcDbLine
 10
-188.6268437995622
 20
-165.9832171556125
 30
0.0
 11
-207.6268437995624
 21
-165.9832171556123
 31
0.0
  0
LINE
  5
4C9
330
1F
100
AcDbEntity
  8
0
100
AcDbLine
 10
-207.6268437995615
 20
-177.9832171556126
 30
0.0
 11
-207.6268437995624
 21
-165.9832171556123
 31
0.0
  0
LINE
  5
4CA
330
1F
100
AcDbEntity
  8
0
100
AcDbLine
 10
-188.6268437995622
 20
-165.9832171556125
 30
0.0
 11
-188.6268437995621
 21
-177.9832171556122
 31
0.0
  0
LINE
  5
4CB
330
1F
100
AcDbEntity
  8
0
100
AcDbLine
 10
-188.6268437995621
 20
-177.9832171556122
 30
0.0
 11
-207.6268437995615
 21
-177.9832171556126
 31
0.0
  0
LINE
  5
4CC
330
1F
100
AcDbEntity
  8
0
100
AcDbLine
 10
132.0073232868834
 20
-233.4844059881542
 30
0.0
 11
123.0073232868805
 21
-233.4844059881544
 31
0.0
  0
LINE
  5
4CD
330
1F
100
AcDbEntity
  8
0
100
AcDbLine
 10
91.50732328688463
 20
-222.0844059881431
 30
0.0
 11
103.9073232868852
 21
-222.084405988146
 31
0.0
  0
LINE
  5
4CE
330
1F
100
AcDbEntity
  8
0
100
AcDbLine
 10
132.0073232868832
 20
-222.0844059881489
 30
0.0
 11
132.0073232868834
 21
-233.4844059881542
 31
0.0
  0
LINE
  5
4CF
330
1F
100
AcDbEntity
  8
0
100
AcDbLine
 10
123.0073232868832
 20
-222.0844059881459
 30
0.0
 11
132.0073232868832
 21
-222.0844059881489
 31
0.0
  0
LINE
  5
4D0
330
1F
100
AcDbEntity
  8
0
100
AcDbLine
 10
103.9073232868852
 20
-222.084405988146
 30
0.0
 11
103.9073232868809
 21
-233.4844059881547
 31
0.0
  0
LINE
  5
4D1
330
1F
100
AcDbEntity
  8
0
100
AcDbLine
 10
91.50732328688338
 20
-233.4844059881544
 30
0.0
 11
91.50732328688463
 21
-222.0844059881431
 31
0.0
  0
LINE
  5
4D2
330
1F
100
AcDbEntity
  8
0
100
AcDbLine
 10
103.9073232868809
 20
-233.4844059881547
 30
0.0
 11
91.50732328688338
 21
-233.4844059881544
 31
0.0
  0
LINE
  5
4D3
330
1F
100
AcDbEntity
  8
0
100
AcDbLine
 10
123.0073232868805
 20
-233.4844059881544
 30
0.0
 11
123.0073232868832
 21
-222.0844059881459
 31
0.0
  0
LINE
  5
4D4
330
1F
100
AcDbEntity
  8
0
100
AcDbLine
 10
-18.70097105958118
 20
-114.3760113417131
 30
0.0
 11
-19.06484897305495
 21
-114.9264379860298
 31
0.0
  0
LINE
  5
4D5
330
1F
100
AcDbEntity
  8
0
100
AcDbLine
 10
-16.66403938652883
 20
-118.1925119802827
 30
0.0
 11
-16.66403938652883
 21
-117.1002897580605
 31
0.0
  0
LINE
  5
4D6
330
1F
100
AcDbEntity
  8
0
100
AcDbLine
 10
-14.50470349891704
 20
-118.1925119802827
 30
0.0
 11
-16.66403938652883
 21
-118.1925119802827
 31
0.0
  0
LINE
  5
4D7
330
1F
100
AcDbEntity
  8
0
100
AcDbLine
 10
-18.25274408799754
 20
-113.9311191003337
 30
0.0
 11
-18.70097105958118
 21
-114.3760113417131
 31
0.0
  0
LINE
  5
4D8
330
1F
100
AcDbEntity
  8
0
100
AcDbLine
 10
-20.74653379904481
 20
-116.0480842982903
 30
0.0
 11
-20.50878715153518
 21
-115.094743781049
 31
0.0
  0
LINE
  5
4D9
330
1F
100
AcDbEntity
  8
0
100
AcDbLine
 10
-19.04464443122866
 20
-119.3757527210234
 30
0.0
 11
-18.67900107235258
 21
-119.9187252625305
 31
0.0
  0
LINE
  5
4DA
330
1F
100
AcDbEntity
  8
0
100
AcDbLine
 10
-16.4317852358264
 20
-120.9105132574219
 30
0.0
 11
-15.38350298806141
 21
-120.8351875869238
 31
0.0
  0
LINE
  5
4DB
330
1F
100
AcDbEntity
  8
0
100
AcDbLine
 10
-16.66403938652883
 20
-117.1002897580605
 30
0.0
 11
-13.27438421411499
 21
-117.1002897580605
 31
0.0
  0
LINE
  5
4DC
330
1F
100
AcDbEntity
  8
0
100
AcDbLine
 10
-13.27438421411499
 20
-117.1002897580605
 30
0.0
 11
-13.27438421411499
 21
-121.1804302433734
 31
0.0
  0
LINE
  5
4DD
330
1F
100
AcDbEntity
  8
0
100
AcDbLine
 10
-20.74731844144579
 20
-118.2427290939481
 30
0.0
 11
-20.82578268154793
 21
-117.119121175685
 31
0.0
  0
LINE
  5
4DE
330
1F
100
AcDbEntity
  8
0
100
AcDbLine
 10
-13.27438421411499
 20
-121.1804302433734
 30
0.0
 11
-13.91151384374466
 21
-121.4503472293248
 31
0.0
  0
LINE
  5
4DF
330
1F
100
AcDbEntity
  8
0
100
AcDbLine
 10
-17.33098542739722
 20
-121.9085783915215
 30
0.0
 11
-18.1956613533232
 21
-121.6826013800273
 31
0.0
  0
LINE
  5
4E0
330
1F
100
AcDbEntity
  8
0
100
AcDbLine
 10
-18.23567811577534
 20
-120.3447860862852
 30
0.0
 11
-17.70918306468973
 21
-120.6562891194909
 31
0.0
  0
LINE
  5
4E1
330
1F
100
AcDbEntity
  8
0
100
AcDbLine
 10
-13.93662240057735
 20
-112.8035879700655
 30
0.0
 11
-13.31204704936402
 21
-113.0891978040375
 31
0.0
  0
LINE
  5
4E2
330
1F
100
AcDbEntity
  8
0
100
AcDbLine
 10
-17.70918306468973
 20
-120.6562891194909
 30
0.0
 11
-17.10579305830403
 21
-120.8469572229391
 31
0.0
  0
LINE
  5
4E3
330
1F
100
AcDbEntity
  8
0
100
AcDbLine
 10
-13.91151384374466
 20
-121.4503472293248
 30
0.0
 11
-14.65535483991325
 21
-121.7077099368599
 31
0.0
  0
LINE
  5
4E4
330
1F
100
AcDbEntity
  8
0
100
AcDbLine
 10
-20.12902022944072
 20
-120.0709458883286
 30
0.0
 11
-20.51192572113927
 21
-119.2282399496313
 31
0.0
  0
LINE
  5
4E5
330
1F
100
AcDbEntity
  8
0
100
AcDbLine
 10
-15.46510579776763
 20
-112.3547725166812
 30
0.0
 11
-14.63652342228873
 21
-112.5430866929263
 31
0.0
  0
LINE
  5
4E6
330
1F
100
AcDbEntity
  8
0
100
AcDbLine
 10
-15.46510579776763
 20
-113.4846575741524
 30
0.0
 11
-16.51966518474079
 21
-113.359114789989
 31
0.0
  0
LINE
  5
4E7
330
1F
100
AcDbEntity
  8
0
100
AcDbLine
 10
-19.60801767516231
 20
-120.7661390556339
 30
0.0
 11
-20.12902022944072
 21
-120.0709458883286
 31
0.0
  0
LINE
  5
4E8
330
1F
100
AcDbEntity
  8
0
100
AcDbLine
 10
-20.51192572113927
 20
-119.2282399496313
 30
0.0
 11
-20.74731844144579
 21
-118.2427290939481
 31
0.0
  0
LINE
  5
4E9
330
1F
100
AcDbEntity
  8
0
100
AcDbLine
 10
-13.89895956532832
 20
-114.1971128742801
 30
0.0
 11
-14.5988605870397
 21
-113.7985145345611
 31
0.0
  0
LINE
  5
4EA
330
1F
100
AcDbEntity
  8
0
100
AcDbLine
 10
-19.47776703659267
 20
-117.9633963991843
 30
0.0
 11
-19.31299213237807
 21
-118.7260688129774
 31
0.0
  0
LINE
  5
4EB
330
1F
100
AcDbEntity
  8
0
100
AcDbLine
 10
-18.1956613533232
 20
-121.6826013800273
 30
0.0
 11
-18.95990305191834
 21
-121.3028344579327
 31
0.0
  0
LINE
  5
4EC
330
1F
100
AcDbEntity
  8
0
100
AcDbLine
 10
-19.31299213237807
 20
-118.7260688129774
 30
0.0
 11
-19.04464443122866
 21
-119.3757527210234
 31
0.0
  0
LINE
  5
4ED
330
1F
100
AcDbEntity
  8
0
100
AcDbLine
 10
-17.10579305830403
 20
-120.8469572229391
 30
0.0
 11
-16.4317852358264
 21
-120.9105132574219
 31
0.0
  0
LINE
  5
4EE
330
1F
100
AcDbEntity
  8
0
100
AcDbLine
 10
-18.67900107235258
 20
-119.9187252625305
 30
0.0
 11
-18.23567811577534
 21
-120.3447860862852
 31
0.0
  0
LINE
  5
4EF
330
1F
100
AcDbEntity
  8
0
100
AcDbLine
 10
-16.38156812216102
 20
-121.9839040620196
 30
0.0
 11
-17.33098542739722
 21
-121.9085783915215
 31
0.0
  0
LINE
  5
4F0
330
1F
100
AcDbEntity
  8
0
100
AcDbLine
 10
-18.96461090632447
 20
-113.0217185575496
 30
0.0
 11
-18.1956613533232
 21
-112.6184123634245
 31
0.0
  0
LINE
  5
4F1
330
1F
100
AcDbEntity
  8
0
100
AcDbLine
 10
-20.50878715153518
 20
-115.094743781049
 30
0.0
 11
-20.12352773263353
 21
-114.265376763169
 31
0.0
  0
LINE
  5
4F2
330
1F
100
AcDbEntity
  8
0
100
AcDbLine
 10
-17.32156971858497
 20
-112.3688960798996
 30
0.0
 11
-16.36901384374468
 21
-112.2857239853912
 31
0.0
  0
LINE
  5
4F3
330
1F
100
AcDbEntity
  8
0
100
AcDbLine
 10
-13.41875841590302
 20
-114.589434074791
 30
0.0
 11
-13.89895956532832
 21
-114.1971128742801
 31
0.0
  0
LINE
  5
4F4
330
1F
100
AcDbEntity
  8
0
100
AcDbLine
 10
-16.51966518474079
 20
-113.359114789989
 30
0.0
 11
-17.1620911505773
 21
-113.4226708244717
 31
0.0
  0
LINE
  5
4F5
330
1F
100
AcDbEntity
  8
0
100
AcDbLine
 10
-17.1620911505773
 20
-113.4226708244717
 30
0.0
 11
-17.73978411832961
 21
-113.61333892792
 31
0.0
  0
LINE
  5
4F6
330
1F
100
AcDbEntity
  8
0
100
AcDbLine
 10
-19.48070944559649
 20
-116.2791614853912
 30
0.0
 11
-19.53269200466417
 21
-117.0814583404359
 31
0.0
  0
LINE
  5
4F7
330
1F
100
AcDbEntity
  8
0
100
AcDbLine
 10
-19.53269200466417
 20
-117.0814583404359
 30
0.0
 11
-19.47776703659267
 21
-117.9633963991843
 31
0.0
  0
LINE
  5
4F8
330
1F
100
AcDbEntity
  8
0
100
AcDbLine
 10
-14.63652342228873
 20
-112.5430866929263
 30
0.0
 11
-13.93662240057735
 21
-112.8035879700655
 31
0.0
  0
LINE
  5
4F9
330
1F
100
AcDbEntity
  8
0
100
AcDbLine
 10
-20.12352773263353
 20
-114.265376763169
 30
0.0
 11
-19.60174053595405
 21
-113.5662603838586
 31
0.0
  0
LINE
  5
4FA
330
1F
100
AcDbEntity
  8
0
100
AcDbLine
 10
-19.06484897305495
 20
-114.9264379860298
 30
0.0
 11
-19.32476176839344
 21
-115.5608213672558
 31
0.0
  0
LINE
  5
4FB
330
1F
100
AcDbEntity
  8
0
100
AcDbLine
 10
-18.95990305191834
 20
-121.3028344579327
 30
0.0
 11
-19.60801767516231
 21
-120.7661390556339
 31
0.0
  0
LINE
  5
4FC
330
1F
100
AcDbEntity
  8
0
100
AcDbLine
 10
-20.82578268154793
 20
-117.119121175685
 30
0.0
 11
-20.74653379904481
 21
-116.0480842982903
 31
0.0
  0
LINE
  5
4FD
330
1F
100
AcDbEntity
  8
0
100
AcDbLine
 10
-16.36901384374468
 20
-112.2857239853912
 30
0.0
 11
-15.46510579776763
 21
-112.3547725166812
 31
0.0
  0
LINE
  5
4FE
330
1F
100
AcDbEntity
  8
0
100
AcDbLine
 10
-13.31204704936402
 20
-113.0891978040375
 30
0.0
 11
-13.31204704936402
 21
-114.589434074791
 31
0.0
  0
LINE
  5
4FF
330
1F
100
AcDbEntity
  8
0
100
AcDbLine
 10
-19.32476176839344
 20
-115.5608213672558
 30
0.0
 11
-19.48070944559649
 21
-116.2791614853912
 31
0.0
  0
LINE
  5
500
330
1F
100
AcDbEntity
  8
0
100
AcDbLine
 10
-14.50470349891704
 20
-120.6092105754295
 30
0.0
 11
-14.50470349891704
 21
-118.1925119802827
 31
0.0
  0
LINE
  5
501
330
1F
100
AcDbEntity
  8
0
100
AcDbLine
 10
-15.38350298806141
 20
-120.8351875869238
 30
0.0
 11
-14.50470349891704
 21
-120.6092105754295
 31
0.0
  0
LINE
  5
502
330
1F
100
AcDbEntity
  8
0
100
AcDbLine
 10
-18.1956613533232
 20
-112.6184123634245
 30
0.0
 11
-17.32156971858497
 21
-112.3688960798996
 31
0.0
  0
LINE
  5
503
330
1F
100
AcDbEntity
  8
0
100
AcDbLine
 10
-19.60174053595405
 20
-113.5662603838586
 30
0.0
 11
-18.96461090632447
 21
-113.0217185575496
 31
0.0
  0
LINE
  5
504
330
1F
100
AcDbEntity
  8
0
100
AcDbLine
 10
-14.5988605870397
 20
-113.7985145345611
 30
0.0
 11
-15.46510579776763
 21
-113.4846575741524
 31
0.0
  0
LINE
  5
505
330
1F
100
AcDbEntity
  8
0
100
AcDbLine
 10
-17.73978411832961
 20
-113.61333892792
 30
0.0
 11
-18.25274408799754
 21
-113.9311191003337
 31
0.0
  0
LINE
  5
506
330
1F
100
AcDbEntity
  8
0
100
AcDbLine
 10
-14.65535483991325
 20
-121.7077099368599
 30
0.0
 11
-15.48393721539215
 21
-121.9148555307297
 31
0.0
  0
LINE
  5
507
330
1F
100
AcDbEntity
  8
0
100
AcDbLine
 10
-15.48393721539215
 20
-121.9148555307297
 30
0.0
 11
-16.38156812216102
 21
-121.9839040620196
 31
0.0
  0
LINE
  5
508
330
1F
100
AcDbEntity
  8
0
100
AcDbLine
 10
-4.727737797008049
 20
-70.07168563624361
 30
0.0
 11
-4.727737797008049
 21
-70.03599134196305
 31
0.0
  0
LINE
  5
509
330
1F
100
AcDbEntity
  8
0
100
AcDbLine
 10
-48.65730484377172
 20
240.4726400322739
 30
0.0
 11
-48.65730484377172
 21
240.5136839496893
 31
0.0
  0
LINE
  5
50A
330
1F
100
AcDbEntity
  8
0
100
AcDbLine
 10
-14.89121427483714
 20
229.383617509073
 30
0.0
 11
-15.91217612030327
 21
229.4728719790602
 31
0.0
  0
LINE
  5
50B
330
1F
100
AcDbEntity
  8
0
100
AcDbLine
 10
-15.91217612030327
 20
229.4728719790602
 30
0.0
 11
-16.84752653537355
 21
229.7406353890219
 31
0.0
  0
LINE
  5
50C
330
1F
100
AcDbEntity
  8
0
100
AcDbLine
 10
-16.84752653537355
 20
229.7406353890219
 30
0.0
 11
-17.67905032209122
 21
230.1850862191624
 31
0.0
  0
LINE
  5
50D
330
1F
100
AcDbEntity
  8
0
100
AcDbLine
 10
-17.67905032209122
 20
230.1850862191624
 30
0.0
 11
-18.38853228249994
 21
230.804402949686
 31
0.0
  0
LINE
  5
50E
330
1F
100
AcDbEntity
  8
0
100
AcDbLine
 10
-18.38853228249994
 20
230.804402949686
 30
0.0
 11
-18.96413253792778
 21
231.5985855805928
 31
0.0
  0
LINE
  5
50F
330
1F
100
AcDbEntity
  8
0
100
AcDbLine
 10
-18.96413253792778
 20
231.5985855805928
 30
0.0
 11
-19.394011209703
 21
232.5676341118827
 31
0.0
  0
LINE
  5
510
330
1F
100
AcDbEntity
  8
0
100
AcDbLine
 10
-35.89698055836202
 20
239.1906800888942
 30
0.0
 11
-35.89698055836202
 21
235.0959035882556
 31
0.0
  0
LINE
  5
511
330
1F
100
AcDbEntity
  8
0
100
AcDbLine
 10
-17.6890686809674
 20
237.6478528219721
 30
0.0
 11
-17.99508400663792
 21
236.8809929880002
 31
0.0
  0
LINE
  5
512
330
1F
100
AcDbEntity
  8
0
100
AcDbLine
 10
-15.91672991979246
 20
240.5304078986005
 30
0.0
 11
-14.86935603728922
 21
240.6260376878725
 31
0.0
  0
LINE
  5
513
330
1F
100
AcDbEntity
  8
0
100
AcDbLine
 10
-17.99508400663792
 20
236.8809929880002
 30
0.0
 11
-18.18634358518195
 21
235.9902698079236
 31
0.0
  0
LINE
  5
514
330
1F
100
AcDbEntity
  8
0
100
AcDbLine
 10
-17.98051184827264
 20
233.0740166150756
 30
0.0
 11
-17.6617458840325
 21
232.331747298345
 31
0.0
  0
LINE
  5
515
330
1F
100
AcDbEntity
  8
0
100
AcDbLine
 10
-16.85845565414742
 20
240.2435185307843
 30
0.0
 11
-15.91672991979246
 21
240.5304078986005
 31
0.0
  0
LINE
  5
516
330
1F
100
AcDbEntity
  8
0
100
AcDbLine
 10
-13.72544160561618
 20
230.7825447121381
 30
0.0
 11
-12.77825131187415
 21
231.1687069088176
 31
0.0
  0
LINE
  5
517
330
1F
100
AcDbEntity
  8
0
100
AcDbLine
 10
-16.7764872633429
 20
238.7589798973233
 30
0.0
 11
-17.2810482467401
 21
238.2726341118827
 31
0.0
  0
LINE
  5
518
330
1F
100
AcDbEntity
  8
0
100
AcDbLine
 10
-18.18634358518195
 20
235.9902698079236
 30
0.0
 11
-18.25009677802996
 21
234.9938984796988
 31
0.0
  0
LINE
  5
519
330
1F
100
AcDbEntity
  8
0
100
AcDbLine
 10
-17.2446178508269
 20
231.7151628475148
 30
0.0
 11
-16.75280750599932
 21
231.2424784605417
 31
0.0
  0
LINE
  5
51A
330
1F
100
AcDbEntity
  8
0
100
AcDbLine
 10
-15.55060444086525
 20
230.69784404164
 30
0.0
 11
-14.8839281956545
 21
230.6295370493028
 31
0.0
  0
LINE
  5
51B
330
1F
100
AcDbEntity
  8
0
100
AcDbLine
 10
-13.75458592234665
 20
239.2489687223552
 30
0.0
 11
-14.8839281956545
 21
239.3946903060079
 31
0.0
  0
LINE
  5
51C
330
1F
100
AcDbEntity
  8
0
100
AcDbLine
 10
-16.1808502901628
 20
230.9027650186516
 30
0.0
 11
-15.55060444086525
 21
230.69784404164
 31
0.0
  0
LINE
  5
51D
330
1F
100
AcDbEntity
  8
0
100
AcDbLine
 10
-12.96040329143997
 20
240.3418805997499
 30
0.0
 11
-12.24272449195074
 21
240.0686526304012
 31
0.0
  0
LINE
  5
51E
330
1F
100
AcDbEntity
  8
0
100
AcDbLine
 10
-12.19172193767235
 20
229.995648160414
 30
0.0
 11
-12.96040329143997
 21
229.6969189139261
 31
0.0
  0
LINE
  5
51F
330
1F
100
AcDbEntity
  8
0
100
AcDbLine
 10
-19.66450689935819
 20
236.2689623366592
 30
0.0
 11
-19.40494032847696
 21
237.3691602932365
 31
0.0
  0
LINE
  5
520
330
1F
100
AcDbEntity
  8
0
100
AcDbLine
 10
-11.51775961327905
 20
230.3162356444498
 30
0.0
 11
-12.19172193767235
 21
229.995648160414
 31
0.0
  0
LINE
  5
521
330
1F
100
AcDbEntity
  8
0
100
AcDbLine
 10
-12.77825131187415
 20
231.1687069088176
 30
0.0
 11
-12.08607378952425
 21
231.6313729369147
 31
0.0
  0
LINE
  5
522
330
1F
100
AcDbEntity
  8
0
100
AcDbLine
 10
-11.51775961327905
 20
232.0357503315506
 30
0.0
 11
-11.51775961327905
 21
230.3162356444498
 31
0.0
  0
LINE
  5
523
330
1F
100
AcDbEntity
  8
0
100
AcDbLine
 10
-19.40494032847696
 20
237.3691602932365
 30
0.0
 11
-18.97961545619084
 21
238.3163505869785
 31
0.0
  0
LINE
  5
524
330
1F
100
AcDbEntity
  8
0
100
AcDbLine
 10
-14.86935603728922
 20
240.6260376878725
 30
0.0
 11
-13.84566191212956
 21
240.5458908168636
 31
0.0
  0
LINE
  5
525
330
1F
100
AcDbEntity
  8
0
100
AcDbLine
 10
-17.68724716117174
 20
239.7744771834025
 30
0.0
 11
-16.85845565414742
 21
240.2435185307843
 31
0.0
  0
LINE
  5
526
330
1F
100
AcDbEntity
  8
0
100
AcDbLine
 10
-17.2810482467401
 20
238.2726341118827
 30
0.0
 11
-17.6890686809674
 21
237.6478528219721
 31
0.0
  0
LINE
  5
527
330
1F
100
AcDbEntity
  8
0
100
AcDbLine
 10
-12.12250418543736
 20
238.3892113788048
 30
0.0
 11
-12.85111210370046
 21
238.877378684041
 31
0.0
  0
LINE
  5
528
330
1F
100
AcDbEntity
  8
0
100
AcDbLine
 10
-19.75102908965191
 20
234.9938984796988
 30
0.0
 11
-19.66450689935819
 21
236.2689623366592
 31
0.0
  0
LINE
  5
529
330
1F
100
AcDbEntity
  8
0
100
AcDbLine
 10
-18.18270054559063
 20
233.9565429560717
 30
0.0
 11
-17.98051184827264
 21
233.0740166150756
 31
0.0
  0
LINE
  5
52A
330
1F
100
AcDbEntity
  8
0
100
AcDbLine
 10
-14.8839281956545
 20
239.3946903060079
 30
0.0
 11
-15.5578905200478
 21
239.3236510339772
 31
0.0
  0
LINE
  5
52B
330
1F
100
AcDbEntity
  8
0
100
AcDbLine
 10
-12.96040329143997
 20
229.6969189139261
 30
0.0
 11
-13.83837583294692
 21
229.463764380082
 31
0.0
  0
LINE
  5
52C
330
1F
100
AcDbEntity
  8
0
100
AcDbLine
 10
-12.24272449195074
 20
240.0686526304012
 30
0.0
 11
-11.51775961327905
 21
239.7079917108609
 31
0.0
  0
LINE
  5
52D
330
1F
100
AcDbEntity
  8
0
100
AcDbLine
 10
-17.6617458840325
 20
232.331747298345
 30
0.0
 11
-17.2446178508269
 21
231.7151628475148
 31
0.0
  0
LINE
  5
52E
330
1F
100
AcDbEntity
  8
0
100
AcDbLine
 10
-13.84566191212956
 20
240.5458908168636
 30
0.0
 11
-12.96040329143997
 21
240.3418805997499
 31
0.0
  0
LINE
  5
52F
330
1F
100
AcDbEntity
  8
0
100
AcDbLine
 10
-18.39581836168258
 20
239.1323914554331
 30
0.0
 11
-17.68724716117174
 21
239.7744771834025
 31
0.0
  0
LINE
  5
530
330
1F
100
AcDbEntity
  8
0
100
AcDbLine
 10
-18.25009677802996
 20
234.9938984796988
 30
0.0
 11
-18.18270054559063
 21
233.9565429560717
 31
0.0
  0
LINE
  5
531
330
1F
100
AcDbEntity
  8
0
100
AcDbLine
 10
-16.75280750599932
 20
231.2424784605417
 30
0.0
 11
-16.1808502901628
 21
230.9027650186516
 31
0.0
  0
LINE
  5
532
330
1F
100
AcDbEntity
  8
0
100
AcDbLine
 10
-14.8839281956545
 20
230.6295370493028
 30
0.0
 11
-13.72544160561618
 21
230.7825447121381
 31
0.0
  0
LINE
  5
533
330
1F
100
AcDbEntity
  8
0
100
AcDbLine
 10
-13.83837583294692
 20
229.463764380082
 30
0.0
 11
-14.89121427483714
 21
229.383617509073
 31
0.0
  0
LINE
  5
534
330
1F
100
AcDbEntity
  8
0
100
AcDbLine
 10
-19.394011209703
 20
232.5676341118827
 30
0.0
 11
-19.66177461966466
 21
233.7024409445775
 31
0.0
  0
LINE
  5
535
330
1F
100
AcDbEntity
  8
0
100
AcDbLine
 10
-18.97961545619084
 20
238.3163505869785
 30
0.0
 11
-18.39581836168258
 21
239.1323914554331
 31
0.0
  0
LINE
  5
536
330
1F
100
AcDbEntity
  8
0
100
AcDbLine
 10
-11.51775961327905
 20
239.7079917108609
 30
0.0
 11
-11.51775961327905
 21
237.9666187862122
 31
0.0
  0
LINE
  5
537
330
1F
100
AcDbEntity
  8
0
100
AcDbLine
 10
-19.66177461966466
 20
233.7024409445775
 30
0.0
 11
-19.75102908965191
 21
234.9938984796988
 31
0.0
  0
LINE
  5
538
330
1F
100
AcDbEntity
  8
0
100
AcDbLine
 10
-15.5578905200478
 20
239.3236510339772
 30
0.0
 11
-16.19542244852799
 21
239.1105332178853
 31
0.0
  0
LINE
  5
539
330
1F
100
AcDbEntity
  8
0
100
AcDbLine
 10
-11.6343368802011
 20
237.9666187862122
 30
0.0
 11
-12.12250418543736
 21
238.3892113788048
 31
0.0
  0
LINE
  5
53A
330
1F
100
AcDbEntity
  8
0
100
AcDbLine
 10
-12.85111210370046
 20
238.877378684041
 30
0.0
 11
-13.75458592234665
 21
239.2489687223552
 31
0.0
  0
LINE
  5
53B
330
1F
100
AcDbEntity
  8
0
100
AcDbLine
 10
-16.19542244852799
 20
239.1105332178853
 30
0.0
 11
-16.7764872633429
 21
238.7589798973233
 31
0.0
  0
LINE
  5
53C
330
1F
100
AcDbEntity
  8
0
100
AcDbLine
 10
-12.08607378952425
 20
231.6313729369147
 30
0.0
 11
-11.62705080101846
 21
232.0357503315506
 31
0.0
  0
LINE
  5
53D
330
1F
100
AcDbEntity
  8
0
100
AcDbLine
 10
16.50450092311943
 20
239.3801181476426
 30
0.0
 11
15.7588162567721
 21
239.3063465959185
 31
0.0
  0
LINE
  5
53E
330
1F
100
AcDbEntity
  8
0
100
AcDbLine
 10
17.72856222580143
 20
240.5458908168636
 30
0.0
 11
18.69032467790874
 21
240.3273084413846
 31
0.0
  0
LINE
  5
53F
330
1F
100
AcDbEntity
  8
0
100
AcDbLine
 10
15.08826928199554
 20
239.085031940746
 30
0.0
 11
14.49285999878993
 21
238.7161741821254
 31
0.0
  0
LINE
  5
540
330
1F
100
AcDbEntity
  8
0
100
AcDbLine
 10
14.49285999878993
 20
238.7161741821254
 30
0.0
 11
13.97258840715518
 21
238.1997733200564
 31
0.0
  0
LINE
  5
541
330
1F
100
AcDbEntity
  8
0
100
AcDbLine
 10
13.97258840715518
 20
238.1997733200564
 30
0.0
 11
13.55022350453709
 21
237.5608752517294
 31
0.0
  0
LINE
  5
542
330
1F
100
AcDbEntity
  8
0
100
AcDbLine
 10
13.55022350453709
 20
237.5608752517294
 30
0.0
 11
13.24853428838127
 21
236.8245258743348
 31
0.0
  0
LINE
  5
543
330
1F
100
AcDbEntity
  8
0
100
AcDbLine
 10
19.54643898186786
 20
238.4074265767613
 30
0.0
 11
18.73404115300449
 21
238.8700926048584
 31
0.0
  0
LINE
  5
544
330
1F
100
AcDbEntity
  8
0
100
AcDbLine
 10
13.67203764087173
 20
230.1595849420232
 30
0.0
 11
12.91974996526505
 21
230.7825447121381
 31
0.0
  0
LINE
  5
545
330
1F
100
AcDbEntity
  8
0
100
AcDbLine
 10
19.50272250677211
 20
240.0249361553054
 30
0.0
 11
20.22768738544389
 21
239.6934195524958
 31
0.0
  0
LINE
  5
546
330
1F
100
AcDbEntity
  8
0
100
AcDbLine
 10
20.22768738544389
 20
239.6934195524958
 30
0.0
 11
20.22768738544389
 21
237.952046627847
 31
0.0
  0
LINE
  5
547
330
1F
100
AcDbEntity
  8
0
100
AcDbLine
 10
12.3213807123915
 20
238.3281904656502
 30
0.0
 11
12.92703604444769
 21
239.1396775346157
 31
0.0
  0
LINE
  5
548
330
1F
100
AcDbEntity
  8
0
100
AcDbLine
 10
18.73404115300449
 20
238.8700926048584
 30
0.0
 11
17.72856222580143
 21
239.23439656399
 31
0.0
  0
LINE
  5
549
330
1F
100
AcDbEntity
  8
0
100
AcDbLine
 10
11.50625060383469
 20
235.0157567172467
 30
0.0
 11
11.59823735351538
 21
236.2589439777831
 31
0.0
  0
LINE
  5
54A
330
1F
100
AcDbEntity
  8
0
100
AcDbLine
 10
12.92703604444769
 20
239.1396775346157
 30
0.0
 11
13.66657308148475
 21
239.771744903709
 31
0.0
  0
LINE
  5
54B
330
1F
100
AcDbEntity
  8
0
100
AcDbLine
 10
13.24853428838127
 20
236.8245258743348
 30
0.0
 11
13.06752075868782
 21
235.9907251878724
 31
0.0
  0
LINE
  5
54C
330
1F
100
AcDbEntity
  8
0
100
AcDbLine
 10
13.06752075868782
 20
235.9907251878724
 30
0.0
 11
13.00718291545664
 21
235.0594731923425
 31
0.0
  0
LINE
  5
54D
330
1F
100
AcDbEntity
  8
0
100
AcDbLine
 10
13.00718291545664
 20
235.0594731923425
 30
0.0
 11
13.07093610830465
 21
234.0357790671828
 31
0.0
  0
LINE
  5
54E
330
1F
100
AcDbEntity
  8
0
100
AcDbLine
 10
15.7588162567721
 20
239.3063465959185
 30
0.0
 11
15.08826928199554
 21
239.085031940746
 31
0.0
  0
LINE
  5
54F
330
1F
100
AcDbEntity
  8
0
100
AcDbLine
 10
12.91974996526505
 20
230.7825447121381
 30
0.0
 11
12.31500539310674
 21
231.5894779816145
 31
0.0
  0
LINE
  5
550
330
1F
100
AcDbEntity
  8
0
100
AcDbLine
 10
13.07093610830465
 20
234.0357790671828
 30
0.0
 11
13.26219568684868
 21
233.1505204464931
 31
0.0
  0
LINE
  5
551
330
1F
100
AcDbEntity
  8
0
100
AcDbLine
 10
14.55911778135698
 20
229.718777151474
 30
0.0
 11
13.67203764087173
 21
230.1595849420232
 31
0.0
  0
LINE
  5
552
330
1F
100
AcDbEntity
  8
0
100
AcDbLine
 10
13.26219568684868
 20
233.1505204464931
 30
0.0
 11
13.57367557190618
 21
232.3964112510909
 31
0.0
  0
LINE
  5
553
330
1F
100
AcDbEntity
  8
0
100
AcDbLine
 10
13.57367557190618
 20
232.3964112510909
 30
0.0
 11
13.99808968429442
 21
231.7661654017933
 31
0.0
  0
LINE
  5
554
330
1F
100
AcDbEntity
  8
0
100
AcDbLine
 10
13.66657308148475
 20
239.771744903709
 30
0.0
 11
14.55911778135698
 21
240.239875491193
 31
0.0
  0
LINE
  5
555
330
1F
100
AcDbEntity
  8
0
100
AcDbLine
 10
11.59732659361759
 20
233.7115485435558
 30
0.0
 11
11.50625060383469
 21
235.0157567172467
 31
0.0
  0
LINE
  5
556
330
1F
100
AcDbEntity
  8
0
100
AcDbLine
 10
14.55911778135698
 20
240.239875491193
 30
0.0
 11
15.57370430753834
 21
240.5294971387026
 31
0.0
  0
LINE
  5
557
330
1F
100
AcDbEntity
  8
0
100
AcDbLine
 10
11.87419760255756
 20
237.3655172536452
 30
0.0
 11
12.3213807123915
 21
238.3281904656502
 31
0.0
  0
LINE
  5
558
330
1F
100
AcDbEntity
  8
0
100
AcDbLine
 10
15.57370430753834
 20
240.5294971387026
 30
0.0
 11
16.67936682350262
 21
240.6260376878725
 31
0.0
  0
LINE
  5
559
330
1F
100
AcDbEntity
  8
0
100
AcDbLine
 10
16.66479466513734
 20
229.3690453507077
 30
0.0
 11
15.56277518876447
 21
229.4564783008993
 31
0.0
  0
LINE
  5
55A
330
1F
100
AcDbEntity
  8
0
100
AcDbLine
 10
15.56277518876447
 20
229.4564783008993
 30
0.0
 11
14.55911778135698
 21
229.718777151474
 31
0.0
  0
LINE
  5
55B
330
1F
100
AcDbEntity
  8
0
100
AcDbLine
 10
-0.3554863054884052
 20
239.1906800888942
 30
0.0
 11
-0.3554863054884052
 21
235.0959035882556
 31
0.0
  0
LINE
  5
55C
330
1F
100
AcDbEntity
  8
0
100
AcDbLine
 10
12.31500539310674
 20
231.5894779816145
 30
0.0
 11
11.87055456296624
 21
232.5676341118827
 31
0.0
  0
LINE
  5
55D
330
1F
100
AcDbEntity
  8
0
100
AcDbLine
 10
11.59823735351538
 20
236.2589439777831
 30
0.0
 11
11.87419760255756
 21
237.3655172536452
 31
0.0
  0
LINE
  5
55E
330
1F
100
AcDbEntity
  8
0
100
AcDbLine
 10
16.67936682350262
 20
240.6260376878725
 30
0.0
 11
17.72856222580143
 21
240.5458908168636
 31
0.0
  0
LINE
  5
55F
330
1F
100
AcDbEntity
  8
0
100
AcDbLine
 10
11.87055456296624
 20
232.5676341118827
 30
0.0
 11
11.59732659361759
 21
233.7115485435558
 31
0.0
  0
LINE
  5
560
330
1F
100
AcDbEntity
  8
0
100
AcDbLine
 10
18.69032467790874
 20
240.3273084413846
 30
0.0
 11
19.50272250677211
 21
240.0249361553054
 31
0.0
  0
LINE
  5
561
330
1F
100
AcDbEntity
  8
0
100
AcDbLine
 10
20.1038240393391
 20
237.952046627847
 30
0.0
 11
19.54643898186786
 21
238.4074265767613
 31
0.0
  0
LINE
  5
562
330
1F
100
AcDbEntity
  8
0
100
AcDbLine
 10
17.72856222580143
 20
239.23439656399
 30
0.0
 11
16.50450092311943
 21
239.3801181476426
 31
0.0
  0
LINE
  5
563
330
1F
100
AcDbEntity
  8
0
100
AcDbLine
 10
28.48281509936468
 20
229.580341647004
 30
0.0
 11
27.49919440970953
 21
232.6113505869785
 31
0.0
  0
LINE
  5
564
330
1F
100
AcDbEntity
  8
0
100
AcDbLine
 10
16.33692110191899
 20
235.0376149547945
 30
0.0
 11
20.27140386053964
 21
235.0376149547945
 31
0.0
  0
LINE
  5
565
330
1F
100
AcDbEntity
  8
0
100
AcDbLine
 10
18.843332340744
 20
233.7698371770168
 30
0.0
 11
16.33692110191899
 21
233.7698371770168
 31
0.0
  0
LINE
  5
566
330
1F
100
AcDbEntity
  8
0
100
AcDbLine
 10
25.42266184265974
 20
238.95752555505
 30
0.0
 11
23.75414970983725
 21
233.8426979688431
 31
0.0
  0
LINE
  5
567
330
1F
100
AcDbEntity
  8
0
100
AcDbLine
 10
16.6065060316763
 20
230.6149648909376
 30
0.0
 11
17.82328125517566
 21
230.7023978411291
 31
0.0
  0
LINE
  5
568
330
1F
100
AcDbEntity
  8
0
100
AcDbLine
 10
20.91257882861115
 20
229.580341647004
 30
0.0
 11
24.57019057829185
 21
240.4293135499414
 31
0.0
  0
LINE
  5
569
330
1F
100
AcDbEntity
  8
0
100
AcDbLine
 10
27.09846005466478
 20
233.8426979688431
 30
0.0
 11
25.42266184265974
 21
238.95752555505
 31
0.0
  0
LINE
  5
56A
330
1F
100
AcDbEntity
  8
0
100
AcDbLine
 10
16.33692110191899
 20
233.7698371770168
 30
0.0
 11
16.33692110191899
 21
235.0376149547945
 31
0.0
  0
LINE
  5
56B
330
1F
100
AcDbEntity
  8
0
100
AcDbLine
 10
30.00560564853455
 20
229.580341647004
 30
0.0
 11
28.48281509936468
 21
229.580341647004
 31
0.0
  0
LINE
  5
56C
330
1F
100
AcDbEntity
  8
0
100
AcDbLine
 10
18.66846644036082
 20
229.6896328347435
 30
0.0
 11
17.7067039882536
 21
229.4491922217167
 31
0.0
  0
LINE
  5
56D
330
1F
100
AcDbEntity
  8
0
100
AcDbLine
 10
24.57019057829185
 20
240.4293135499414
 30
0.0
 11
26.34799389885385
 21
240.4293135499414
 31
0.0
  0
LINE
  5
56E
330
1F
100
AcDbEntity
  8
0
100
AcDbLine
 10
22.36979466513736
 20
229.580341647004
 30
0.0
 11
20.91257882861115
 21
229.580341647004
 31
0.0
  0
LINE
  5
56F
330
1F
100
AcDbEntity
  8
0
100
AcDbLine
 10
15.82416327944128
 20
230.6887364426617
 30
0.0
 11
16.6065060316763
 21
230.6149648909376
 31
0.0
  0
LINE
  5
570
330
1F
100
AcDbEntity
  8
0
100
AcDbLine
 10
26.34799389885385
 20
240.4293135499414
 30
0.0
 11
30.00560564853455
 21
229.580341647004
 31
0.0
  0
LINE
  5
571
330
1F
100
AcDbEntity
  8
0
100
AcDbLine
 10
23.3534153547925
 20
232.6113505869785
 30
0.0
 11
22.36979466513736
 21
229.580341647004
 31
0.0
  0
LINE
  5
572
330
1F
100
AcDbEntity
  8
0
100
AcDbLine
 10
19.53186682350258
 20
229.9883620812313
 30
0.0
 11
18.66846644036082
 21
229.6896328347435
 31
0.0
  0
LINE
  5
573
330
1F
100
AcDbEntity
  8
0
100
AcDbLine
 10
13.99808968429442
 20
231.7661654017933
 30
0.0
 11
14.51266902656779
 21
231.2716227772722
 31
0.0
  0
LINE
  5
574
330
1F
100
AcDbEntity
  8
0
100
AcDbLine
 10
15.12378891801095
 20
230.9100510978342
 30
0.0
 11
15.82416327944128
 21
230.6887364426617
 31
0.0
  0
LINE
  5
575
330
1F
100
AcDbEntity
  8
0
100
AcDbLine
 10
18.843332340744
 20
230.9646966917039
 30
0.0
 11
18.843332340744
 21
233.7698371770168
 31
0.0
  0
LINE
  5
576
330
1F
100
AcDbEntity
  8
0
100
AcDbLine
 10
17.7067039882536
 20
229.4491922217167
 30
0.0
 11
16.66479466513734
 21
229.3690453507077
 31
0.0
  0
LINE
  5
577
330
1F
100
AcDbEntity
  8
0
100
AcDbLine
 10
17.82328125517566
 20
230.7023978411291
 30
0.0
 11
18.843332340744
 21
230.9646966917039
 31
0.0
  0
LINE
  5
578
330
1F
100
AcDbEntity
  8
0
100
AcDbLine
 10
20.27140386053964
 20
230.3016634860845
 30
0.0
 11
19.53186682350258
 21
229.9883620812313
 31
0.0
  0
LINE
  5
579
330
1F
100
AcDbEntity
  8
0
100
AcDbLine
 10
20.27140386053964
 20
235.0376149547945
 30
0.0
 11
20.27140386053964
 21
230.3016634860845
 31
0.0
  0
LINE
  5
57A
330
1F
100
AcDbEntity
  8
0
100
AcDbLine
 10
14.51266902656779
 20
231.2716227772722
 30
0.0
 11
15.12378891801095
 21
230.9100510978342
 31
0.0
  0
LINE
  5
57B
330
1F
100
AcDbEntity
  8
0
100
AcDbLine
 10
75.13003112170816
 20
231.1761535168106
 30
0.0
 11
74.91734975585274
 21
231.2639166105522
 31
0.0
  0
LINE
  5
57C
330
1F
100
AcDbEntity
  8
0
100
AcDbLine
 10
74.53811069384551
 20
230.0416393634072
 30
0.0
 11
74.9071000514742
 21
230.085520910278
 31
0.0
  0
LINE
  5
57D
330
1F
100
AcDbEntity
  8
0
100
AcDbLine
 10
73.36548045228433
 20
232.2558958124409
 30
0.0
 11
73.34914498593095
 21
232.4656944489399
 31
0.0
  0
LINE
  5
57E
330
1F
100
AcDbEntity
  8
0
100
AcDbLine
 10
75.33502520927964
 20
230.4205581221526
 30
0.0
 11
75.3888361572672
 21
230.6796834609734
 31
0.0
  0
LINE
  5
57F
330
1F
100
AcDbEntity
  8
0
100
AcDbLine
 10
73.43947050576716
 20
232.8920180904362
 30
0.0
 11
73.55237740556234
 21
233.0770732999588
 31
0.0
  0
LINE
  5
580
330
1F
100
AcDbEntity
  8
0
100
AcDbLine
 10
74.36482662919532
 20
233.5376693904709
 30
0.0
 11
74.63292045934735
 21
233.557287965258
 31
0.0
  0
LINE
  5
581
330
1F
100
AcDbEntity
  8
0
100
AcDbLine
 10
73.41448685134436
 20
232.0723620434121
 30
0.0
 11
73.36548045228433
 21
232.2558958124409
 31
0.0
  0
LINE
  5
582
330
1F
100
AcDbEntity
  8
0
100
AcDbLine
 10
73.55237740556234
 20
233.0770732999588
 30
0.0
 11
73.71044706527569
 21
233.2433907686642
 31
0.0
  0
LINE
  5
583
330
1F
100
AcDbEntity
  8
0
100
AcDbLine
 10
75.36064947022608
 20
230.8865993681159
 30
0.0
 11
75.27608940910288
 21
231.0512352446968
 31
0.0
  0
LINE
  5
584
330
1F
100
AcDbEntity
  8
0
100
AcDbLine
 10
74.22805713639367
 20
231.4381615849879
 30
0.0
 11
73.8744423353329
 21
231.5688453158147
 31
0.0
  0
LINE
  5
585
330
1F
100
AcDbEntity
  8
0
100
AcDbLine
 10
75.51407473264284
 20
233.415713923529
 30
0.0
 11
75.76807521927442
 21
233.3112950601723
 31
0.0
  0
LINE
  5
586
330
1F
100
AcDbEntity
  8
0
100
AcDbLine
 10
75.3888361572672
 20
230.6796834609734
 30
0.0
 11
75.36064947022608
 21
230.8865993681159
 31
0.0
  0
LINE
  5
587
330
1F
100
AcDbEntity
  8
0
100
AcDbLine
 10
74.63292045934735
 20
233.557287965258
 30
0.0
 11
74.94457553310839
 21
233.5412728021665
 31
0.0
  0
LINE
  5
588
330
1F
100
AcDbEntity
  8
0
100
AcDbLine
 10
73.8744423353329
 20
231.5688453158147
 30
0.0
 11
73.72710283489089
 21
231.6604520486982
 31
0.0
  0
LINE
  5
589
330
1F
100
AcDbEntity
  8
0
100
AcDbLine
 10
74.23766623424856
 20
230.073989992852
 30
0.0
 11
74.53811069384551
 21
230.0416393634072
 31
0.0
  0
LINE
  5
58A
330
1F
100
AcDbEntity
  8
0
100
AcDbLine
 10
75.76807521927442
 20
233.3112950601723
 30
0.0
 11
75.76807521927442
 21
232.7040000757417
 31
0.0
  0
LINE
  5
58B
330
1F
100
AcDbEntity
  8
0
100
AcDbLine
 10
74.94457553310839
 20
233.5412728021665
 30
0.0
 11
75.23893423073051
 21
233.4932273128919
 31
0.0
  0
LINE
  5
58C
330
1F
100
AcDbEntity
  8
0
100
AcDbLine
 10
74.12171645346601
 20
233.4788136661096
 30
0.0
 11
74.36482662919532
 21
233.5376693904709
 31
0.0
  0
LINE
  5
58D
330
1F
100
AcDbEntity
  8
0
100
AcDbLine
 10
73.49296115049282
 20
231.9131713222825
 30
0.0
 11
73.41448685134436
 21
232.0723620434121
 31
0.0
  0
LINE
  5
58E
330
1F
100
AcDbEntity
  8
0
100
AcDbLine
 10
75.72963882785476
 20
232.7040000757417
 30
0.0
 11
75.52208231418861
 21
232.8599877642532
 31
0.0
  0
LINE
  5
58F
330
1F
100
AcDbEntity
  8
0
100
AcDbLine
 10
73.37172636589003
 20
232.6882251400966
 30
0.0
 11
73.43947050576716
 21
232.8920180904362
 31
0.0
  0
LINE
  5
590
330
1F
100
AcDbEntity
  8
0
100
AcDbLine
 10
74.57398465917059
 20
229.6034645012232
 30
0.0
 11
74.18994104823582
 21
229.6249248197658
 31
0.0
  0
LINE
  5
591
330
1F
100
AcDbEntity
  8
0
100
AcDbLine
 10
75.52208231418861
 20
232.8599877642532
 30
0.0
 11
75.26327727862966
 21
232.9948354374838
 31
0.0
  0
LINE
  5
592
330
1F
100
AcDbEntity
  8
0
100
AcDbLine
 10
75.26327727862966
 20
232.9948354374838
 30
0.0
 11
74.97180131036396
 21
233.0880436866764
 31
0.0
  0
LINE
  5
593
330
1F
100
AcDbEntity
  8
0
100
AcDbLine
 10
73.90358993215949
 20
233.380720792174
 30
0.0
 11
74.12171645346601
 21
233.4788136661096
 31
0.0
  0
LINE
  5
594
330
1F
100
AcDbEntity
  8
0
100
AcDbLine
 10
74.97180131036396
 20
233.0880436866764
 30
0.0
 11
74.66623199857774
 21
233.119113103074
 31
0.0
  0
LINE
  5
595
330
1F
100
AcDbEntity
  8
0
100
AcDbLine
 10
73.9314563159387
 20
232.7626155726568
 30
0.0
 11
73.87700476142749
 21
232.5195053969274
 31
0.0
  0
LINE
  5
596
330
1F
100
AcDbEntity
  8
0
100
AcDbLine
 10
74.66623199857774
 20
233.119113103074
 30
0.0
 11
74.34656934327091
 21
233.0777939822979
 31
0.0
  0
LINE
  5
597
330
1F
100
AcDbEntity
  8
0
100
AcDbLine
 10
73.90903508761059
 20
232.3010585723591
 30
0.0
 11
74.0051260661597
 21
232.1325790566363
 31
0.0
  0
LINE
  5
598
330
1F
100
AcDbEntity
  8
0
100
AcDbLine
 10
74.0051260661597
 20
232.1325790566363
 30
0.0
 11
74.16207466445663
 21
232.008301391046
 31
0.0
  0
LINE
  5
599
330
1F
100
AcDbEntity
  8
0
100
AcDbLine
 10
73.72710283489089
 20
231.6604520486982
 30
0.0
 11
73.59770031711136
 21
231.7764018294808
 31
0.0
  0
LINE
  5
59A
330
1F
100
AcDbEntity
  8
0
100
AcDbLine
 10
74.18994104823582
 20
229.6249248197658
 30
0.0
 11
73.86803627009624
 21
229.6893057753937
 31
0.0
  0
LINE
  5
59B
330
1F
100
AcDbEntity
  8
0
100
AcDbLine
 10
75.23893423073051
 20
233.4932273128919
 30
0.0
 11
75.51407473264284
 21
233.415713923529
 31
0.0
  0
LINE
  5
59C
330
1F
100
AcDbEntity
  8
0
100
AcDbLine
 10
75.05315833886891
 20
230.1403728438665
 30
0.0
 11
75.1735923653171
 21
230.2171655508903
 31
0.0
  0
LINE
  5
59D
330
1F
100
AcDbEntity
  8
0
100
AcDbLine
 10
73.6246057911052
 20
230.3270295696981
 30
0.0
 11
73.92569085722579
 21
230.1710418811867
 31
0.0
  0
LINE
  5
59E
330
1F
100
AcDbEntity
  8
0
100
AcDbLine
 10
74.59448406792768
 20
231.3484766716754
 30
0.0
 11
74.22805713639367
 21
231.4381615849879
 31
0.0
  0
LINE
  5
59F
330
1F
100
AcDbEntity
  8
0
100
AcDbLine
 10
74.34656934327091
 20
233.0777939822979
 30
0.0
 11
74.09481097947227
 21
232.9538366199695
 31
0.0
  0
LINE
  5
5A0
330
1F
100
AcDbEntity
  8
0
100
AcDbLine
 10
74.09481097947227
 20
232.9538366199695
 30
0.0
 11
73.9314563159387
 21
232.7626155726568
 31
0.0
  0
LINE
  5
5A1
330
1F
100
AcDbEntity
  8
0
100
AcDbLine
 10
73.3568322642149
 20
230.5361875996734
 30
0.0
 11
73.6246057911052
 21
230.3270295696981
 31
0.0
  0
LINE
  5
5A2
330
1F
100
AcDbEntity
  8
0
100
AcDbLine
 10
74.16207466445663
 20
232.008301391046
 30
0.0
 11
74.37667784988298
 21
231.9224601168755
 31
0.0
  0
LINE
  5
5A3
330
1F
100
AcDbEntity
  8
0
100
AcDbLine
 10
73.92569085722579
 20
230.1710418811867
 30
0.0
 11
74.23766623424856
 21
230.073989992852
 31
0.0
  0
LINE
  5
5A4
330
1F
100
AcDbEntity
  8
0
100
AcDbLine
 10
74.91734975585274
 20
231.2639166105522
 30
0.0
 11
74.59448406792768
 21
231.3484766716754
 31
0.0
  0
LINE
  5
5A5
330
1F
100
AcDbEntity
  8
0
100
AcDbLine
 10
73.71044706527569
 20
233.2433907686642
 30
0.0
 11
73.90358993215949
 21
233.380720792174
 31
0.0
  0
LINE
  5
5A6
330
1F
100
AcDbEntity
  8
0
100
AcDbLine
 10
73.86803627009624
 20
229.6893057753937
 30
0.0
 11
73.32095829888992
 21
229.9007059282019
 31
0.0
  0
LINE
  5
5A7
330
1F
100
AcDbEntity
  8
0
100
AcDbLine
 10
74.37667784988298
 20
231.9224601168755
 30
0.0
 11
74.77129146845812
 21
231.8238067122317
 31
0.0
  0
LINE
  5
5A8
330
1F
100
AcDbEntity
  8
0
100
AcDbLine
 10
75.27608940910288
 20
231.0512352446968
 30
0.0
 11
75.13003112170816
 21
231.1761535168106
 31
0.0
  0
LINE
  5
5A9
330
1F
100
AcDbEntity
  8
0
100
AcDbLine
 10
73.34914498593095
 20
232.4656944489399
 30
0.0
 11
73.37172636589003
 21
232.6882251400966
 31
0.0
  0
LINE
  5
5AA
330
1F
100
AcDbEntity
  8
0
100
AcDbLine
 10
75.1735923653171
 20
230.2171655508903
 30
0.0
 11
75.33502520927964
 21
230.4205581221526
 31
0.0
  0
LINE
  5
5AB
330
1F
100
AcDbEntity
  8
0
100
AcDbLine
 10
73.32095829888992
 20
229.9007059282019
 30
0.0
 11
73.32095829888992
 21
230.5361875996734
 31
0.0
  0
LINE
  5
5AC
330
1F
100
AcDbEntity
  8
0
100
AcDbLine
 10
73.87700476142749
 20
232.5195053969274
 30
0.0
 11
73.90903508761059
 21
232.3010585723591
 31
0.0
  0
LINE
  5
5AD
330
1F
100
AcDbEntity
  8
0
100
AcDbLine
 10
74.77129146845812
 20
231.8238067122317
 30
0.0
 11
75.15821780874928
 21
231.7225908814933
 31
0.0
  0
LINE
  5
5AE
330
1F
100
AcDbEntity
  8
0
100
AcDbLine
 10
73.59770031711136
 20
231.7764018294808
 30
0.0
 11
73.49296115049282
 21
231.9131713222825
 31
0.0
  0
LINE
  5
5AF
330
1F
100
AcDbEntity
  8
0
100
AcDbLine
 10
74.9071000514742
 20
230.085520910278
 30
0.0
 11
75.05315833886891
 21
230.1403728438665
 31
0.0
  0
LINE
  5
5B0
330
1F
100
AcDbEntity
  8
0
100
AcDbLine
 10
75.15437416960731
 20
229.6931494145357
 30
0.0
 11
74.8933270112155
 21
229.6258857295514
 31
0.0
  0
LINE
  5
5B1
330
1F
100
AcDbEntity
  8
0
100
AcDbLine
 10
75.71650639411972
 20
230.1172309331992
 30
0.0
 11
75.57076840998681
 21
229.9493920240001
 31
0.0
  0
LINE
  5
5B2
330
1F
100
AcDbEntity
  8
0
100
AcDbLine
 10
75.82572980640388
 20
230.3183813816287
 30
0.0
 11
75.71650639411972
 21
230.1172309331992
 31
0.0
  0
LINE
  5
5B3
330
1F
100
AcDbEntity
  8
0
100
AcDbLine
 10
75.37442251048478
 20
229.802052523558
 30
0.0
 11
75.15437416960731
 21
229.6931494145357
 31
0.0
  0
LINE
  5
5B4
330
1F
100
AcDbEntity
  8
0
100
AcDbLine
 10
75.15821780874928
 20
231.7225908814933
 30
0.0
 11
75.4996610858605
 21
231.5714077419093
 31
0.0
  0
LINE
  5
5B5
330
1F
100
AcDbEntity
  8
0
100
AcDbLine
 10
75.87121286958377
 20
231.0871092100217
 30
0.0
 11
75.91669593276373
 21
230.7591186699074
 31
0.0
  0
LINE
  5
5B6
330
1F
100
AcDbEntity
  8
0
100
AcDbLine
 10
75.4996610858605
 20
231.5714077419093
 30
0.0
 11
75.73476368004403
 21
231.3587263760539
 31
0.0
  0
LINE
  5
5B7
330
1F
100
AcDbEntity
  8
0
100
AcDbLine
 10
75.73476368004403
 20
231.3587263760539
 30
0.0
 11
75.87121286958377
 21
231.0871092100217
 31
0.0
  0
LINE
  5
5B8
330
1F
100
AcDbEntity
  8
0
100
AcDbLine
 10
74.8933270112155
 20
229.6258857295514
 30
0.0
 11
74.57398465917059
 21
229.6034645012232
 31
0.0
  0
LINE
  5
5B9
330
1F
100
AcDbEntity
  8
0
100
AcDbLine
 10
75.57076840998681
 20
229.9493920240001
 30
0.0
 11
75.37442251048478
 21
229.802052523558
 31
0.0
  0
LINE
  5
5BA
330
1F
100
AcDbEntity
  8
0
100
AcDbLine
 10
75.8939544011738
 20
230.5374688127207
 30
0.0
 11
75.82572980640388
 21
230.3183813816287
 31
0.0
  0
LINE
  5
5BB
330
1F
100
AcDbEntity
  8
0
100
AcDbLine
 10
75.91669593276373
 20
230.7591186699074
 30
0.0
 11
75.8939544011738
 21
230.5374688127207
 31
0.0
  0
ENDSEC
  0
SECTION
  2
OBJECTS
  0
DICTIONARY
  5
C
330
0
100
AcDbDictionary
  3
ACAD_GROUP
350
D
  3
ACAD_LAYOUT
350
1A
  3
ACAD_MATERIAL
350
43
  3
ACAD_MLEADERSTYLE
350
6B
  3
ACAD_MLINESTYLE
350
17
  3
ACAD_PLOTSETTINGS
350
19
  3
ACAD_SCALELIST
350
47
  3
ACAD_VISUALSTYLE
350
2A
  3
ACDBHEADERROUNDTRIPXREC
350
5BC
  3
ACDBVARIABLEDICTIONARY
350
5DD
  0
DICTIONARY
  5
5E4
330
8
100
AcDbDictionary
280
     1
  3
ACAD_XREC_ROUNDTRIP
360
5E5
  0
DICTIONARY
  5
D
102
{ACAD_REACTORS
330
C
102
}
330
C
100
AcDbDictionary
  0
DICTIONARY
  5
1A
102
{ACAD_REACTORS
330
C
102
}
330
C
100
AcDbDictionary
  0
DICTIONARY
  5
43
102
{ACAD_REACTORS
330
C
102
}
330
C
100
AcDbDictionary
  3
BYBLOCK
350
45
  3
BYLAYER
350
44
  3
GLOBAL
350
46
  0
DICTIONARY
  5
6B
102
{ACAD_REACTORS
330
C
102
}
330
C
100
AcDbDictionary
  3
STANDARD
350
6C
  0
DICTIONARY
  5
17
102
{ACAD_REACTORS
330
C
102
}
330
C
100
AcDbDictionary
  3
STANDARD
350
18
  0
DICTIONARY
  5
19
102
{ACAD_REACTORS
330
C
102
}
330
C
100
AcDbDictionary
  0
DICTIONARY
  5
47
102
{ACAD_REACTORS
330
C
102
}
330
C
100
AcDbDictionary
  3
A0
350
48
  3
A1
350
49
  3
A2
350
4A
  3
A3
350
4B
  3
A4
350
4C
  3
A5
350
4D
  3
A6
350
4E
  3
A7
350
4F
  3
A8
350
50
  3
A9
350
51
  3
B0
350
52
  3
B1
350
53
  3
B2
350
54
  3
B3
350
55
  3
B4
350
56
  3
B5
350
57
  3
B6
350
58
  3
B7
350
59
  3
B8
350
5A
  3
B9
350
5B
  3
C0
350
5C
  3
C1
350
5D
  3
C2
350
5E
  3
C3
350
5F
  3
C4
350
60
  3
C5
350
61
  3
C6
350
62
  3
C7
350
63
  3
C8
350
64
  3
C9
350
65
  3
D0
350
66
  3
D1
350
67
  3
D2
350
68
  0
DICTIONARY
  5
2A
102
{ACAD_REACTORS
330
C
102
}
330
C
100
AcDbDictionary
  3
2DWIREFRAME
350
2F
  3
BASIC
350
32
  3
BRIGHTEN
350
36
  3
COLORCHANGE
350
3A
  3
CONCEPTUAL
350
34
  3
DIM
350
35
  3
EDGECOLOROFF
350
3D
  3
FACEPATTERN
350
39
  3
FLAT
350
2B
  3
FLATWITHEDGES
350
2C
  3
GOURAUD
350
2D
  3
GOURAUDWITHEDGES
350
2E
  3
HIDDEN
350
31
  3
JITTEROFF
350
3B
  3
LINEPATTERN
350
38
  3
OVERHANGOFF
350
3C
  3
REALISTIC
350
33
  3
SHADED
350
42
  3
SHADED_WITH_EDGES
350
41
  3
SHADES_OF_GRAY
350
3E
  3
SKETCHY
350
3F
  3
THICKEN
350
37
  3
WIREFRAME
350
30
  3
X-RAY
350
40
  0
DICTIONARY
  5
5BC
102
{ACAD_REACTORS
330
C
102
}
330
C
100
AcDbDictionary
  3
CEPSNID
350
5C6
  3
CEPSNTYPE
350
5C5
  3
DIMSTYLEDATA
350
5DC
  3
FINGERPRINTGUID
350
5C7
  3
HYPERLINKBASE
350
5BF
  3
INSUNITS
350
5C4
  3
LAYOUTDICT
350
5C1
  3
LWETCUNION
350
5C3
  3
PLOTSETDICT
350
5C2
  3
PSVPSCALE
350
5C9
  3
PUCSBASE
350
5CC
  3
PUCSORGBACK
350
5D2
  3
PUCSORGBOTTOM
350
5CE
  3
PUCSORGFRONT
350
5D1
  3
PUCSORGLEFT
350
5CF
  3
PUCSORGRIGHT
350
5D0
  3
PUCSORGTOP
350
5CD
  3
PUCSORTHOREF
350
5CA
  3
PUCSORTHOVIEW
350
5CB
  3
STYLESHEET
350
5C0
  3
TSTACKALIGN
350
5BD
  3
TSTACKSIZE
350
5BE
  3
UCSBASE
350
5D5
  3
UCSORGBACK
350
5DB
  3
UCSORGBOTTOM
350
5D7
  3
UCSORGFRONT
350
5DA
  3
UCSORGLEFT
350
5D8
  3
UCSORGRIGHT
350
5D9
  3
UCSORGTOP
350
5D6
  3
UCSORTHOREF
350
5D3
  3
UCSORTHOVIEW
350
5D4
  3
VERSIONGUID
350
5C8
  0
DICTIONARY
  5
5DD
102
{ACAD_REACTORS
330
C
102
}
330
C
100
AcDbDictionary
  3
CANNOSCALE
350
5E6
  3
CMLEADERSTYLE
350
5DF
  3
CTABLESTYLE
350
5DE
  3
DIMASSOC
350
5E2
  3
HIDETEXT
350
5E3
  3
MSLTSCALE
350
5E7
  0
XRECORD
  5
5E5
102
{ACAD_REACTORS
330
5E4
102
}
330
5E4
100
AcDbXrecord
102
VTR_0.000_0.000_1.000_1.000_VISUALSTYLE
340
2F
102
VTR_0.000_0.000_1.000_1.000_GRIDDISPLAY
 70
     3
102
VTR_0.000_0.000_1.000_1.000_GRIDMAJOR
 70
     5
102
VTR_0.000_0.000_1.000_1.000_DEFAULTLIGHTING
280
     1
102
VTR_0.000_0.000_1.000_1.000_DEFAULTLIGHTINGTYPE
 70
     1
102
VTR_0.000_0.000_1.000_1.000_BRIGHTNESS
141
0.0
102
VTR_0.000_0.000_1.000_1.000_CONTRAST
142
0.0
  0
MATERIAL
  5
45
102
{ACAD_REACTORS
330
43
102
}
102
{ACAD_XDICTIONARY
360
5EA
102
}
330
43
100
AcDbMaterial
  1
BYBLOCK
  0
MATERIAL
  5
44
102
{ACAD_REACTORS
330
43
102
}
102
{ACAD_XDICTIONARY
360
5E8
102
}
330
43
100
AcDbMaterial
  1
BYLAYER
  0
MATERIAL
  5
46
102
{ACAD_REACTORS
330
43
102
}
102
{ACAD_XDICTIONARY
360
5EC
102
}
330
43
100
AcDbMaterial
  1
GLOBAL
  0
ACAD_PROXY_OBJECT
  5
6C
102
{ACAD_REACTORS
330
6B
102
}
330
6B
100
AcDbProxyObject
 90
      499
 91
      505
 93
      610
310
40901902A4063FBFFFFFE056BD1B81E855B9FC0AD7A3703D0AD73F4214DD185B99185C9900AD7A3703D0AC73F90141901A02B5E8DC0F42B1CFC02B5E8DC0F42B1CFE5764000000000000300FC0
340
14
340
0
340
11
340
0
 94
        0
1001
ACAD_MLEADERVER
1070
     2
  0
MLINESTYLE
  5
18
102
{ACAD_REACTORS
330
17
102
}
330
17
100
AcDbMlineStyle
  2
Standard
 70
     0
  3

 62
   256
 51
90.0
 52
90.0
 71
     2
 49
0.5
 62
   256
  6
BYLAYER
 49
-0.5
 62
   256
  6
BYLAYER
  0
ACAD_PROXY_OBJECT
  5
48
102
{ACAD_REACTORS
330
47
102
}
330
47
100
AcDbProxyObject
 90
      499
 91
      503
 93
       41
310
903313A31580
  0
ACAD_PROXY_OBJECT
  5
49
102
{ACAD_REACTORS
330
47
102
}
330
47
100
AcDbProxyObject
 90
      499
 91
      503
 93
      105
310
903313A324000000000000004000
  0
ACAD_PROXY_OBJECT
  5
4A
102
{ACAD_REACTORS
330
47
102
}
330
47
100
AcDbProxyObject
 90
      499
 91
      503
 93
      105
310
903313A344000000000000104000
  0
ACAD_PROXY_OBJECT
  5
4B
102
{ACAD_REACTORS
330
47
102
}
330
47
100
AcDbProxyObject
 90
      499
 91
      503
 93
      105
310
903313A354000000000000144000
  0
ACAD_PROXY_OBJECT
  5
4C
102
{ACAD_REACTORS
330
47
102
}
330
47
100
AcDbProxyObject
 90
      499
 91
      503
 93
      105
310
903313A384000000000000204000
  0
ACAD_PROXY_OBJECT
  5
4D
102
{ACAD_REACTORS
330
47
102
}
330
47
100
AcDbProxyObject
 90
      499
 91
      503
 93
      113
310
904313A31304000000000000244000
  0
ACAD_PROXY_OBJECT
  5
4E
102
{ACAD_REACTORS
330
47
102
}
330
47
100
AcDbProxyObject
 90
      499
 91
      503
 93
      113
310
904313A31364000000000000304000
  0
ACAD_PROXY_OBJECT
  5
4F
102
{ACAD_REACTORS
330
47
102
}
330
47
100
AcDbProxyObject
 90
      499
 91
      503
 93
      113
310
904313A32304000000000000344000
  0
ACAD_PROXY_OBJECT
  5
50
102
{ACAD_REACTORS
330
47
102
}
330
47
100
AcDbProxyObject
 90
      499
 91
      503
 93
      113
310
904313A333040000000000003E4000
  0
ACAD_PROXY_OBJECT
  5
51
102
{ACAD_REACTORS
330
47
102
}
330
47
100
AcDbProxyObject
 90
      499
 91
      503
 93
      113
310
904313A34304000000000000444000
  0
ACAD_PROXY_OBJECT
  5
52
102
{ACAD_REACTORS
330
47
102
}
330
47
100
AcDbProxyObject
 90
      499
 91
      503
 93
      113
310
904313A35304000000000000494000
  0
ACAD_PROXY_OBJECT
  5
53
102
{ACAD_REACTORS
330
47
102
}
330
47
100
AcDbProxyObject
 90
      499
 91
      503
 93
      121
310
905313A3130304000000000000594000
  0
ACAD_PROXY_OBJECT
  5
54
102
{ACAD_REACTORS
330
47
102
}
330
47
100
AcDbProxyObject
 90
      499
 91
      503
 93
      105
310
903323A310000000000000010100
  0
ACAD_PROXY_OBJECT
  5
55
102
{ACAD_REACTORS
330
47
102
}
330
47
100
AcDbProxyObject
 90
      499
 91
      503
 93
      105
310
903343A310000000000000410100
  0
ACAD_PROXY_OBJECT
  5
56
102
{ACAD_REACTORS
330
47
102
}
330
47
100
AcDbProxyObject
 90
      499
 91
      503
 93
      105
310
903383A310000000000000810100
  0
ACAD_PROXY_OBJECT
  5
57
102
{ACAD_REACTORS
330
47
102
}
330
47
100
AcDbProxyObject
 90
      499
 91
      503
 93
      113
310
90431303A310000000000000910100
  0
ACAD_PROXY_OBJECT
  5
58
102
{ACAD_REACTORS
330
47
102
}
330
47
100
AcDbProxyObject
 90
      499
 91
      503
 93
      121
310
9053130303A310000000000001650100
  0
ACAD_PROXY_OBJECT
  5
59
102
{ACAD_REACTORS
330
47
102
}
330
47
100
AcDbProxyObject
 90
      499
 91
      503
 93
      257
310
90E312F31323822203D2031272D3022000000000000200FC000000000000284000
  0
ACAD_PROXY_OBJECT
  5
5A
102
{ACAD_REACTORS
330
47
102
}
330
47
100
AcDbProxyObject
 90
      499
 91
      503
 93
      249
310
90D312F363422203D2031272D3022000000000000240FC000000000000284000
  0
ACAD_PROXY_OBJECT
  5
5B
102
{ACAD_REACTORS
330
47
102
}
330
47
100
AcDbProxyObject
 90
      499
 91
      503
 93
      249
310
90D312F333222203D2031272D3022000000000000280FC000000000000284000
  0
ACAD_PROXY_OBJECT
  5
5C
102
{ACAD_REACTORS
330
47
102
}
330
47
100
AcDbProxyObject
 90
      499
 91
      503
 93
      249
310
90D312F313622203D2031272D30220000000000002C0FC000000000000284000
  0
ACAD_PROXY_OBJECT
  5
5D
102
{ACAD_REACTORS
330
47
102
}
330
47
100
AcDbProxyObject
 90
      499
 91
      503
 93
      249
310
90D332F333222203D2031272D30220000000000002E0FC000000000000284000
  0
ACAD_PROXY_OBJECT
  5
5E
102
{ACAD_REACTORS
330
47
102
}
330
47
100
AcDbProxyObject
 90
      499
 91
      503
 93
      241
310
90C312F3822203D2031272D3022000000000000300FC000000000000284000
  0
ACAD_PROXY_OBJECT
  5
5F
102
{ACAD_REACTORS
330
47
102
}
330
47
100
AcDbProxyObject
 90
      499
 91
      503
 93
      249
310
90D332F313622203D2031272D3022000000000000320FC000000000000284000
  0
ACAD_PROXY_OBJECT
  5
60
102
{ACAD_REACTORS
330
47
102
}
330
47
100
AcDbProxyObject
 90
      499
 91
      503
 93
      241
310
90C312F3422203D2031272D3022000000000000340FC000000000000284000
  0
ACAD_PROXY_OBJECT
  5
61
102
{ACAD_REACTORS
330
47
102
}
330
47
100
AcDbProxyObject
 90
      499
 91
      503
 93
      241
310
90C332F3822203D2031272D3022000000000000360FC000000000000284000
  0
ACAD_PROXY_OBJECT
  5
62
102
{ACAD_REACTORS
330
47
102
}
330
47
100
AcDbProxyObject
 90
      499
 91
      503
 93
      241
310
90C312F3222203D2031272D3022000000000000380FC000000000000284000
  0
ACAD_PROXY_OBJECT
  5
63
102
{ACAD_REACTORS
330
47
102
}
330
47
100
AcDbProxyObject
 90
      499
 91
      503
 93
      241
310
90C332F3422203D2031272D30220000000000003A0FC000000000000284000
  0
ACAD_PROXY_OBJECT
  5
64
102
{ACAD_REACTORS
330
47
102
}
330
47
100
AcDbProxyObject
 90
      499
 91
      503
 93
      161
310
90A3122203D2031272D30224000000000000284000
  0
ACAD_PROXY_OBJECT
  5
65
102
{ACAD_REACTORS
330
47
102
}
330
47
100
AcDbProxyObject
 90
      499
 91
      503
 93
      257
310
90E312D312F3222203D2031272D30220000000000003E0FC000000000000284000
  0
ACAD_PROXY_OBJECT
  5
66
102
{ACAD_REACTORS
330
47
102
}
330
47
100
AcDbProxyObject
 90
      499
 91
      503
 93
      225
310
90A3322203D2031272D302200000000000002100000000000000284000
  0
ACAD_PROXY_OBJECT
  5
67
102
{ACAD_REACTORS
330
47
102
}
330
47
100
AcDbProxyObject
 90
      499
 91
      503
 93
      225
310
90A3622203D2031272D302200000000000006100000000000000284000
  0
ACAD_PROXY_OBJECT
  5
68
102
{ACAD_REACTORS
330
47
102
}
330
47
100
AcDbProxyObject
 90
      499
 91
      503
 93
      249
310
90D31272D3022203D2031272D30220000000000000A100000000000000284000
  0
ACAD_PROXY_OBJECT
  5
2F
102
{ACAD_REACTORS
330
2A
102
}
330
2A
100
AcDbProxyObject
 90
      499
 91
      501
 93
      436
310
42CC9915DA5C99599C985B595049028333333333333E33F0000000000000F90107901411070040501600405405064090741402480A0340
1001
ACAD
1000
AcDbSavedByObjectVersion
1070
     0
  0
ACAD_PROXY_OBJECT
  5
32
102
{ACAD_REACTORS
330
2A
102
}
330
2A
100
AcDbProxyObject
 90
      499
 91
      501
 93
      388
310
4150985CDA58D07406404333333333333E33F0000000000000F90107A41107004050150841D405064090741402480A0350
1001
ACAD
1000
AcDbSavedByObjectVersion
1070
     0
  0
ACAD_PROXY_OBJECT
  5
36
102
{ACAD_REACTORS
330
2A
102
}
330
2A
100
AcDbProxyObject
 90
      499
 91
      501
 93
      428
310
42109C9A59DA1D195B90C409028333333333333E33F0000000000000F9010790141107004050150841D405064090741402480A029950
1001
ACAD
1000
AcDbSavedByObjectVersion
1070
     0
  0
ACAD_PROXY_OBJECT
  5
3A
102
{ACAD_REACTORS
330
2A
102
}
330
2A
100
AcDbProxyObject
 90
      499
 91
      501
 93
      452
310
42D0DBDB1BDC90DA185B99D95104090240C333333333333E33F0000000000000F90108901411070040501508421405064090741402480A0350
1001
ACAD
1000
AcDbSavedByObjectVersion
1070
     0
  0
ACAD_PROXY_OBJECT
  5
34
102
{ACAD_REACTORS
330
2A
102
}
330
2A
100
AcDbProxyObject
 90
      499
 91
      501
 93
      500
310
4290DBDB98D95C1D1D585B10940D028333333333333E33F0000000000000F90107902409070040501000000000018199010841D405064090740C02480A0340
1001
ACAD
1000
AcDbSavedByObjectVersion
1070
     0
  0
ACAD_PROXY_OBJECT
  5
35
102
{ACAD_REACTORS
330
2A
102
}
330
2A
100
AcDbProxyObject
 90
      499
 91
      501
 93
      412
310
40D11A5B50B409028333333333333E33F0000000000000F9010790141107004050150841D405064090741402480A02677FFFFFD0
1001
ACAD
1000
AcDbSavedByObjectVersion
1070
     0
  0
ACAD_PROXY_OBJECT
  5
3D
102
{ACAD_REACTORS
330
2A
102
}
330
2A
100
AcDbProxyObject
 90
      499
 91
      501
 93
      452
310
43115919D950DBDB1BDC93D999916409028333333333333E33F0000000000000F9010790141107004050150841D405064090741402480A0350
1001
ACAD
1000
AcDbSavedByObjectVersion
1070
     0
  0
ACAD_PROXY_OBJECT
  5
39
102
{ACAD_REACTORS
330
2A
102
}
330
2A
100
AcDbProxyObject
 90
      499
 91
      501
 93
      444
310
42D19858D95C185D1D195C9B90F409028333333333333E33F0000000000000F9010790141107004050150841D405064090741402480A0350
1001
ACAD
1000
AcDbSavedByObjectVersion
1070
     0
  0
ACAD_PROXY_OBJECT
  5
2B
102
{ACAD_REACTORS
330
2A
102
}
330
2A
100
AcDbProxyObject
 90
      499
 91
      501
 93
      380
310
41119B185D240901404333333333333E33F0000000000000F9010740A907004050150841D405064090741402480A1B50
1001
ACAD
1000
AcDbSavedByObjectVersion
1070
     0
  0
ACAD_PROXY_OBJECT
  5
2C
102
{ACAD_REACTORS
330
2A
102
}
330
2A
100
AcDbProxyObject
 90
      499
 91
      501
 93
      468
310
43519B185D15DA5D1A115919D95CD0140901404333333333333E33F0000000000000F90107409019070040501600405405064090741402480A1B50
1001
ACAD
1000
AcDbSavedByObjectVersion
1070
     0
  0
ACAD_PROXY_OBJECT
  5
2D
102
{ACAD_REACTORS
330
2A
102
}
330
2A
100
AcDbProxyObject
 90
      499
 91
      501
 93
      404
310
41D1DBDD5C985D5910240902404333333333333E33F0000000000000F9010740A9070040501641D405064090741402480A1B50
1001
ACAD
1000
AcDbSavedByObjectVersion
1070
     0
  0
ACAD_PROXY_OBJECT
  5
2E
102
{ACAD_REACTORS
330
2A
102
}
330
2A
100
AcDbProxyObject
 90
      499
 91
      501
 93
      492
310
4411DBDD5C985D5915DA5D1A115919D95CD0340902404333333333333E33F0000000000000F90107409019070040501600405405064090741402480A1B50
1001
ACAD
1000
AcDbSavedByObjectVersion
1070
     0
  0
ACAD_PROXY_OBJECT
  5
31
102
{ACAD_REACTORS
330
2A
102
}
330
2A
100
AcDbProxyObject
 90
      499
 91
      501
 93
      476
310
41921A5919195B90640502408333333333333E33F0000000000000F901079024090700405020000000000001110200405405064090740C02480A0340
1001
ACAD
1000
AcDbSavedByObjectVersion
1070
     0
  0
ACAD_PROXY_OBJECT
  5
3B
102
{ACAD_REACTORS
330
2A
102
}
330
2A
100
AcDbProxyObject
 90
      499
 91
      501
 93
      428
310
42529A5D1D195C93D999914409028333333333333E33F0000000000000F9010790141107004050150A41D405064090741402480A0350
1001
ACAD
1000
AcDbSavedByObjectVersion
1070
     0
  0
ACAD_PROXY_OBJECT
  5
38
102
{ACAD_REACTORS
330
2A
102
}
330
2A
100
AcDbProxyObject
 90
      499
 91
      501
 93
      444
310
42D31A5B995C185D1D195C9B90E409028333333333333E33F0000000000000F9010790141107004050750841D405064090741402483A0350
1001
ACAD
1000
AcDbSavedByObjectVersion
1070
     0
  0
ACAD_PROXY_OBJECT
  5
3C
102
{ACAD_REACTORS
330
2A
102
}
330
2A
100
AcDbProxyObject
 90
      499
 91
      501
 93
      444
310
42D3DD995C9A185B99D3D999915409028333333333333E33F0000000000000F9010790141107004050150941D405064090741402480A0350
1001
ACAD
1000
AcDbSavedByObjectVersion
1070
     0
  0
ACAD_PROXY_OBJECT
  5
33
102
{ACAD_REACTORS
330
2A
102
}
330
2A
100
AcDbProxyObject
 90
      499
 91
      501
 93
      428
310
425499585B1A5CDD1A58D08409038333333333333E33F0000000000000F9010740A907004050150800405405064090740C02480A1B40
1001
ACAD
1000
AcDbSavedByObjectVersion
1070
     0
  0
ACAD_PROXY_OBJECT
  5
42
102
{ACAD_REACTORS
330
2A
102
}
330
2A
100
AcDbProxyObject
 90
      499
 91
      501
 93
      420
310
4194DA1859195911B40902404333333333333E33F0000000000000F9010740A41107004050150800405405064090840C02480A0B40
1001
ACAD
1000
AcDbSavedByObjectVersion
1070
     0
  0
ACAD_PROXY_OBJECT
  5
41
102
{ACAD_REACTORS
330
2A
102
}
330
2A
100
AcDbProxyObject
 90
      499
 91
      501
 93
      516
310
4454DA18591959081DDA5D1A08195919D95CD1A40902404333333333333E33F0000000000000F901074090142907004050250800405405064090740C02480A0B40
1001
ACAD
1000
AcDbSavedByObjectVersion
1070
     0
  0
ACAD_PROXY_OBJECT
  5
3E
102
{ACAD_REACTORS
330
2A
102
}
330
2A
100
AcDbProxyObject
 90
      499
 91
      501
 93
      532
310
4394DA1859195CC81BD98811DC985E5174090240C333333333333E33F0000000000000F901079024090741D01000000000000111010841D405064090740C02480A0340
1001
ACAD
1000
AcDbSavedByObjectVersion
1070
     0
  0
ACAD_PROXY_OBJECT
  5
3F
102
{ACAD_REACTORS
330
2A
102
}
330
2A
100
AcDbProxyObject
 90
      499
 91
      501
 93
      476
310
41D4DAD95D18DA1E51840502408333333333333E33F0000000000000F901079024090741D01000000000000111010B41D405064090741802480A0340
1001
ACAD
1000
AcDbSavedByObjectVersion
1070
     0
  0
ACAD_PROXY_OBJECT
  5
37
102
{ACAD_REACTORS
330
2A
102
}
330
2A
100
AcDbProxyObject
 90
      499
 91
      501
 93
      412
310
41D51A1A58DAD95B90D409028333333333333E33F0000000000000F9010790141107004050150C41D405064090741402480A0350
1001
ACAD
1000
AcDbSavedByObjectVersion
1070
     0
  0
ACAD_PROXY_OBJECT
  5
30
102
{ACAD_REACTORS
330
2A
102
}
330
2A
100
AcDbProxyObject
 90
      499
 91
      501
 93
      420
310
4255DA5C99599C985B595059028333333333333E33F0000000000000F90107901411070040501600405405064090740C02480A0340
1001
ACAD
1000
AcDbSavedByObjectVersion
1070
     0
  0
ACAD_PROXY_OBJECT
  5
40
102
{ACAD_REACTORS
330
2A
102
}
330
2A
100
AcDbProxyObject
 90
      499
 91
      501
 93
      404
310
41560B54985E51940902404000000000000E03F0000000000000F9010740501907004050150841D405064090740C02480A1B40
1001
ACAD
1000
AcDbSavedByObjectVersion
1070
     0
  0
XRECORD
  5
5C6
102
{ACAD_REACTORS
330
5BC
102
}
330
5BC
100
AcDbXrecord
340
0
  0
XRECORD
  5
5C5
102
{ACAD_REACTORS
330
5BC
102
}
330
5BC
100
AcDbXrecord
 90
        0
  0
XRECORD
  5
5DC
102
{ACAD_REACTORS
330
5BC
102
}
330
5BC
100
AcDbXrecord
1000
DSTYLE
1002
{
1070
   171
 70
     2
1070
   143
 40
25.4
1070
   274
 70
     2
1070
    41
 40
0.18
1070
   141
 40
0.09
1070
   271
 70
     4
1070
    43
 40
0.38
1070
   278
 70
    46
1070
    44
 40
0.18
1070
    42
 40
0.0625
1070
   147
 40
0.09
1070
    77
 70
     0
1070
   272
 70
     4
1070
    73
 70
     1
1070
   172
 70
     0
1070
    74
 70
     1
1070
   283
 70
     1
1070
   340
340
11
1070
   140
 40
0.18
1070
   284
 70
     0
1070
    78
 70
     0
1002
}
  0
XRECORD
  5
5C7
102
{ACAD_REACTORS
330
5BC
102
}
330
5BC
100
AcDbXrecord
  1
{28abac6e-35ad-4e8c-9472-cda52962d5cc}
  0
XRECORD
  5
5BF
102
{ACAD_REACTORS
330
5BC
102
}
330
5BC
100
AcDbXrecord
  1

  0
XRECORD
  5
5C4
102
{ACAD_REACTORS
330
5BC
102
}
330
5BC
100
AcDbXrecord
 90
        4
  0
XRECORD
  5
5C1
102
{ACAD_REACTORS
330
5BC
102
}
330
5BC
100
AcDbXrecord
340
1A
  0
XRECORD
  5
5C3
102
{ACAD_REACTORS
330
5BC
102
}
330
5BC
100
AcDbXrecord
 90
    10781
  0
XRECORD
  5
5C2
102
{ACAD_REACTORS
330
5BC
102
}
330
5BC
100
AcDbXrecord
340
19
  0
XRECORD
  5
5C9
102
{ACAD_REACTORS
330
5BC
102
}
330
5BC
100
AcDbXrecord
 40
0.0
  0
XRECORD
  5
5CC
102
{ACAD_REACTORS
330
5BC
102
}
330
5BC
100
AcDbXrecord
340
0
  0
XRECORD
  5
5D2
102
{ACAD_REACTORS
330
5BC
102
}
330
5BC
100
AcDbXrecord
 10
0.0
 20
0.0
 30
0.0
  0
XRECORD
  5
5CE
102
{ACAD_REACTORS
330
5BC
102
}
330
5BC
100
AcDbXrecord
 10
0.0
 20
0.0
 30
0.0
  0
XRECORD
  5
5D1
102
{ACAD_REACTORS
330
5BC
102
}
330
5BC
100
AcDbXrecord
 10
0.0
 20
0.0
 30
0.0
  0
XRECORD
  5
5CF
102
{ACAD_REACTORS
330
5BC
102
}
330
5BC
100
AcDbXrecord
 10
0.0
 20
0.0
 30
0.0
  0
XRECORD
  5
5D0
102
{ACAD_REACTORS
330
5BC
102
}
330
5BC
100
AcDbXrecord
 10
0.0
 20
0.0
 30
0.0
  0
XRECORD
  5
5CD
102
{ACAD_REACTORS
330
5BC
102
}
330
5BC
100
AcDbXrecord
 10
0.0
 20
0.0
 30
0.0
  0
XRECORD
  5
5CA
102
{ACAD_REACTORS
330
5BC
102
}
330
5BC
100
AcDbXrecord
340
0
  0
XRECORD
  5
5CB
102
{ACAD_REACTORS
330
5BC
102
}
330
5BC
100
AcDbXrecord
 70
     0
  0
XRECORD
  5
5C0
102
{ACAD_REACTORS
330
5BC
102
}
330
5BC
100
AcDbXrecord
  1

  0
XRECORD
  5
5BD
102
{ACAD_REACTORS
330
5BC
102
}
330
5BC
100
AcDbXrecord
 90
        1
  0
XRECORD
  5
5BE
102
{ACAD_REACTORS
330
5BC
102
}
330
5BC
100
AcDbXrecord
 90
       70
  0
XRECORD
  5
5D5
102
{ACAD_REACTORS
330
5BC
102
}
330
5BC
100
AcDbXrecord
340
0
  0
XRECORD
  5
5DB
102
{ACAD_REACTORS
330
5BC
102
}
330
5BC
100
AcDbXrecord
 10
0.0
 20
0.0
 30
0.0
  0
XRECORD
  5
5D7
102
{ACAD_REACTORS
330
5BC
102
}
330
5BC
100
AcDbXrecord
 10
0.0
 20
0.0
 30
0.0
  0
XRECORD
  5
5DA
102
{ACAD_REACTORS
330
5BC
102
}
330
5BC
100
AcDbXrecord
 10
0.0
 20
0.0
 30
0.0
  0
XRECORD
  5
5D8
102
{ACAD_REACTORS
330
5BC
102
}
330
5BC
100
AcDbXrecord
 10
0.0
 20
0.0
 30
0.0
  0
XRECORD
  5
5D9
102
{ACAD_REACTORS
330
5BC
102
}
330
5BC
100
AcDbXrecord
 10
0.0
 20
0.0
 30
0.0
  0
XRECORD
  5
5D6
102
{ACAD_REACTORS
330
5BC
102
}
330
5BC
100
AcDbXrecord
 10
0.0
 20
0.0
 30
0.0
  0
XRECORD
  5
5D3
102
{ACAD_REACTORS
330
5BC
102
}
330
5BC
100
AcDbXrecord
340
0
  0
XRECORD
  5
5D4
102
{ACAD_REACTORS
330
5BC
102
}
330
5BC
100
AcDbXrecord
 70
     0
  0
XRECORD
  5
5C8
102
{ACAD_REACTORS
330
5BC
102
}
330
5BC
100
AcDbXrecord
  1
{FAEB1C32-E019-11D5-929B-00C0DF256EC4}
  0
DICTIONARYVAR
  5
5E6
102
{ACAD_REACTORS
330
5DD
102
}
330
5DD
100
DictionaryVariables
280
     0
  1
1:1
  0
DICTIONARYVAR
  5
5DF
102
{ACAD_REACTORS
330
5DD
102
}
330
5DD
100
DictionaryVariables
280
     0
  1
Standard
  0
DICTIONARYVAR
  5
5DE
102
{ACAD_REACTORS
330
5DD
102
}
330
5DD
100
DictionaryVariables
280
     0
  1
Standard
  0
DICTIONARYVAR
  5
5E2
102
{ACAD_REACTORS
330
5DD
102
}
330
5DD
100
DictionaryVariables
280
     0
  1
2
  0
DICTIONARYVAR
  5
5E3
102
{ACAD_REACTORS
330
5DD
102
}
330
5DD
100
DictionaryVariables
280
     0
  1
1
  0
DICTIONARYVAR
  5
5E7
102
{ACAD_REACTORS
330
5DD
102
}
330
5DD
100
DictionaryVariables
280
     0
  1
1
  0
DICTIONARY
  5
5EA
330
45
100
AcDbDictionary
280
     1
  3
ACAD_XREC_ROUNDTRIP
360
5EB
  0
DICTIONARY
  5
5E8
330
44
100
AcDbDictionary
280
     1
  3
ACAD_XREC_ROUNDTRIP
360
5E9
  0
DICTIONARY
  5
5EC
330
46
100
AcDbDictionary
280
     1
  3
ACAD_XREC_ROUNDTRIP
360
5ED
  0
XRECORD
  5
5EB
102
{ACAD_REACTORS
330
5EA
102
}
330
5EA
100
AcDbXrecord
102
MATERIAL
148
0.0
149
0.0
149
0.0
 93
        0
 94
      127
282
     0
 72
     1
 77
     1
171
     1
175
     1
179
     1
273
     0
  0
XRECORD
  5
5E9
102
{ACAD_REACTORS
330
5E8
102
}
330
5E8
100
AcDbXrecord
102
MATERIAL
148
0.0
149
0.0
149
0.0
 93
        0
 94
      127
282
     0
 72
     1
 77
     1
171
     1
175
     1
179
     1
273
     0
  0
XRECORD
  5
5ED
102
{ACAD_REACTORS
330
5EC
102
}
330
5EC
100
AcDbXrecord
102
MATERIAL
148
0.0
149
0.0
149
0.0
 93
        0
 94
      127
282
     0
 72
     1
 77
     1
171
     1
175
     1
179
     1
273
     0
  0
ENDSEC
  0
EOF
