0
SECTION
2
HEADER
9
$INSUNITS
70
4
9
$ACADVER
1
AC1014
9
$HANDSEED
5
FFFF
0
ENDSEC
0
SECTION
2
TABLES
0
TABLE
2
VPORT
5
8
100
AcDbSymbolTable
0
ENDTAB
0
TABLE
2
LTYPE
5
5
100
AcDbSymbolTable
0
LTYPE
5
14
100
AcDbSymbolTableRecord
100
AcDbLinetypeTableRecord
2
BYBLOCK
70
0
0
LTYPE
5
15
100
AcDbSymbolTableRecord
100
AcDbLinetypeTableRecord
2
BYLAYER
70
0
0
ENDTAB
0
TABLE
2
LAYER
5
2
100
AcDbSymbolTable
70
2
0
LAYER
5
50
100
AcDbSymbolTableRecord
100
AcDbLayerTableRecord
2
0
70
0
6
CONTINUOUS
0
ENDTAB
0
TABLE
2
STYLE
5
3
100
AcDbSymbolTable
70
1
0
STYLE
5
11
100
AcDbSymbolTableRecord
100
AcDbTextStyleTableRecord
2
STANDARD
70
0
0
ENDTAB
0
TABLE
2
VIEW
5
6
100
AcDbSymbolTable
70
0
0
ENDTAB
0
TABLE
2
UCS
5
7
100
AcDbSymbolTable
70
0
0
ENDTAB
0
TABLE
2
APPID
5
9
100
AcDbSymbolTable
70
2
0
APPID
5
12
100
AcDbSymbolTableRecord
100
AcDbRegAppTableRecord
2
ACAD
70
0
0
ENDTAB
0
TABLE
2
DIMSTYLE
5
A
100
AcDbSymbolTable
70
1
0
ENDTAB
0
TABLE
2
BLOCK_RECORD
5
1
100
AcDbSymbolTable
70
1
0
BLOCK_RECORD
5
1F
100
AcDbSymbolTableRecord
100
AcDbBlockTableRecord
2
*MODEL_SPACE
0
BLOCK_RECORD
5
1B
100
AcDbSymbolTableRecord
100
AcDbBlockTableRecord
2
*PAPER_SPACE
0
ENDTAB
0
ENDSEC
0
SECTION
2
BLOCKS
0
BLOCK
5
20
100
AcDbEntity
100
AcDbBlockBegin
2
*MODEL_SPACE
0
ENDBLK
5
21
100
AcDbEntity
100
AcDbBlockEnd
0
BLOCK
5
1C
100
AcDbEntity
100
AcDbBlockBegin
2
*PAPER_SPACE
0
ENDBLK
5
1D
100
AcDbEntity
100
AcDbBlockEnd
0
ENDSEC
0
SECTION
2
ENTITIES
0
LWPOLYLINE
5
100
100
AcDbEntity
8
0
100
AcDbPolyline
90
23
70
1
43
0.0
10
257.42941666666695
20
206.93210416666662
10
257.42941666666695
20
146.93254166666659
10
255.17781250000024
20
146.93254166666662
10
255.17781250000027
20
131.93331249999994
10
270.17968750000023
20
131.93331249999994
10
270.17968750000023
20
135.14799999999997
10
270.17968750000023
20
135.93299999999996
10
390.17881250000022
20
135.93299999999732
10
390.17881250000022
20
135.14799999999994
10
390.17881250000016
20
131.93331249999991
10
405.17804166666673
20
131.93331249999994
10
405.17804166666679
20
146.93254166666659
10
402.92908333333344
20
146.93254166666662
10
402.92908333333344
20
206.93210416666665
10
405.17804166666679
20
206.93210416666662
10
405.17804166666679
20
221.93133333333327
10
390.17881250000022
20
221.93133333333327
10
390.17881250000016
20
219.68237499999992
10
390.17881250000016
20
218.93137499999619
10
270.17968750000017
20
218.93137499999997
10
270.17968750000023
20
221.93133333333333
10
255.17781250000027
20
221.93133333333327
10
255.17781250000027
20
206.93210416666662
0
LWPOLYLINE
5
101
100
AcDbEntity
8
0
100
AcDbPolyline
90
24
70
1
43
0.0
10
237.7364791666669
20
228.32895833333333
10
237.7364791666669
20
226.07735416666662
10
249.73575000000005
20
226.07735416666662
10
249.73575000000005
20
241.0765833333333
10
250.48675000000003
20
241.0765833333333
10
252.73570833333338
20
241.0765833333333
10
252.73570833333338
20
361.07835416666666
10
250.48675000000003
20
361.07835416666666
10
249.73575000000005
20
361.07835416666666
10
249.73574999999997
20
376.07758333333334
10
237.73647916666678
20
376.07758333333328
10
237.7364791666669
20
372.86289583333325
10
57.737791666666887
20
372.86289583333325
10
57.737791666666851
20
376.07758333333328
10
46.738895833333522
20
376.07758333333328
10
46.738895833333522
20
361.0783541666666
10
45.9558958333335
20
361.0783541666666
10
42.738562500000199
20
361.07835416666666
10
42.738562500000228
20
241.07658333333333
10
45.955895833333528
20
241.0765833333333
10
46.738895833333522
20
241.0765833333333
10
46.738895833333522
20
226.07735416666662
10
57.737791666666887
20
226.07735416666662
10
57.737791666666851
20
228.32895833333333
0
LWPOLYLINE
5
102
100
AcDbEntity
8
0
100
AcDbPolyline
90
26
70
1
43
0.0
10
-59.350405956320373
20
326.65921432529814
10
-57.228958333333217
20
328.78066666666666
10
-67.825520833333158
20
339.39839583333338
10
-78.430020833333273
20
328.79124999999993
10
-76.839874999999893
20
327.20110416666665
10
-235.61897916666646
20
168.42199999999994
10
-237.20912499999991
20
170.01214583333331
10
-247.81627083333325
20
159.40499999999997
10
-237.22235416666655
20
148.78727083333328
10
-234.67809267116411
20
151.33153232883569
10
-234.46596063680789
20
151.54366436319188
10
-234.18311792433119
20
151.82650707566856
10
-149.3299134031391
20
66.973302554471132
10
-149.61275611561373
20
66.690459841996528
10
-149.82488814996969
20
66.478327807640568
10
-152.37047916666657
20
63.93274999999992
10
-141.76333333333315
20
53.31502083333325
10
-131.00537499999987
20
63.932749999999899
10
-132.73574999999988
20
65.53877083333326
10
26.053937500000099
20
224.32581249999996
10
27.898083333333471
20
222.48431249999996
10
38.505229166666766
20
233.08881249999999
10
27.878706727664898
20
243.67564743900181
10
25.754573849912234
20
241.55158079344889
10
25.047456044567078
20
240.84448503661503
10
-60.057523761676698
20
325.95211856845322
0
LWPOLYLINE
5
103
100
AcDbEntity
8
0
100
AcDbPolyline
90
25
70
1
43
0.0
10
-140.61768749999985
20
26.904312499999961
10
-140.61768749999985
20
37.788854166666646
10
-155.61691666666653
20
37.788854166666646
10
-155.61691666666653
20
38.088854166666643
10
-155.61691666666653
20
38.688854166666644
10
-155.61691666666661
20
41.903541666666612
10
-275.6160416666666
20
41.916770833333302
10
-275.61604166666655
20
38.702083333333292
10
-275.61604166666655
20
38.10208333333329
10
-275.61604166666655
20
37.802083333333293
10
-290.61791666666659
20
37.802083333333343
10
-290.61791666666664
20
26.904312499999921
10
-288.36631249999994
20
26.904312499999961
10
-288.36631249999988
20
-78.082354166666704
10
-290.61791666666659
20
-78.08235416666669
10
-290.61791666666664
20
-90.832625000000036
10
-275.6160416666666
20
-90.832625000000036
10
-275.61604166666655
20
-93.084229166666745
10
-275.61604166666655
20
-93.832229166668682
10
-155.61791666666662
20
-93.832229166666792
10
-155.61691666666661
20
-90.832625000000064
10
-140.61768749999993
20
-90.832625000000036
10
-140.61768749999985
20
-78.08235416666669
10
-142.86664583333317
20
-78.08235416666669
10
-142.86664583333319
20
26.904312499999978
0
LWPOLYLINE
5
104
100
AcDbEntity
8
0
100
AcDbPolyline
90
28
70
1
43
0.0
10
-122.25560416666653
20
-97.272583333333458
10
-137.25483333333321
20
-97.272583333333458
10
-137.25483333333315
20
-112.27227083333344
10
-135.00587499999983
20
-112.27227083333344
10
-134.2548749999998
20
-112.27227083333344
10
-134.2548749999998
20
-232.28152083333342
10
-135.0058749999998
20
-232.28152083333342
10
-137.25483333333312
20
-232.28152083333342
10
-137.25483333333315
20
-247.28339583333337
10
-122.25560416666647
20
-247.28339583333337
10
-122.25560416666653
20
-245.03179166666678
10
-122.25560416666653
20
-244.28379166666826
10
-62.256041666666526
20
-244.28379166666684
10
-62.256041666666526
20
-245.03179166666683
10
-62.256041666666562
20
-247.28339583333343
10
-47.254166666666606
20
-247.28339583333337
10
-47.254166666666606
20
-232.28152083333342
10
-50.254499999999879
20
-232.28152083333342
10
-51.254499999999872
20
-232.28152083333342
10
-51.254499999999872
20
-112.29593750000001
10
-50.254499999999879
20
-112.29593750000001
10
-47.254166666666578
20
-112.29593750000001
10
-47.254166666666606
20
-97.296395833333449
10
-62.256041666666562
20
-97.272583333333401
10
-62.256041666666562
20
-100.05600000000013
10
-62.256041666666562
20
-100.27215811897602
10
-122.262233883755
20
-100.27215811897602
10
-122.25560416666656
20
-99.524187500000039
0
LWPOLYLINE
5
105
100
AcDbEntity
8
0
100
AcDbPolyline
90
24
70
1
43
0.0
10
57.737791666666915
20
-161.66687500000018
10
57.737791666666851
20
-164.88420833333348
10
177.73956250000012
20
-164.88420833333345
10
177.73956250000012
20
-161.66687500000012
10
177.73956250000012
20
-160.88387500000013
10
192.73879166666683
20
-160.88387500000005
10
192.73879166666674
20
-149.88233333333349
10
190.48983333333339
20
-149.88233333333346
10
190.48983333333354
20
-52.600333333333381
10
192.73879166666688
20
-52.600333333333396
10
192.73879166666674
20
-41.815791666665106
10
177.73956250000003
20
-41.815791666665291
10
177.73956250000003
20
-40.815791666666712
10
177.73956250000012
20
-37.818104166669421
10
57.737791666666837
20
-37.818104166666771
10
57.737791666666851
20
-40.81579166666674
10
57.737791666666851
20
-41.815791666666733
10
42.738562500000171
20
-41.815791666666811
10
42.738562500000228
20
-52.600333333333367
10
44.990166666666831
20
-52.600333333333396
10
44.990166666666767
20
-149.88233333333349
10
42.738562500000164
20
-149.88233333333346
10
42.738562500000228
20
-160.88387500000084
10
57.737791666666915
20
-160.88387500000073
0
LWPOLYLINE
5
106
100
AcDbEntity
8
0
100
AcDbPolyline
90
24
70
1
43
0.0
10
504.67195833333363
20
80.270770833333245
10
504.67195833333363
20
83.48545833333327
10
504.67195833333363
20
84.270458333333266
10
624.67108333333363
20
84.270458333330623
10
624.67108333333363
20
83.485458333333256
10
624.67108333333363
20
80.270770833333231
10
639.67031250000014
20
80.270770833333245
10
639.67031250000014
20
95.269999999999925
10
637.42135416666679
20
95.269999999999939
10
637.42135416666679
20
110.2665833333333
10
639.67031250000014
20
110.2665833333333
10
639.67031250000014
20
125.26845833333331
10
624.67108333333363
20
125.26845833333333
10
624.67108333333363
20
123.01685416666666
10
624.67108333333363
20
122.26985416666666
10
504.67195833333358
20
122.26985416667046
10
504.67195833333358
20
123.01685416666665
10
504.67195833333363
20
125.26845833333331
10
489.67008333333348
20
125.26845833333333
10
489.67008333333354
20
110.26658333333332
10
491.9216875000003
20
110.2665833333333
10
491.92168750000008
20
95.269999999999939
10
489.67008333333331
20
95.269999999999939
10
489.67008333333354
20
80.270770833333259
0
LINE
5
107
100
AcDbEntity
8
0
100
AcDbLine
10
-847.35416666666674
20
-158.91256250000004
30
0
11
-849.60312500000009
21
-158.91256250000004
31
0
0
LINE
5
108
100
AcDbEntity
8
0
100
AcDbLine
10
-849.60312500000009
20
-158.91256250000004
30
0
11
-849.60312499999998
21
-143.91333333333338
31
0
0
LINE
5
109
100
AcDbEntity
8
0
100
AcDbLine
10
-847.35416666666674
20
-143.91333333333336
30
0
11
-847.35416666666674
21
-158.91256250000004
31
0
0
LWPOLYLINE
5
110
100
AcDbEntity
8
0
100
AcDbPolyline
90
23
70
1
43
0.0
10
211.25433333333348
20
-28.30364583333342
10
221.86147916666684
20
-17.696500000000107
10
223.58127083333352
20
-19.416291666666794
10
292.37029166666684
20
49.372729166666559
10
290.65050000000019
20
51.092520833333239
10
299.11187500000028
20
59.297249999999906
10
309.71902083333339
20
48.6901041666666
10
311.99443750000012
20
50.962874999999926
10
396.84631250000007
20
-33.889000000000081
10
394.57089583333357
20
-36.161770833333435
10
403.58789583333356
20
-45.178770833333388
10
405.17804166666679
20
-46.768916666666712
10
396.84631250000018
20
-55.100645833333374
10
395.25616666666673
20
-53.510500000000064
10
326.46714583333346
20
-122.29952083333347
10
328.05729166666686
20
-123.8923125000001
10
317.45014583333341
20
-134.49681250000015
10
306.84300000000007
20
-123.89231250000014
10
309.11841666666686
20
-121.6168958333334
10
309.67136554851959
20
-121.06392970954481
10
224.81817625282187
20
-36.210740413845059
10
224.6894828186459
20
-36.082046979669116
10
221.86243156582418
20
-38.909098232490777
0
LINE
5
111
100
AcDbEntity
8
0
100
AcDbLine
10
-135.00587499999983
20
-112.80627083333343
30
0
11
-135.00587499999983
21
-112.27227083333344
31
0
0
LWPOLYLINE
5
112
100
AcDbEntity
8
0
100
AcDbPolyline
90
22
70
1
43
0.0
10
490
20
75
10
505
20
74.999999999999986
10
505
20
77.999999999999986
10
625
20
77.999999999999986
10
625
20
75
10
640
20
75
10
640
20
60
10
643
20
60
10
643
20
-30
10
640
20
-30
10
640
20
-44
10
625
20
-44
10
625
20
-45
10
625
20
-48
10
505
20
-48
10
505
20
-45
10
505
20
-44
10
490
20
-44
10
490
20
-30
10
487
20
-30
10
487
20
60
10
490
20
60
0
ENDSEC
0
SECTION
2
OBJECTS
0
DICTIONARY
5
C
100
AcDbDictionary
3
ACAD_GROUP
350
D
3
ACAD_MLINESTYLE
350
17
0
DICTIONARY
5
D
100
AcDbDictionary
0
DICTIONARY
5
1A
330
C
100
AcDbDictionary
0
DICTIONARY
5
17
100
AcDbDictionary
0
ENDSEC
0
EOF
