  0
SECTION
  2
HEADER
  9
$ACADVER
  1
AC1021
  9
$ACADMAINTVER
 70
    25
  9
$DWGCODEPAGE
  3
ANSI_1252
  9
$INSBASE
 10
0.0
 20
0.0
 30
0.0
  9
$EXTMIN
 10
-17.85201968503937
 20
9.119673228346457
 30
0.0
  9
$EXTMAX
 10
-15.10579133858268
 20
11.8267125984252
 30
0.0
  9
$LIMMIN
 10
0.0
 20
0.0
  9
$LIMMAX
 10
12.0
 20
9.0
  9
$ORTHOMODE
 70
     0
  9
$REGENMODE
 70
     1
  9
$FILLMODE
 70
     1
  9
$QTEXTMODE
 70
     0
  9
$MIRRTEXT
 70
     1
  9
$LTSCALE
 40
1.0
  9
$ATTMODE
 70
     1
  9
$TEXTSIZE
 40
0.2
  9
$TRACEWID
 40
0.05
  9
$TEXTSTYLE
  7
Standard
  9
$CLAYER
  8
0
  9
$CELTYPE
  6
ByLayer
  9
$CECOLOR
 62
   256
  9
$CELTSCALE
 40
1.0
  9
$DISPSILH
 70
     0
  9
$DIMSCALE
 40
1.0
  9
$DIMASZ
 40
0.18
  9
$DIMEXO
 40
0.0625
  9
$DIMDLI
 40
0.38
  9
$DIMRND
 40
0.0
  9
$DIMDLE
 40
0.0
  9
$DIMEXE
 40
0.18
  9
$DIMTP
 40
0.0
  9
$DIMTM
 40
0.0
  9
$DIMTXT
 40
0.18
  9
$DIMCEN
 40
0.09
  9
$DIMTSZ
 40
0.0
  9
$DIMTOL
 70
     0
  9
$DIMLIM
 70
     0
  9
$DIMTIH
 70
     1
  9
$DIMTOH
 70
     1
  9
$DIMSE1
 70
     0
  9
$DIMSE2
 70
     0
  9
$DIMTAD
 70
     0
  9
$DIMZIN
 70
     0
  9
$DIMBLK
  1

  9
$DIMASO
 70
     1
  9
$DIMSHO
 70
     1
  9
$DIMPOST
  1

  9
$DIMAPOST
  1

  9
$DIMALT
 70
     0
  9
$DIMALTD
 70
     2
  9
$DIMALTF
 40
25.4
  9
$DIMLFAC
 40
1.0
  9
$DIMTOFL
 70
     0
  9
$DIMTVP
 40
0.0
  9
$DIMTIX
 70
     0
  9
$DIMSOXD
 70
     0
  9
$DIMSAH
 70
     0
  9
$DIMBLK1
  1

  9
$DIMBLK2
  1

  9
$DIMSTYLE
  2
Standard
  9
$DIMCLRD
 70
     0
  9
$DIMCLRE
 70
     0
  9
$DIMCLRT
 70
     0
  9
$DIMTFAC
 40
1.0
  9
$DIMGAP
 40
0.09
  9
$DIMJUST
 70
     0
  9
$DIMSD1
 70
     0
  9
$DIMSD2
 70
     0
  9
$DIMTOLJ
 70
     1
  9
$DIMTZIN
 70
     0
  9
$DIMALTZ
 70
     0
  9
$DIMALTTZ
 70
     0
  9
$DIMUPT
 70
     0
  9
$DIMDEC
 70
     4
  9
$DIMTDEC
 70
     4
  9
$DIMALTU
 70
     2
  9
$DIMALTTD
 70
     2
  9
$DIMTXSTY
  7
Standard
  9
$DIMAUNIT
 70
     0
  9
$DIMADEC
 70
     0
  9
$DIMALTRND
 40
0.0
  9
$DIMAZIN
 70
     0
  9
$DIMDSEP
 70
    46
  9
$DIMATFIT
 70
     3
  9
$DIMFRAC
 70
     0
  9
$DIMLDRBLK
  1

  9
$DIMLUNIT
 70
     2
  9
$DIMLWD
 70
    -2
  9
$DIMLWE
 70
    -2
  9
$DIMTMOVE
 70
     0
  9
$DIMFXL
 40
1.0
  9
$DIMFXLON
 70
     0
  9
$DIMJOGANG
 40
0.7853981633974483
  9
$DIMTFILL
 70
     0
  9
$DIMTFILLCLR
 70
     0
  9
$DIMARCSYM
 70
     0
  9
$DIMLTYPE
  6

  9
$DIMLTEX1
  6

  9
$DIMLTEX2
  6

  9
$LUNITS
 70
     2
  9
$LUPREC
 70
     4
  9
$SKETCHINC
 40
0.1
  9
$FILLETRAD
 40
0.5
  9
$AUNITS
 70
     0
  9
$AUPREC
 70
     0
  9
$MENU
  1
.
  9
$ELEVATION
 40
0.0
  9
$PELEVATION
 40
0.0
  9
$THICKNESS
 40
0.0
  9
$LIMCHECK
 70
     0
  9
$CHAMFERA
 40
0.5
  9
$CHAMFERB
 40
0.5
  9
$CHAMFERC
 40
1.0
  9
$CHAMFERD
 40
0.0
  9
$SKPOLY
 70
     0
  9
$TDCREATE
 40
2454763.54274
  9
$TDUCREATE
 40
2454763.834406666
  9
$TDUPDATE
 40
2454763.542740012
  9
$TDUUPDATE
 40
2454763.834406678
  9
$TDINDWG
 40
0.0000000116
  9
$TDUSRTIMER
 40
0.0000000116
  9
$USRTIMER
 70
     1
  9
$ANGBASE
 50
0.0
  9
$ANGDIR
 70
     0
  9
$PDMODE
 70
     0
  9
$PDSIZE
 40
0.0
  9
$PLINEWID
 40
0.0
  9
$SPLFRAME
 70
     0
  9
$SPLINETYPE
 70
     6
  9
$SPLINESEGS
 70
     8
  9
$HANDSEED
  5
DA
  9
$SURFTAB1
 70
     6
  9
$SURFTAB2
 70
     6
  9
$SURFTYPE
 70
     6
  9
$SURFU
 70
     6
  9
$SURFV
 70
     6
  9
$UCSBASE
  2

  9
$UCSNAME
  2

  9
$UCSORG
 10
0.0
 20
0.0
 30
0.0
  9
$UCSXDIR
 10
1.0
 20
0.0
 30
0.0
  9
$UCSYDIR
 10
0.0
 20
1.0
 30
0.0
  9
$UCSORTHOREF
  2

  9
$UCSORTHOVIEW
 70
     0
  9
$UCSORGTOP
 10
0.0
 20
0.0
 30
0.0
  9
$UCSORGBOTTOM
 10
0.0
 20
0.0
 30
0.0
  9
$UCSORGLEFT
 10
0.0
 20
0.0
 30
0.0
  9
$UCSORGRIGHT
 10
0.0
 20
0.0
 30
0.0
  9
$UCSORGFRONT
 10
0.0
 20
0.0
 30
0.0
  9
$UCSORGBACK
 10
0.0
 20
0.0
 30
0.0
  9
$PUCSBASE
  2

  9
$PUCSNAME
  2

  9
$PUCSORG
 10
0.0
 20
0.0
 30
0.0
  9
$PUCSXDIR
 10
1.0
 20
0.0
 30
0.0
  9
$PUCSYDIR
 10
0.0
 20
1.0
 30
0.0
  9
$PUCSORTHOREF
  2

  9
$PUCSORTHOVIEW
 70
     0
  9
$PUCSORGTOP
 10
0.0
 20
0.0
 30
0.0
  9
$PUCSORGBOTTOM
 10
0.0
 20
0.0
 30
0.0
  9
$PUCSORGLEFT
 10
0.0
 20
0.0
 30
0.0
  9
$PUCSORGRIGHT
 10
0.0
 20
0.0
 30
0.0
  9
$PUCSORGFRONT
 10
0.0
 20
0.0
 30
0.0
  9
$PUCSORGBACK
 10
0.0
 20
0.0
 30
0.0
  9
$USERI1
 70
     0
  9
$USERI2
 70
     0
  9
$USERI3
 70
     0
  9
$USERI4
 70
     0
  9
$USERI5
 70
     0
  9
$USERR1
 40
0.0
  9
$USERR2
 40
0.0
  9
$USERR3
 40
0.0
  9
$USERR4
 40
0.0
  9
$USERR5
 40
0.0
  9
$WORLDVIEW
 70
     1
  9
$SHADEDGE
 70
     3
  9
$SHADEDIF
 70
    70
  9
$TILEMODE
 70
     1
  9
$MAXACTVP
 70
    64
  9
$PINSBASE
 10
0.0
 20
0.0
 30
0.0
  9
$PLIMCHECK
 70
     0
  9
$PEXTMIN
 10
1.000000000000000E+20
 20
1.000000000000000E+20
 30
1.000000000000000E+20
  9
$PEXTMAX
 10
-1.000000000000000E+20
 20
-1.000000000000000E+20
 30
-1.000000000000000E+20
  9
$PLIMMIN
 10
0.0
 20
0.0
  9
$PLIMMAX
 10
12.0
 20
9.0
  9
$UNITMODE
 70
     0
  9
$VISRETAIN
 70
     1
  9
$PLINEGEN
 70
     0
  9
$PSLTSCALE
 70
     1
  9
$TREEDEPTH
 70
  3020
  9
$CMLSTYLE
  2
Standard
  9
$CMLJUST
 70
     0
  9
$CMLSCALE
 40
1.0
  9
$PROXYGRAPHICS
 70
     1
  9
$MEASUREMENT
 70
     0
  9
$CELWEIGHT
370
    -1
  9
$ENDCAPS
280
     0
  9
$JOINSTYLE
280
     0
  9
$LWDISPLAY
290
     0
  9
$INSUNITS
 70
     1
  9
$HYPERLINKBASE
  1

  9
$STYLESHEET
  1

  9
$XEDIT
290
     1
  9
$CEPSNTYPE
380
     0
  9
$PSTYLEMODE
290
     1
  9
$FINGERPRINTGUID
  2
{A7311CE3-C8ED-48DA-87A4-1A8993D9D18F}
  9
$VERSIONGUID
  2
{FAEB1C32-E019-11D5-929B-00C0DF256EC4}
  9
$EXTNAMES
290
     1
  9
$PSVPSCALE
 40
0.0
  9
$OLESTARTUP
290
     0
  9
$SORTENTS
280
   127
  9
$INDEXCTL
280
     0
  9
$HIDETEXT
280
     1
  9
$XCLIPFRAME
290
     0
  9
$HALOGAP
280
     0
  9
$OBSCOLOR
 70
   257
  9
$OBSLTYPE
280
     0
  9
$INTERSECTIONDISPLAY
280
     0
  9
$INTERSECTIONCOLOR
 70
   257
  9
$DIMASSOC
280
     2
  9
$PROJECTNAME
  1

  9
$CAMERADISPLAY
290
     0
  9
$LENSLENGTH
 40
50.0
  9
$CAMERAHEIGHT
 40
0.0
  9
$STEPSPERSEC
 40
2.0
  9
$STEPSIZE
 40
6.0
  9
$3DDWFPREC
 40
2.0
  9
$PSOLWIDTH
 40
0.25
  9
$PSOLHEIGHT
 40
4.0
  9
$LOFTANG1
 40
1.570796326794897
  9
$LOFTANG2
 40
1.570796326794897
  9
$LOFTMAG1
 40
0.0
  9
$LOFTMAG2
 40
0.0
  9
$LOFTPARAM
 70
     7
  9
$LOFTNORMALS
280
     1
  9
$LATITUDE
 40
37.795
  9
$LONGITUDE
 40
-122.394
  9
$NORTHDIRECTION
 40
0.0
  9
$TIMEZONE
 70
 -8000
  9
$LIGHTGLYPHDISPLAY
280
     1
  9
$TILEMODELIGHTSYNCH
280
     1
  9
$SOLIDHIST
280
     1
  9
$SHOWHIST
280
     1
  9
$DWFFRAME
280
     2
  9
$DGNFRAME
280
     2
  9
$REALWORLDSCALE
290
     1
  9
$INTERFERECOLOR
 62
   256
  9
$CSHADOW
280
     0
  9
$SHADOWPLANELOCATION
 40
0.0
  0
ENDSEC
  0
SECTION
  2
CLASSES
  0
CLASS
  1
ACDBDICTIONARYWDFLT
  2
AcDbDictionaryWithDefault
  3
ObjectDBX Classes
 90
        0
 91
        3
280
     0
281
     0
  0
CLASS
  1
VISUALSTYLE
  2
AcDbVisualStyle
  3
ObjectDBX Classes
 90
     4095
 91
        3
280
     0
281
     0
  0
CLASS
  1
SCALE
  2
AcDbScale
  3
ObjectDBX Classes
 90
     1153
 91
        3
280
     0
281
     0
  0
ENDSEC
  0
SECTION
  2
TABLES
  0
TABLE
  2
VPORT
  5
8
330
0
100
AcDbSymbolTable
 70
     1
  0
VPORT
  5
29
330
8
100
AcDbSymbolTableRecord
100
AcDbViewportTableRecord
  2
*Active
 70
     0
 10
0.0
 20
0.0
 11
1.0
 21
1.0
 12
10.42990654205607
 22
4.5
 13
0.0
 23
0.0
 14
0.5
 24
0.5
 15
0.5
 25
0.5
 16
0.0
 26
0.0
 36
1.0
 17
0.0
 27
0.0
 37
0.0
 40
9.0
 41
1.972972972850329
 42
50.0
 43
0.0
 44
0.0
 50
0.0
 51
0.0
 71
     0
 72
   100
 73
     1
 74
     3
 75
     0
 76
     0
 77
     0
 78
     0
281
     0
 65
     1
110
0.0
120
0.0
130
0.0
111
1.0
121
0.0
131
0.0
112
0.0
122
1.0
132
0.0
 79
     0
146
0.0
 60
     3
 61
     5
292
     1
282
     1
141
0.0
142
0.0
 63
   256
  0
ENDTAB
  0
TABLE
  2
LTYPE
  5
5
330
0
100
AcDbSymbolTable
 70
    46
  0
LTYPE
  5
14
330
5
100
AcDbSymbolTableRecord
100
AcDbLinetypeTableRecord
  2
ByBlock
 70
     0
  3

 72
    65
 73
     0
 40
0.0
  0
LTYPE
  5
15
330
5
100
AcDbSymbolTableRecord
100
AcDbLinetypeTableRecord
  2
ByLayer
 70
     0
  3

 72
    65
 73
     0
 40
0.0
  0
LTYPE
  5
16
330
5
100
AcDbSymbolTableRecord
100
AcDbLinetypeTableRecord
  2
Continuous
 70
     0
  3
Solid line
 72
    65
 73
     0
 40
0.0
  0
LTYPE
  5
61
330
5
100
AcDbSymbolTableRecord
100
AcDbLinetypeTableRecord
  2
New Line1
 70
     0
  3

 72
    65
 73
     2
 40
0.2
 49
0.1
 74
     4
 75
     0
340
0
 46
1.0
 50
0.0
 44
0.0
 45
0.0
 49
-0.1
 74
     4
 75
     0
340
0
 46
1.0
 50
0.0
 44
0.0
 45
0.0
  0
LTYPE
  5
63
330
5
100
AcDbSymbolTableRecord
100
AcDbLinetypeTableRecord
  2
New Line2
 70
     0
  3

 72
    65
 73
     2
 40
0.2
 49
0.1
 74
     4
 75
     0
340
0
 46
1.0
 50
0.0
 44
0.0
 45
0.0
 49
-0.1
 74
     4
 75
     0
340
0
 46
1.0
 50
0.0
 44
0.0
 45
0.0
  0
LTYPE
  5
65
330
5
100
AcDbSymbolTableRecord
100
AcDbLinetypeTableRecord
  2
New Line3
 70
     0
  3

 72
    65
 73
     2
 40
0.2
 49
0.1
 74
     4
 75
     0
340
0
 46
1.0
 50
0.0
 44
0.0
 45
0.0
 49
-0.1
 74
     4
 75
     0
340
0
 46
1.0
 50
0.0
 44
0.0
 45
0.0
  0
LTYPE
  5
67
330
5
100
AcDbSymbolTableRecord
100
AcDbLinetypeTableRecord
  2
New Line4
 70
     0
  3

 72
    65
 73
     2
 40
0.2
 49
0.1
 74
     4
 75
     0
340
0
 46
1.0
 50
0.0
 44
0.0
 45
0.0
 49
-0.1
 74
     4
 75
     0
340
0
 46
1.0
 50
0.0
 44
0.0
 45
0.0
  0
LTYPE
  5
69
330
5
100
AcDbSymbolTableRecord
100
AcDbLinetypeTableRecord
  2
New Line5
 70
     0
  3

 72
    65
 73
     2
 40
0.2
 49
0.1
 74
     4
 75
     0
340
0
 46
1.0
 50
0.0
 44
0.0
 45
0.0
 49
-0.1
 74
     4
 75
     0
340
0
 46
1.0
 50
0.0
 44
0.0
 45
0.0
  0
LTYPE
  5
6B
330
5
100
AcDbSymbolTableRecord
100
AcDbLinetypeTableRecord
  2
New Line6
 70
     0
  3

 72
    65
 73
     2
 40
0.2
 49
0.1
 74
     4
 75
     0
340
0
 46
1.0
 50
0.0
 44
0.0
 45
0.0
 49
-0.1
 74
     4
 75
     0
340
0
 46
1.0
 50
0.0
 44
0.0
 45
0.0
  0
LTYPE
  5
6D
330
5
100
AcDbSymbolTableRecord
100
AcDbLinetypeTableRecord
  2
New Line7
 70
     0
  3

 72
    65
 73
     2
 40
0.2
 49
0.1
 74
     4
 75
     0
340
0
 46
1.0
 50
0.0
 44
0.0
 45
0.0
 49
-0.1
 74
     4
 75
     0
340
0
 46
1.0
 50
0.0
 44
0.0
 45
0.0
  0
LTYPE
  5
6F
330
5
100
AcDbSymbolTableRecord
100
AcDbLinetypeTableRecord
  2
New Line8
 70
     0
  3

 72
    65
 73
     2
 40
0.2
 49
0.1
 74
     4
 75
     0
340
0
 46
1.0
 50
0.0
 44
0.0
 45
0.0
 49
-0.1
 74
     4
 75
     0
340
0
 46
1.0
 50
0.0
 44
0.0
 45
0.0
  0
LTYPE
  5
71
330
5
100
AcDbSymbolTableRecord
100
AcDbLinetypeTableRecord
  2
New Line9
 70
     0
  3

 72
    65
 73
     2
 40
0.2
 49
0.1
 74
     4
 75
     0
340
0
 46
1.0
 50
0.0
 44
0.0
 45
0.0
 49
-0.1
 74
     4
 75
     0
340
0
 46
1.0
 50
0.0
 44
0.0
 45
0.0
  0
LTYPE
  5
73
330
5
100
AcDbSymbolTableRecord
100
AcDbLinetypeTableRecord
  2
New Line10
 70
     0
  3

 72
    65
 73
     2
 40
0.2
 49
0.1
 74
     4
 75
     0
340
0
 46
1.0
 50
0.0
 44
0.0
 45
0.0
 49
-0.1
 74
     4
 75
     0
340
0
 46
1.0
 50
0.0
 44
0.0
 45
0.0
  0
LTYPE
  5
75
330
5
100
AcDbSymbolTableRecord
100
AcDbLinetypeTableRecord
  2
New Line11
 70
     0
  3

 72
    65
 73
     2
 40
0.2
 49
0.1
 74
     4
 75
     0
340
0
 46
1.0
 50
0.0
 44
0.0
 45
0.0
 49
-0.1
 74
     4
 75
     0
340
0
 46
1.0
 50
0.0
 44
0.0
 45
0.0
  0
LTYPE
  5
77
330
5
100
AcDbSymbolTableRecord
100
AcDbLinetypeTableRecord
  2
New Line12
 70
     0
  3

 72
    65
 73
     2
 40
0.2
 49
0.1
 74
     4
 75
     0
340
0
 46
1.0
 50
0.0
 44
0.0
 45
0.0
 49
-0.1
 74
     4
 75
     0
340
0
 46
1.0
 50
0.0
 44
0.0
 45
0.0
  0
LTYPE
  5
79
330
5
100
AcDbSymbolTableRecord
100
AcDbLinetypeTableRecord
  2
New Line13
 70
     0
  3

 72
    65
 73
     2
 40
0.2
 49
0.1
 74
     4
 75
     0
340
0
 46
1.0
 50
0.0
 44
0.0
 45
0.0
 49
-0.1
 74
     4
 75
     0
340
0
 46
1.0
 50
0.0
 44
0.0
 45
0.0
  0
LTYPE
  5
7B
330
5
100
AcDbSymbolTableRecord
100
AcDbLinetypeTableRecord
  2
New Line14
 70
     0
  3

 72
    65
 73
     2
 40
0.2
 49
0.1
 74
     4
 75
     0
340
0
 46
1.0
 50
0.0
 44
0.0
 45
0.0
 49
-0.1
 74
     4
 75
     0
340
0
 46
1.0
 50
0.0
 44
0.0
 45
0.0
  0
LTYPE
  5
7D
330
5
100
AcDbSymbolTableRecord
100
AcDbLinetypeTableRecord
  2
New Line15
 70
     0
  3

 72
    65
 73
     2
 40
0.2
 49
0.1
 74
     4
 75
     0
340
0
 46
1.0
 50
0.0
 44
0.0
 45
0.0
 49
-0.1
 74
     4
 75
     0
340
0
 46
1.0
 50
0.0
 44
0.0
 45
0.0
  0
LTYPE
  5
7F
330
5
100
AcDbSymbolTableRecord
100
AcDbLinetypeTableRecord
  2
New Line16
 70
     0
  3

 72
    65
 73
     2
 40
0.2
 49
0.1
 74
     4
 75
     0
340
0
 46
1.0
 50
0.0
 44
0.0
 45
0.0
 49
-0.1
 74
     4
 75
     0
340
0
 46
1.0
 50
0.0
 44
0.0
 45
0.0
  0
LTYPE
  5
81
330
5
100
AcDbSymbolTableRecord
100
AcDbLinetypeTableRecord
  2
New Line17
 70
     0
  3

 72
    65
 73
     2
 40
0.2
 49
0.1
 74
     4
 75
     0
340
0
 46
1.0
 50
0.0
 44
0.0
 45
0.0
 49
-0.1
 74
     4
 75
     0
340
0
 46
1.0
 50
0.0
 44
0.0
 45
0.0
  0
LTYPE
  5
83
330
5
100
AcDbSymbolTableRecord
100
AcDbLinetypeTableRecord
  2
New Line18
 70
     0
  3

 72
    65
 73
     2
 40
0.2
 49
0.1
 74
     4
 75
     0
340
0
 46
1.0
 50
0.0
 44
0.0
 45
0.0
 49
-0.1
 74
     4
 75
     0
340
0
 46
1.0
 50
0.0
 44
0.0
 45
0.0
  0
LTYPE
  5
85
330
5
100
AcDbSymbolTableRecord
100
AcDbLinetypeTableRecord
  2
New Line19
 70
     0
  3

 72
    65
 73
     2
 40
0.2
 49
0.1
 74
     4
 75
     0
340
0
 46
1.0
 50
0.0
 44
0.0
 45
0.0
 49
-0.1
 74
     4
 75
     0
340
0
 46
1.0
 50
0.0
 44
0.0
 45
0.0
  0
LTYPE
  5
87
330
5
100
AcDbSymbolTableRecord
100
AcDbLinetypeTableRecord
  2
New Line20
 70
     0
  3

 72
    65
 73
     2
 40
0.2
 49
0.1
 74
     4
 75
     0
340
0
 46
1.0
 50
0.0
 44
0.0
 45
0.0
 49
-0.1
 74
     4
 75
     0
340
0
 46
1.0
 50
0.0
 44
0.0
 45
0.0
  0
LTYPE
  5
89
330
5
100
AcDbSymbolTableRecord
100
AcDbLinetypeTableRecord
  2
New Line21
 70
     0
  3

 72
    65
 73
     2
 40
0.2
 49
0.1
 74
     4
 75
     0
340
0
 46
1.0
 50
0.0
 44
0.0
 45
0.0
 49
-0.1
 74
     4
 75
     0
340
0
 46
1.0
 50
0.0
 44
0.0
 45
0.0
  0
LTYPE
  5
A4
330
5
100
AcDbSymbolTableRecord
100
AcDbLinetypeTableRecord
  2
New Line22
 70
     0
  3

 72
    65
 73
     2
 40
0.2
 49
0.1
 74
     4
 75
     0
340
0
 46
1.0
 50
0.0
 44
0.0
 45
0.0
 49
-0.1
 74
     4
 75
     0
340
0
 46
1.0
 50
0.0
 44
0.0
 45
0.0
  0
LTYPE
  5
A6
330
5
100
AcDbSymbolTableRecord
100
AcDbLinetypeTableRecord
  2
New Line23
 70
     0
  3

 72
    65
 73
     2
 40
0.2
 49
0.1
 74
     4
 75
     0
340
0
 46
1.0
 50
0.0
 44
0.0
 45
0.0
 49
-0.1
 74
     4
 75
     0
340
0
 46
1.0
 50
0.0
 44
0.0
 45
0.0
  0
LTYPE
  5
A8
330
5
100
AcDbSymbolTableRecord
100
AcDbLinetypeTableRecord
  2
New Line24
 70
     0
  3

 72
    65
 73
     2
 40
0.2
 49
0.1
 74
     4
 75
     0
340
0
 46
1.0
 50
0.0
 44
0.0
 45
0.0
 49
-0.1
 74
     4
 75
     0
340
0
 46
1.0
 50
0.0
 44
0.0
 45
0.0
  0
LTYPE
  5
AA
330
5
100
AcDbSymbolTableRecord
100
AcDbLinetypeTableRecord
  2
New Line25
 70
     0
  3

 72
    65
 73
     2
 40
0.2
 49
0.1
 74
     4
 75
     0
340
0
 46
1.0
 50
0.0
 44
0.0
 45
0.0
 49
-0.1
 74
     4
 75
     0
340
0
 46
1.0
 50
0.0
 44
0.0
 45
0.0
  0
LTYPE
  5
AC
330
5
100
AcDbSymbolTableRecord
100
AcDbLinetypeTableRecord
  2
New Line26
 70
     0
  3

 72
    65
 73
     2
 40
0.2
 49
0.1
 74
     4
 75
     0
340
0
 46
1.0
 50
0.0
 44
0.0
 45
0.0
 49
-0.1
 74
     4
 75
     0
340
0
 46
1.0
 50
0.0
 44
0.0
 45
0.0
  0
LTYPE
  5
AE
330
5
100
AcDbSymbolTableRecord
100
AcDbLinetypeTableRecord
  2
New Line27
 70
     0
  3

 72
    65
 73
     2
 40
0.2
 49
0.1
 74
     4
 75
     0
340
0
 46
1.0
 50
0.0
 44
0.0
 45
0.0
 49
-0.1
 74
     4
 75
     0
340
0
 46
1.0
 50
0.0
 44
0.0
 45
0.0
  0
LTYPE
  5
B0
330
5
100
AcDbSymbolTableRecord
100
AcDbLinetypeTableRecord
  2
New Line28
 70
     0
  3

 72
    65
 73
     2
 40
0.2
 49
0.1
 74
     4
 75
     0
340
0
 46
1.0
 50
0.0
 44
0.0
 45
0.0
 49
-0.1
 74
     4
 75
     0
340
0
 46
1.0
 50
0.0
 44
0.0
 45
0.0
  0
LTYPE
  5
B2
330
5
100
AcDbSymbolTableRecord
100
AcDbLinetypeTableRecord
  2
New Line29
 70
     0
  3

 72
    65
 73
     2
 40
0.2
 49
0.1
 74
     4
 75
     0
340
0
 46
1.0
 50
0.0
 44
0.0
 45
0.0
 49
-0.1
 74
     4
 75
     0
340
0
 46
1.0
 50
0.0
 44
0.0
 45
0.0
  0
LTYPE
  5
B4
330
5
100
AcDbSymbolTableRecord
100
AcDbLinetypeTableRecord
  2
New Line30
 70
     0
  3

 72
    65
 73
     2
 40
0.2
 49
0.1
 74
     4
 75
     0
340
0
 46
1.0
 50
0.0
 44
0.0
 45
0.0
 49
-0.1
 74
     4
 75
     0
340
0
 46
1.0
 50
0.0
 44
0.0
 45
0.0
  0
LTYPE
  5
B6
330
5
100
AcDbSymbolTableRecord
100
AcDbLinetypeTableRecord
  2
New Line31
 70
     0
  3

 72
    65
 73
     2
 40
0.2
 49
0.1
 74
     4
 75
     0
340
0
 46
1.0
 50
0.0
 44
0.0
 45
0.0
 49
-0.1
 74
     4
 75
     0
340
0
 46
1.0
 50
0.0
 44
0.0
 45
0.0
  0
LTYPE
  5
B8
330
5
100
AcDbSymbolTableRecord
100
AcDbLinetypeTableRecord
  2
New Line32
 70
     0
  3

 72
    65
 73
     2
 40
0.2
 49
0.1
 74
     4
 75
     0
340
0
 46
1.0
 50
0.0
 44
0.0
 45
0.0
 49
-0.1
 74
     4
 75
     0
340
0
 46
1.0
 50
0.0
 44
0.0
 45
0.0
  0
LTYPE
  5
BA
330
5
100
AcDbSymbolTableRecord
100
AcDbLinetypeTableRecord
  2
New Line33
 70
     0
  3

 72
    65
 73
     2
 40
0.2
 49
0.1
 74
     4
 75
     0
340
0
 46
1.0
 50
0.0
 44
0.0
 45
0.0
 49
-0.1
 74
     4
 75
     0
340
0
 46
1.0
 50
0.0
 44
0.0
 45
0.0
  0
LTYPE
  5
BC
330
5
100
AcDbSymbolTableRecord
100
AcDbLinetypeTableRecord
  2
New Line34
 70
     0
  3

 72
    65
 73
     2
 40
0.2
 49
0.1
 74
     4
 75
     0
340
0
 46
1.0
 50
0.0
 44
0.0
 45
0.0
 49
-0.1
 74
     4
 75
     0
340
0
 46
1.0
 50
0.0
 44
0.0
 45
0.0
  0
LTYPE
  5
BE
330
5
100
AcDbSymbolTableRecord
100
AcDbLinetypeTableRecord
  2
New Line35
 70
     0
  3

 72
    65
 73
     2
 40
0.2
 49
0.1
 74
     4
 75
     0
340
0
 46
1.0
 50
0.0
 44
0.0
 45
0.0
 49
-0.1
 74
     4
 75
     0
340
0
 46
1.0
 50
0.0
 44
0.0
 45
0.0
  0
LTYPE
  5
C0
330
5
100
AcDbSymbolTableRecord
100
AcDbLinetypeTableRecord
  2
New Line36
 70
     0
  3

 72
    65
 73
     2
 40
0.2
 49
0.1
 74
     4
 75
     0
340
0
 46
1.0
 50
0.0
 44
0.0
 45
0.0
 49
-0.1
 74
     4
 75
     0
340
0
 46
1.0
 50
0.0
 44
0.0
 45
0.0
  0
LTYPE
  5
C2
330
5
100
AcDbSymbolTableRecord
100
AcDbLinetypeTableRecord
  2
New Line37
 70
     0
  3

 72
    65
 73
     2
 40
0.2
 49
0.1
 74
     4
 75
     0
340
0
 46
1.0
 50
0.0
 44
0.0
 45
0.0
 49
-0.1
 74
     4
 75
     0
340
0
 46
1.0
 50
0.0
 44
0.0
 45
0.0
  0
LTYPE
  5
C4
330
5
100
AcDbSymbolTableRecord
100
AcDbLinetypeTableRecord
  2
New Line38
 70
     0
  3

 72
    65
 73
     2
 40
0.2
 49
0.1
 74
     4
 75
     0
340
0
 46
1.0
 50
0.0
 44
0.0
 45
0.0
 49
-0.1
 74
     4
 75
     0
340
0
 46
1.0
 50
0.0
 44
0.0
 45
0.0
  0
LTYPE
  5
C6
330
5
100
AcDbSymbolTableRecord
100
AcDbLinetypeTableRecord
  2
New Line39
 70
     0
  3

 72
    65
 73
     2
 40
0.2
 49
0.1
 74
     4
 75
     0
340
0
 46
1.0
 50
0.0
 44
0.0
 45
0.0
 49
-0.1
 74
     4
 75
     0
340
0
 46
1.0
 50
0.0
 44
0.0
 45
0.0
  0
LTYPE
  5
C8
330
5
100
AcDbSymbolTableRecord
100
AcDbLinetypeTableRecord
  2
New Line40
 70
     0
  3

 72
    65
 73
     2
 40
0.2
 49
0.1
 74
     4
 75
     0
340
0
 46
1.0
 50
0.0
 44
0.0
 45
0.0
 49
-0.1
 74
     4
 75
     0
340
0
 46
1.0
 50
0.0
 44
0.0
 45
0.0
  0
LTYPE
  5
CA
330
5
100
AcDbSymbolTableRecord
100
AcDbLinetypeTableRecord
  2
New Line41
 70
     0
  3

 72
    65
 73
     2
 40
0.2
 49
0.1
 74
     4
 75
     0
340
0
 46
1.0
 50
0.0
 44
0.0
 45
0.0
 49
-0.1
 74
     4
 75
     0
340
0
 46
1.0
 50
0.0
 44
0.0
 45
0.0
  0
LTYPE
  5
CC
330
5
100
AcDbSymbolTableRecord
100
AcDbLinetypeTableRecord
  2
New Line42
 70
     0
  3

 72
    65
 73
     2
 40
0.2
 49
0.1
 74
     4
 75
     0
340
0
 46
1.0
 50
0.0
 44
0.0
 45
0.0
 49
-0.1
 74
     4
 75
     0
340
0
 46
1.0
 50
0.0
 44
0.0
 45
0.0
  0
LTYPE
  5
CE
330
5
100
AcDbSymbolTableRecord
100
AcDbLinetypeTableRecord
  2
New Line43
 70
     0
  3

 72
    65
 73
     2
 40
0.2
 49
0.1
 74
     4
 75
     0
340
0
 46
1.0
 50
0.0
 44
0.0
 45
0.0
 49
-0.1
 74
     4
 75
     0
340
0
 46
1.0
 50
0.0
 44
0.0
 45
0.0
  0
LTYPE
  5
D0
330
5
100
AcDbSymbolTableRecord
100
AcDbLinetypeTableRecord
  2
New Line44
 70
     0
  3

 72
    65
 73
     2
 40
0.2
 49
0.1
 74
     4
 75
     0
340
0
 46
1.0
 50
0.0
 44
0.0
 45
0.0
 49
-0.1
 74
     4
 75
     0
340
0
 46
1.0
 50
0.0
 44
0.0
 45
0.0
  0
LTYPE
  5
D2
330
5
100
AcDbSymbolTableRecord
100
AcDbLinetypeTableRecord
  2
New Line45
 70
     0
  3

 72
    65
 73
     2
 40
0.2
 49
0.1
 74
     4
 75
     0
340
0
 46
1.0
 50
0.0
 44
0.0
 45
0.0
 49
-0.1
 74
     4
 75
     0
340
0
 46
1.0
 50
0.0
 44
0.0
 45
0.0
  0
ENDTAB
  0
TABLE
  2
LAYER
  5
2
330
0
100
AcDbSymbolTable
 70
     2
  0
LAYER
  5
10
330
2
100
AcDbSymbolTableRecord
100
AcDbLayerTableRecord
  2
0
 70
     0
 62
     7
  6
Continuous
370
    -3
390
F
347
0
  0
LAYER
  5
5E
330
2
100
AcDbSymbolTableRecord
100
AcDbLayerTableRecord
  2
Layer 1
 70
     0
 62
     7
  6
Continuous
370
    -3
390
F
347
0
  0
ENDTAB
  0
TABLE
  2
STYLE
  5
3
330
0
100
AcDbSymbolTable
 70
     1
  0
STYLE
  5
11
330
3
100
AcDbSymbolTableRecord
100
AcDbTextStyleTableRecord
  2
Standard
 70
     0
 40
0.0
 41
1.0
 50
0.0
 71
     0
 42
0.2
  3
txt
  4

  0
ENDTAB
  0
TABLE
  2
VIEW
  5
6
330
0
100
AcDbSymbolTable
 70
     0
  0
ENDTAB
  0
TABLE
  2
UCS
  5
7
330
0
100
AcDbSymbolTable
 70
     0
  0
ENDTAB
  0
TABLE
  2
APPID
  5
9
330
0
100
AcDbSymbolTable
 70
     2
  0
APPID
  5
12
330
9
100
AcDbSymbolTableRecord
100
AcDbRegAppTableRecord
  2
ACAD
 70
     0
  0
APPID
  5
5D
330
9
100
AcDbSymbolTableRecord
100
AcDbRegAppTableRecord
  2
ODA
 70
     0
  0
ENDTAB
  0
TABLE
  2
DIMSTYLE
  5
A
330
0
100
AcDbSymbolTable
 70
     1
100
AcDbDimStyleTable
  0
DIMSTYLE
105
27
330
A
100
AcDbSymbolTableRecord
100
AcDbDimStyleTableRecord
  2
Standard
 70
     0
340
11
  0
ENDTAB
  0
TABLE
  2
BLOCK_RECORD
  5
1
330
0
100
AcDbSymbolTable
 70
     1
  0
BLOCK_RECORD
  5
1F
330
1
100
AcDbSymbolTableRecord
100
AcDbBlockTableRecord
  2
*Model_Space
340
22
 70
     0
280
     1
281
     0
  0
BLOCK_RECORD
  5
1B
330
1
100
AcDbSymbolTableRecord
100
AcDbBlockTableRecord
  2
*Paper_Space
340
1E
 70
     0
280
     1
281
     0
  0
BLOCK_RECORD
  5
23
330
1
100
AcDbSymbolTableRecord
100
AcDbBlockTableRecord
  2
*Paper_Space0
340
26
 70
     0
280
     1
281
     0
  0
ENDTAB
  0
ENDSEC
  0
SECTION
  2
BLOCKS
  0
BLOCK
  5
20
330
1F
100
AcDbEntity
  8
0
100
AcDbBlockBegin
  2
*Model_Space
 70
     0
 10
0.0
 20
0.0
 30
0.0
  3
*Model_Space
  1

  0
ENDBLK
  5
21
330
1F
100
AcDbEntity
  8
0
100
AcDbBlockEnd
  0
BLOCK
  5
1C
330
1B
100
AcDbEntity
 67
     1
  8
0
100
AcDbBlockBegin
  2
*Paper_Space
 70
     0
 10
0.0
 20
0.0
 30
0.0
  3
*Paper_Space
  1

  0
ENDBLK
  5
1D
330
1B
100
AcDbEntity
 67
     1
  8
0
100
AcDbBlockEnd
  0
BLOCK
  5
24
330
23
100
AcDbEntity
  8
0
100
AcDbBlockBegin
  2
*Paper_Space0
 70
     0
 10
0.0
 20
0.0
 30
0.0
  3
*Paper_Space0
  1

  0
ENDBLK
  5
25
330
23
100
AcDbEntity
  8
0
100
AcDbBlockEnd
  0
ENDSEC
  0
SECTION
  2
ENTITIES
  0
LWPOLYLINE
  5
5F
330
1F
100
AcDbEntity
  8
Layer 1
 62
   250
370
     9
100
AcDbPolyline
 90
        5
 70
     1
 43
0.0
 10
-17.85051968503937
 20
9.121173228346457
 10
-15.10729133858268
 20
9.121173228346457
 10
-15.10729133858268
 20
11.8252125984252
 10
-17.85051968503937
 20
11.8252125984252
 10
-17.85051968503937
 20
9.121173228346457
  0
SPLINE
  5
60
330
1F
100
AcDbEntity
  8
Layer 1
  6
New Line1
 62
     7
370
     9
100
AcDbSpline
210
0.0
220
0.0
230
1.0
 70
    11
 71
     3
 72
    20
 73
    16
 74
     0
 42
0.0000000001
 43
0.0000000001
 40
0.0
 40
0.0
 40
0.0
 40
0.0
 40
0.25
 40
0.25
 40
0.25
 40
0.25
 40
0.5
 40
0.5
 40
0.5
 40
0.5
 40
0.75
 40
0.75
 40
0.75
 40
0.75
 40
1.0
 40
1.0
 40
1.0
 40
1.0
 10
-15.4197874015748
 20
11.40254330708661
 30
0.0
 10
-15.4197874015748
 20
11.40254330708661
 30
0.0
 10
-15.24988582677165
 20
11.40254330708661
 30
0.0
 10
-15.24988582677165
 20
11.40254330708661
 30
0.0
 10
-15.24988582677165
 20
11.40254330708661
 30
0.0
 10
-15.24988582677165
 20
11.40254330708661
 30
0.0
 10
-15.24988582677165
 20
11.38007480314961
 30
0.0
 10
-15.24988582677165
 20
11.38007480314961
 30
0.0
 10
-15.24988582677165
 20
11.38007480314961
 30
0.0
 10
-15.24988582677165
 20
11.38007480314961
 30
0.0
 10
-15.4197874015748
 20
11.38007480314961
 30
0.0
 10
-15.4197874015748
 20
11.38007480314961
 30
0.0
 10
-15.4197874015748
 20
11.38007480314961
 30
0.0
 10
-15.4197874015748
 20
11.38007480314961
 30
0.0
 10
-15.4197874015748
 20
11.40254330708661
 30
0.0
 10
-15.4197874015748
 20
11.40254330708661
 30
0.0
  0
SPLINE
  5
62
330
1F
100
AcDbEntity
  8
Layer 1
  6
New Line2
 62
     7
370
     9
100
AcDbSpline
210
0.0
220
0.0
230
1.0
 70
    11
 71
     3
 72
    76
 73
    72
 74
     0
 42
0.0000000001
 43
0.0000000001
 40
0.0
 40
0.0
 40
0.0
 40
0.0
 40
0.0555555555555556
 40
0.0555555555555556
 40
0.0555555555555556
 40
0.0555555555555556
 40
0.1111111111111111
 40
0.1111111111111111
 40
0.1111111111111111
 40
0.1111111111111111
 40
0.1666666666666667
 40
0.1666666666666667
 40
0.1666666666666667
 40
0.1666666666666667
 40
0.2222222222222222
 40
0.2222222222222222
 40
0.2222222222222222
 40
0.2222222222222222
 40
0.2777777777777778
 40
0.2777777777777778
 40
0.2777777777777778
 40
0.2777777777777778
 40
0.3333333333333334
 40
0.3333333333333334
 40
0.3333333333333334
 40
0.3333333333333334
 40
0.388888888888889
 40
0.388888888888889
 40
0.388888888888889
 40
0.388888888888889
 40
0.4444444444444445
 40
0.4444444444444445
 40
0.4444444444444445
 40
0.4444444444444445
 40
0.5000000000000001
 40
0.5000000000000001
 40
0.5000000000000001
 40
0.5000000000000001
 40
0.5555555555555557
 40
0.5555555555555557
 40
0.5555555555555557
 40
0.5555555555555557
 40
0.6111111111111113
 40
0.6111111111111113
 40
0.6111111111111113
 40
0.6111111111111113
 40
0.6666666666666669
 40
0.6666666666666669
 40
0.6666666666666669
 40
0.6666666666666669
 40
0.7222222222222224
 40
0.7222222222222224
 40
0.7222222222222224
 40
0.7222222222222224
 40
0.777777777777778
 40
0.777777777777778
 40
0.777777777777778
 40
0.777777777777778
 40
0.8333333333333336
 40
0.8333333333333336
 40
0.8333333333333336
 40
0.8333333333333336
 40
0.8888888888888892
 40
0.8888888888888892
 40
0.8888888888888892
 40
0.8888888888888892
 40
0.9444444444444448
 40
0.9444444444444448
 40
0.9444444444444448
 40
0.9444444444444448
 40
1.0
 40
1.0
 40
1.0
 40
1.0
 10
-15.4197874015748
 20
11.34308661417323
 30
0.0
 10
-15.4197874015748
 20
11.34308661417323
 30
0.0
 10
-15.29672047244095
 20
11.34308661417323
 30
0.0
 10
-15.29672047244095
 20
11.34308661417323
 30
0.0
 10
-15.29672047244095
 20
11.34308661417323
 30
0.0
 10
-15.29672047244095
 20
11.34308661417323
 30
0.0
 10
-15.29672047244095
 20
11.32433858267717
 30
0.0
 10
-15.29672047244095
 20
11.32433858267717
 30
0.0
 10
-15.29672047244095
 20
11.32433858267717
 30
0.0
 10
-15.29672047244095
 20
11.32433858267717
 30
0.0
 10
-15.31420472440945
 20
11.32433858267717
 30
0.0
 10
-15.31420472440945
 20
11.32433858267717
 30
0.0
 10
-15.31420472440945
 20
11.32433858267717
 30
0.0
 10
-15.30067716535433
 20
11.31527952755905
 30
0.0
 10
-15.29391338582677
 20
11.30222440944882
 30
0.0
 10
-15.29391338582677
 20
11.28517322834646
 30
0.0
 10
-15.29391338582677
 20
11.28517322834646
 30
0.0
 10
-15.29391338582677
 20
11.27773622047244
 30
0.0
 10
-15.29525590551181
 20
11.27093307086614
 30
0.0
 10
-15.29790551181102
 20
11.26472440944882
 30
0.0
 10
-15.29790551181102
 20
11.26472440944882
 30
0.0
 10
-15.30059842519685
 20
11.25847244094488
 30
0.0
 10
-15.30407874015748
 20
11.25384645669291
 30
0.0
 10
-15.30842913385827
 20
11.25075984251968
 30
0.0
 10
-15.30842913385827
 20
11.25075984251968
 30
0.0
 10
-15.31274015748031
 20
11.24763385826772
 30
0.0
 10
-15.31788582677165
 20
11.2455
 30
0.0
 10
-15.32381889763779
 20
11.24423228346457
 30
0.0
 10
-15.32381889763779
 20
11.24423228346457
 30
0.0
 10
-15.32769291338583
 20
11.24348031496063
 30
0.0
 10
-15.33445669291339
 20
11.24308661417323
 30
0.0
 10
-15.34411023622047
 20
11.24308661417323
 30
0.0
 10
-15.34411023622047
 20
11.24308661417323
 30
0.0
 10
-15.34411023622047
 20
11.24308661417323
 30
0.0
 10
-15.4197874015748
 20
11.24308661417323
 30
0.0
 10
-15.4197874015748
 20
11.24308661417323
 30
0.0
 10
-15.4197874015748
 20
11.24308661417323
 30
0.0
 10
-15.4197874015748
 20
11.24308661417323
 30
0.0
 10
-15.4197874015748
 20
11.26397244094488
 30
0.0
 10
-15.4197874015748
 20
11.26397244094488
 30
0.0
 10
-15.4197874015748
 20
11.26397244094488
 30
0.0
 10
-15.4197874015748
 20
11.26397244094488
 30
0.0
 10
-15.34490551181102
 20
11.26397244094488
 30
0.0
 10
-15.34490551181102
 20
11.26397244094488
 30
0.0
 10
-15.34490551181102
 20
11.26397244094488
 30
0.0
 10
-15.33643700787402
 20
11.26397244094488
 30
0.0
 10
-15.33006692913386
 20
11.26476377952756
 30
0.0
 10
-15.32583464566929
 20
11.26638582677165
 30
0.0
 10
-15.32583464566929
 20
11.26638582677165
 30
0.0
 10
-15.32164173228346
 20
11.26800787401575
 30
0.0
 10
-15.31827952755905
 20
11.2708937007874
 30
0.0
 10
-15.3157874015748
 20
11.27501181102362
 30
0.0
 10
-15.3157874015748
 20
11.27501181102362
 30
0.0
 10
-15.31325590551181
 20
11.27916141732283
 30
0.0
 10
-15.31198818897638
 20
11.28398818897638
 30
0.0
 10
-15.31198818897638
 20
11.28956692913386
 30
0.0
 10
-15.31198818897638
 20
11.28956692913386
 30
0.0
 10
-15.31198818897638
 20
11.29846850393701
 30
0.0
 10
-15.31483858267717
 20
11.30610236220472
 30
0.0
 10
-15.32045669291339
 20
11.31258661417323
 30
0.0
 10
-15.32045669291339
 20
11.31258661417323
 30
0.0
 10
-15.32611417322835
 20
11.31903543307087
 30
0.0
 10
-15.33679527559055
 20
11.32224015748032
 30
0.0
 10
-15.35257480314961
 20
11.32224015748032
 30
0.0
 10
-15.35257480314961
 20
11.32224015748032
 30
0.0
 10
-15.35257480314961
 20
11.32224015748032
 30
0.0
 10
-15.4197874015748
 20
11.32224015748032
 30
0.0
 10
-15.4197874015748
 20
11.32224015748032
 30
0.0
 10
-15.4197874015748
 20
11.32224015748032
 30
0.0
 10
-15.4197874015748
 20
11.32224015748032
 30
0.0
 10
-15.4197874015748
 20
11.34308661417323
 30
0.0
 10
-15.4197874015748
 20
11.34308661417323
 30
0.0
  0
SPLINE
  5
64
330
1F
100
AcDbEntity
  8
Layer 1
  6
New Line3
 62
     7
370
     9
100
AcDbSpline
210
0.0
220
0.0
230
1.0
 70
    11
 71
     3
 72
   136
 73
   132
 74
     0
 42
0.0000000001
 43
0.0000000001
 40
0.0
 40
0.0
 40
0.0
 40
0.0
 40
0.0303030303030303
 40
0.0303030303030303
 40
0.0303030303030303
 40
0.0303030303030303
 40
0.0606060606060606
 40
0.0606060606060606
 40
0.0606060606060606
 40
0.0606060606060606
 40
0.0909090909090909
 40
0.0909090909090909
 40
0.0909090909090909
 40
0.0909090909090909
 40
0.1212121212121212
 40
0.1212121212121212
 40
0.1212121212121212
 40
0.1212121212121212
 40
0.1515151515151515
 40
0.1515151515151515
 40
0.1515151515151515
 40
0.1515151515151515
 40
0.1818181818181818
 40
0.1818181818181818
 40
0.1818181818181818
 40
0.1818181818181818
 40
0.2121212121212121
 40
0.2121212121212121
 40
0.2121212121212121
 40
0.2121212121212121
 40
0.2424242424242424
 40
0.2424242424242424
 40
0.2424242424242424
 40
0.2424242424242424
 40
0.2727272727272727
 40
0.2727272727272727
 40
0.2727272727272727
 40
0.2727272727272727
 40
0.303030303030303
 40
0.303030303030303
 40
0.303030303030303
 40
0.303030303030303
 40
0.3333333333333333
 40
0.3333333333333333
 40
0.3333333333333333
 40
0.3333333333333333
 40
0.3636363636363635
 40
0.3636363636363635
 40
0.3636363636363635
 40
0.3636363636363635
 40
0.3939393939393938
 40
0.3939393939393938
 40
0.3939393939393938
 40
0.3939393939393938
 40
0.4242424242424241
 40
0.4242424242424241
 40
0.4242424242424241
 40
0.4242424242424241
 40
0.4545454545454544
 40
0.4545454545454544
 40
0.4545454545454544
 40
0.4545454545454544
 40
0.4848484848484846
 40
0.4848484848484846
 40
0.4848484848484846
 40
0.4848484848484846
 40
0.5151515151515149
 40
0.5151515151515149
 40
0.5151515151515149
 40
0.5151515151515149
 40
0.5454545454545452
 40
0.5454545454545452
 40
0.5454545454545452
 40
0.5454545454545452
 40
0.5757575757575755
 40
0.5757575757575755
 40
0.5757575757575755
 40
0.5757575757575755
 40
0.6060606060606057
 40
0.6060606060606057
 40
0.6060606060606057
 40
0.6060606060606057
 40
0.636363636363636
 40
0.636363636363636
 40
0.636363636363636
 40
0.636363636363636
 40
0.6666666666666663
 40
0.6666666666666663
 40
0.6666666666666663
 40
0.6666666666666663
 40
0.6969696969696966
 40
0.6969696969696966
 40
0.6969696969696966
 40
0.6969696969696966
 40
0.7272727272727268
 40
0.7272727272727268
 40
0.7272727272727268
 40
0.7272727272727268
 40
0.7575757575757571
 40
0.7575757575757571
 40
0.7575757575757571
 40
0.7575757575757571
 40
0.7878787878787874
 40
0.7878787878787874
 40
0.7878787878787874
 40
0.7878787878787874
 40
0.8181818181818177
 40
0.8181818181818177
 40
0.8181818181818177
 40
0.8181818181818177
 40
0.848484848484848
 40
0.848484848484848
 40
0.848484848484848
 40
0.848484848484848
 40
0.8787878787878782
 40
0.8787878787878782
 40
0.8787878787878782
 40
0.8787878787878782
 40
0.9090909090909085
 40
0.9090909090909085
 40
0.9090909090909085
 40
0.9090909090909085
 40
0.9393939393939388
 40
0.9393939393939388
 40
0.9393939393939388
 40
0.9393939393939388
 40
0.9696969696969691
 40
0.9696969696969691
 40
0.9696969696969691
 40
0.9696969696969691
 40
1.0
 40
1.0
 40
1.0
 40
1.0
 10
-15.38303543307087
 20
11.21942913385827
 30
0.0
 10
-15.38303543307087
 20
11.21942913385827
 30
0.0
 10
-15.37979527559055
 20
11.19882283464567
 30
0.0
 10
-15.37979527559055
 20
11.19882283464567
 30
0.0
 10
-15.37979527559055
 20
11.19882283464567
 30
0.0
 10
-15.38805905511811
 20
11.19767322834646
 30
0.0
 10
-15.39438976377953
 20
11.19442913385827
 30
0.0
 10
-15.3988188976378
 20
11.18912992125984
 30
0.0
 10
-15.3988188976378
 20
11.18912992125984
 30
0.0
 10
-15.40320866141732
 20
11.18386614173228
 30
0.0
 10
-15.40542519685039
 20
11.17647244094488
 30
0.0
 10
-15.40542519685039
 20
11.16693700787402
 30
0.0
 10
-15.40542519685039
 20
11.16693700787402
 30
0.0
 10
-15.40542519685039
 20
11.15736220472441
 30
0.0
 10
-15.40344881889764
 20
11.15024409448819
 30
0.0
 10
-15.39957086614173
 20
11.14561417322835
 30
0.0
 10
-15.39957086614173
 20
11.14561417322835
 30
0.0
 10
-15.39565354330709
 20
11.14098818897638
 30
0.0
 10
-15.39106692913386
 20
11.13865354330709
 30
0.0
 10
-15.38584645669291
 20
11.13865354330709
 30
0.0
 10
-15.38584645669291
 20
11.13865354330709
 30
0.0
 10
-15.38109842519685
 20
11.13865354330709
 30
0.0
 10
-15.37741732283465
 20
11.14070866141732
 30
0.0
 10
-15.37468897637795
 20
11.14482283464567
 30
0.0
 10
-15.37468897637795
 20
11.14482283464567
 30
0.0
 10
-15.37283070866142
 20
11.14767322834646
 30
0.0
 10
-15.37049606299213
 20
11.15479133858268
 30
0.0
 10
-15.36764566929134
 20
11.16614566929134
 30
0.0
 10
-15.36764566929134
 20
11.16614566929134
 30
0.0
 10
-15.36377165354331
 20
11.18141732283465
 30
0.0
 10
-15.36044881889764
 20
11.19205905511811
 30
0.0
 10
-15.35759842519685
 20
11.19794881889764
 30
0.0
 10
-15.35759842519685
 20
11.19794881889764
 30
0.0
 10
-15.35479133858268
 20
11.20384645669291
 30
0.0
 10
-15.35087401574803
 20
11.20835433070866
 30
0.0
 10
-15.34588976377953
 20
11.21140157480315
 30
0.0
 10
-15.34588976377953
 20
11.21140157480315
 30
0.0
 10
-15.34090551181102
 20
11.21444488188976
 30
0.0
 10
-15.3354094488189
 20
11.21598818897638
 30
0.0
 10
-15.32939763779528
 20
11.21598818897638
 30
0.0
 10
-15.32939763779528
 20
11.21598818897638
 30
0.0
 10
-15.32389763779527
 20
11.21598818897638
 30
0.0
 10
-15.31883464566929
 20
11.21472047244094
 30
0.0
 10
-15.31416535433071
 20
11.21218897637795
 30
0.0
 10
-15.31416535433071
 20
11.21218897637795
 30
0.0
 10
-15.30946062992126
 20
11.2096968503937
 30
0.0
 10
-15.30558267716535
 20
11.20625590551181
 30
0.0
 10
-15.30249606299213
 20
11.20194488188976
 30
0.0
 10
-15.30249606299213
 20
11.20194488188976
 30
0.0
 10
-15.30012204724409
 20
11.19870078740158
 30
0.0
 10
-15.29806692913386
 20
11.19427165354331
 30
0.0
 10
-15.29640551181102
 20
11.18869291338583
 30
0.0
 10
-15.29640551181102
 20
11.18869291338583
 30
0.0
 10
-15.29474409448819
 20
11.18307480314961
 30
0.0
 10
-15.29391338582677
 20
11.17706299212598
 30
0.0
 10
-15.29391338582677
 20
11.17065354330709
 30
0.0
 10
-15.29391338582677
 20
11.17065354330709
 30
0.0
 10
-15.29391338582677
 20
11.16100393700787
 30
0.0
 10
-15.29533464566929
 20
11.15253543307087
 30
0.0
 10
-15.2981062992126
 20
11.14522047244095
 30
0.0
 10
-15.2981062992126
 20
11.14522047244095
 30
0.0
 10
-15.30087401574803
 20
11.13790157480315
 30
0.0
 10
-15.30462992125984
 20
11.13251968503937
 30
0.0
 10
-15.30938188976378
 20
11.12903937007874
 30
0.0
 10
-15.30938188976378
 20
11.12903937007874
 30
0.0
 10
-15.31416535433071
 20
11.12555905511811
 30
0.0
 10
-15.32049606299213
 20
11.12318503937008
 30
0.0
 10
-15.32844488188976
 20
11.12187795275591
 30
0.0
 10
-15.32844488188976
 20
11.12187795275591
 30
0.0
 10
-15.32844488188976
 20
11.12187795275591
 30
0.0
 10
-15.33125590551181
 20
11.14225590551181
 30
0.0
 10
-15.33125590551181
 20
11.14225590551181
 30
0.0
 10
-15.33125590551181
 20
11.14225590551181
 30
0.0
 10
-15.32492519685039
 20
11.14320078740158
 30
0.0
 10
-15.3199842519685
 20
11.1458937007874
 30
0.0
 10
-15.31642125984252
 20
11.15032283464567
 30
0.0
 10
-15.31642125984252
 20
11.15032283464567
 30
0.0
 10
-15.31286220472441
 20
11.15475590551181
 30
0.0
 10
-15.31108267716535
 20
11.16104330708661
 30
0.0
 10
-15.31108267716535
 20
11.16915354330709
 30
0.0
 10
-15.31108267716535
 20
11.16915354330709
 30
0.0
 10
-15.31108267716535
 20
11.17872440944882
 30
0.0
 10
-15.31266141732283
 20
11.18556692913386
 30
0.0
 10
-15.31582677165354
 20
11.18964566929134
 30
0.0
 10
-15.31582677165354
 20
11.18964566929134
 30
0.0
 10
-15.31899212598425
 20
11.19375590551181
 30
0.0
 10
-15.32270866141732
 20
11.19581496062992
 30
0.0
 10
-15.32694488188976
 20
11.19581496062992
 30
0.0
 10
-15.32694488188976
 20
11.19581496062992
 30
0.0
 10
-15.32967322834646
 20
11.19581496062992
 30
0.0
 10
-15.33208661417323
 20
11.19494488188976
 30
0.0
 10
-15.33426377952756
 20
11.19324409448819
 30
0.0
 10
-15.33426377952756
 20
11.19324409448819
 30
0.0
 10
-15.3365157480315
 20
11.19154330708662
 30
0.0
 10
-15.33833464566929
 20
11.1888937007874
 30
0.0
 10
-15.33983858267717
 20
11.18525196850394
 30
0.0
 10
-15.33983858267717
 20
11.18525196850394
 30
0.0
 10
-15.3405905511811
 20
11.18315354330709
 30
0.0
 10
-15.34237007874016
 20
11.17702362204724
 30
0.0
 10
-15.34513779527559
 20
11.16681889763779
 30
0.0
 10
-15.34513779527559
 20
11.16681889763779
 30
0.0
 10
-15.34909448818898
 20
11.15206299212598
 30
0.0
 10
-15.35229921259842
 20
11.14177559055118
 30
0.0
 10
-15.35483070866142
 20
11.13596456692913
 30
0.0
 10
-15.35483070866142
 20
11.13596456692913
 30
0.0
 10
-15.35732283464567
 20
11.1301062992126
 30
0.0
 10
-15.36100393700787
 20
11.12551968503937
 30
0.0
 10
-15.3657874015748
 20
11.1221968503937
 30
0.0
 10
-15.3657874015748
 20
11.1221968503937
 30
0.0
 10
-15.37057480314961
 20
11.11887401574803
 30
0.0
 10
-15.37650787401575
 20
11.1172125984252
 30
0.0
 10
-15.38362992125984
 20
11.1172125984252
 30
0.0
 10
-15.38362992125984
 20
11.1172125984252
 30
0.0
 10
-15.3905905511811
 20
11.1172125984252
 30
0.0
 10
-15.39711811023622
 20
11.11927165354331
 30
0.0
 10
-15.40329133858268
 20
11.1233031496063
 30
0.0
 10
-15.40329133858268
 20
11.1233031496063
 30
0.0
 10
-15.40942125984252
 20
11.12737795275591
 30
0.0
 10
-15.41416929133858
 20
11.13323228346457
 30
0.0
 10
-15.41753149606299
 20
11.14087007874016
 30
0.0
 10
-15.41753149606299
 20
11.14087007874016
 30
0.0
 10
-15.4208937007874
 20
11.14850393700787
 30
0.0
 10
-15.42255511811024
 20
11.15716535433071
 30
0.0
 10
-15.42255511811024
 20
11.16681889763779
 30
0.0
 10
-15.42255511811024
 20
11.16681889763779
 30
0.0
 10
-15.42255511811024
 20
11.18283858267717
 30
0.0
 10
-15.41923228346457
 20
11.19502362204724
 30
0.0
 10
-15.41258661417323
 20
11.2034094488189
 30
0.0
 10
-15.41258661417323
 20
11.2034094488189
 30
0.0
 10
-15.40594094488189
 20
11.21179527559055
 30
0.0
 10
-15.3960905511811
 20
11.21713385826772
 30
0.0
 10
-15.38303543307087
 20
11.21942913385827
 30
0.0
  0
SPLINE
  5
66
330
1F
100
AcDbEntity
  8
Layer 1
  6
New Line4
 62
     7
370
     9
100
AcDbSpline
210
0.0
220
0.0
230
1.0
 70
    11
 71
     3
 72
    84
 73
    80
 74
     0
 42
0.0000000001
 43
0.0000000001
 40
0.0
 40
0.0
 40
0.0
 40
0.0
 40
0.05
 40
0.05
 40
0.05
 40
0.05
 40
0.1
 40
0.1
 40
0.1
 40
0.1
 40
0.15
 40
0.15
 40
0.15
 40
0.15
 40
0.2
 40
0.2
 40
0.2
 40
0.2
 40
0.25
 40
0.25
 40
0.25
 40
0.25
 40
0.3
 40
0.3
 40
0.3
 40
0.3
 40
0.35
 40
0.35
 40
0.35
 40
0.35
 40
0.4
 40
0.4
 40
0.4
 40
0.4
 40
0.45
 40
0.45
 40
0.45
 40
0.45
 40
0.4999999999999999
 40
0.4999999999999999
 40
0.4999999999999999
 40
0.4999999999999999
 40
0.5499999999999999
 40
0.5499999999999999
 40
0.5499999999999999
 40
0.5499999999999999
 40
0.6
 40
0.6
 40
0.6
 40
0.6
 40
0.65
 40
0.65
 40
0.65
 40
0.65
 40
0.7000000000000001
 40
0.7000000000000001
 40
0.7000000000000001
 40
0.7000000000000001
 40
0.7500000000000001
 40
0.7500000000000001
 40
0.7500000000000001
 40
0.7500000000000001
 40
0.8000000000000002
 40
0.8000000000000002
 40
0.8000000000000002
 40
0.8000000000000002
 40
0.8500000000000002
 40
0.8500000000000002
 40
0.8500000000000002
 40
0.8500000000000002
 40
0.9000000000000002
 40
0.9000000000000002
 40
0.9000000000000002
 40
0.9000000000000002
 40
0.9500000000000003
 40
0.9500000000000003
 40
0.9500000000000003
 40
0.9500000000000003
 40
1.0
 40
1.0
 40
1.0
 40
1.0
 10
-15.40111417322835
 20
11.0468779527559
 30
0.0
 10
-15.40111417322835
 20
11.0468779527559
 30
0.0
 10
-15.41954724409449
 20
11.04387401574803
 30
0.0
 10
-15.41954724409449
 20
11.04387401574803
 30
0.0
 10
-15.41954724409449
 20
11.04387401574803
 30
0.0
 10
-15.42077559055118
 20
11.04972440944882
 30
0.0
 10
-15.4214094488189
 20
11.05498818897638
 30
0.0
 10
-15.4214094488189
 20
11.05961417322835
 30
0.0
 10
-15.4214094488189
 20
11.05961417322835
 30
0.0
 10
-15.4214094488189
 20
11.06720866141732
 30
0.0
 10
-15.42022047244095
 20
11.07306692913386
 30
0.0
 10
-15.41780708661417
 20
11.07725590551181
 30
0.0
 10
-15.41780708661417
 20
11.07725590551181
 30
0.0
 10
-15.41543307086614
 20
11.0814094488189
 30
0.0
 10
-15.41227165354331
 20
11.08433858267717
 30
0.0
 10
-15.40835433070866
 20
11.08603937007874
 30
0.0
 10
-15.40835433070866
 20
11.08603937007874
 30
0.0
 10
-15.40447637795276
 20
11.08774015748032
 30
0.0
 10
-15.39624803149606
 20
11.08861023622047
 30
0.0
 10
-15.38374803149606
 20
11.08861023622047
 30
0.0
 10
-15.38374803149606
 20
11.08861023622047
 30
0.0
 10
-15.38374803149606
 20
11.08861023622047
 30
0.0
 10
-15.31294094488189
 20
11.08861023622047
 30
0.0
 10
-15.31294094488189
 20
11.08861023622047
 30
0.0
 10
-15.31294094488189
 20
11.08861023622047
 30
0.0
 10
-15.31294094488189
 20
11.08861023622047
 30
0.0
 10
-15.31294094488189
 20
11.10391732283465
 30
0.0
 10
-15.31294094488189
 20
11.10391732283465
 30
0.0
 10
-15.31294094488189
 20
11.10391732283465
 30
0.0
 10
-15.31294094488189
 20
11.10391732283465
 30
0.0
 10
-15.29672047244095
 20
11.10391732283465
 30
0.0
 10
-15.29672047244095
 20
11.10391732283465
 30
0.0
 10
-15.29672047244095
 20
11.10391732283465
 30
0.0
 10
-15.29672047244095
 20
11.10391732283465
 30
0.0
 10
-15.29672047244095
 20
11.08861023622047
 30
0.0
 10
-15.29672047244095
 20
11.08861023622047
 30
0.0
 10
-15.29672047244095
 20
11.08861023622047
 30
0.0
 10
-15.29672047244095
 20
11.08861023622047
 30
0.0
 10
-15.26622047244095
 20
11.08861023622047
 30
0.0
 10
-15.26622047244095
 20
11.08861023622047
 30
0.0
 10
-15.26622047244095
 20
11.08861023622047
 30
0.0
 10
-15.26622047244095
 20
11.08861023622047
 30
0.0
 10
-15.25372047244094
 20
11.06784251968504
 30
0.0
 10
-15.25372047244094
 20
11.06784251968504
 30
0.0
 10
-15.25372047244094
 20
11.06784251968504
 30
0.0
 10
-15.25372047244094
 20
11.06784251968504
 30
0.0
 10
-15.29672047244095
 20
11.06784251968504
 30
0.0
 10
-15.29672047244095
 20
11.06784251968504
 30
0.0
 10
-15.29672047244095
 20
11.06784251968504
 30
0.0
 10
-15.29672047244095
 20
11.06784251968504
 30
0.0
 10
-15.29672047244095
 20
11.0468779527559
 30
0.0
 10
-15.29672047244095
 20
11.0468779527559
 30
0.0
 10
-15.29672047244095
 20
11.0468779527559
 30
0.0
 10
-15.29672047244095
 20
11.0468779527559
 30
0.0
 10
-15.31294094488189
 20
11.0468779527559
 30
0.0
 10
-15.31294094488189
 20
11.0468779527559
 30
0.0
 10
-15.31294094488189
 20
11.0468779527559
 30
0.0
 10
-15.31294094488189
 20
11.0468779527559
 30
0.0
 10
-15.31294094488189
 20
11.06784251968504
 30
0.0
 10
-15.31294094488189
 20
11.06784251968504
 30
0.0
 10
-15.31294094488189
 20
11.06784251968504
 30
0.0
 10
-15.31294094488189
 20
11.06784251968504
 30
0.0
 10
-15.3848937007874
 20
11.06784251968504
 30
0.0
 10
-15.3848937007874
 20
11.06784251968504
 30
0.0
 10
-15.3848937007874
 20
11.06784251968504
 30
0.0
 10
-15.39087007874016
 20
11.06784251968504
 30
0.0
 10
-15.39466535433071
 20
11.06748818897638
 30
0.0
 10
-15.39636614173228
 20
11.06677559055118
 30
0.0
 10
-15.39636614173228
 20
11.06677559055118
 30
0.0
 10
-15.39806692913386
 20
11.06602362204724
 30
0.0
 10
-15.39941338582677
 20
11.06483464566929
 30
0.0
 10
-15.40044094488189
 20
11.06317716535433
 30
0.0
 10
-15.40044094488189
 20
11.06317716535433
 30
0.0
 10
-15.40142913385827
 20
11.06151181102362
 30
0.0
 10
-15.40194488188976
 20
11.05913779527559
 30
0.0
 10
-15.40194488188976
 20
11.05605511811024
 30
0.0
 10
-15.40194488188976
 20
11.05605511811024
 30
0.0
 10
-15.40194488188976
 20
11.05372047244095
 30
0.0
 10
-15.40166929133858
 20
11.05067716535433
 30
0.0
 10
-15.40111417322835
 20
11.0468779527559
 30
0.0
  0
SPLINE
  5
68
330
1F
100
AcDbEntity
  8
Layer 1
  6
New Line5
 62
     7
370
     9
100
AcDbSpline
210
0.0
220
0.0
230
1.0
 70
    11
 71
     3
 72
    56
 73
    52
 74
     0
 42
0.0000000001
 43
0.0000000001
 40
0.0
 40
0.0
 40
0.0
 40
0.0
 40
0.0769230769230769
 40
0.0769230769230769
 40
0.0769230769230769
 40
0.0769230769230769
 40
0.1538461538461539
 40
0.1538461538461539
 40
0.1538461538461539
 40
0.1538461538461539
 40
0.2307692307692308
 40
0.2307692307692308
 40
0.2307692307692308
 40
0.2307692307692308
 40
0.3076923076923077
 40
0.3076923076923077
 40
0.3076923076923077
 40
0.3076923076923077
 40
0.3846153846153846
 40
0.3846153846153846
 40
0.3846153846153846
 40
0.3846153846153846
 40
0.4615384615384616
 40
0.4615384615384616
 40
0.4615384615384616
 40
0.4615384615384616
 40
0.5384615384615385
 40
0.5384615384615385
 40
0.5384615384615385
 40
0.5384615384615385
 40
0.6153846153846154
 40
0.6153846153846154
 40
0.6153846153846154
 40
0.6153846153846154
 40
0.6923076923076923
 40
0.6923076923076923
 40
0.6923076923076923
 40
0.6923076923076923
 40
0.7692307692307692
 40
0.7692307692307692
 40
0.7692307692307692
 40
0.7692307692307692
 40
0.846153846153846
 40
0.846153846153846
 40
0.846153846153846
 40
0.846153846153846
 40
0.9230769230769229
 40
0.9230769230769229
 40
0.9230769230769229
 40
0.9230769230769229
 40
1.0
 40
1.0
 40
1.0
 40
1.0
 10
-15.4197874015748
 20
11.02670472440945
 30
0.0
 10
-15.4197874015748
 20
11.02670472440945
 30
0.0
 10
-15.29672047244095
 20
11.02670472440945
 30
0.0
 10
-15.29672047244095
 20
11.02670472440945
 30
0.0
 10
-15.29672047244095
 20
11.02670472440945
 30
0.0
 10
-15.29672047244095
 20
11.02670472440945
 30
0.0
 10
-15.29672047244095
 20
11.00795275590551
 30
0.0
 10
-15.29672047244095
 20
11.00795275590551
 30
0.0
 10
-15.29672047244095
 20
11.00795275590551
 30
0.0
 10
-15.29672047244095
 20
11.00795275590551
 30
0.0
 10
-15.31535433070866
 20
11.00795275590551
 30
0.0
 10
-15.31535433070866
 20
11.00795275590551
 30
0.0
 10
-15.31535433070866
 20
11.00795275590551
 30
0.0
 10
-15.30664960629921
 20
11.00316929133858
 30
0.0
 10
-15.30087401574803
 20
10.99873622047244
 30
0.0
 10
-15.2981062992126
 20
10.99466141732283
 30
0.0
 10
-15.2981062992126
 20
10.99466141732283
 30
0.0
 10
-15.29533464566929
 20
10.99062598425197
 30
0.0
 10
-15.29391338582677
 20
10.98615748031496
 30
0.0
 10
-15.29391338582677
 20
10.98129133858268
 30
0.0
 10
-15.29391338582677
 20
10.98129133858268
 30
0.0
 10
-15.29391338582677
 20
10.97424803149606
 30
0.0
 10
-15.29616929133858
 20
10.96712992125984
 30
0.0
 10
-15.30063779527559
 20
10.95985039370079
 30
0.0
 10
-15.30063779527559
 20
10.95985039370079
 30
0.0
 10
-15.30063779527559
 20
10.95985039370079
 30
0.0
 10
-15.32001968503937
 20
10.96705118110236
 30
0.0
 10
-15.32001968503937
 20
10.96705118110236
 30
0.0
 10
-15.32001968503937
 20
10.96705118110236
 30
0.0
 10
-15.31697637795276
 20
10.97211417322835
 30
0.0
 10
-15.31547244094488
 20
10.97721653543307
 30
0.0
 10
-15.31547244094488
 20
10.98231889763779
 30
0.0
 10
-15.31547244094488
 20
10.98231889763779
 30
0.0
 10
-15.31547244094488
 20
10.9869094488189
 30
0.0
 10
-15.31685826771654
 20
10.9909842519685
 30
0.0
 10
-15.31958267716535
 20
10.99462204724409
 30
0.0
 10
-15.31958267716535
 20
10.99462204724409
 30
0.0
 10
-15.32235433070866
 20
10.99826377952756
 30
0.0
 10
-15.32615354330709
 20
11.00083464566929
 30
0.0
 10
-15.33101968503937
 20
11.00237401574803
 30
0.0
 10
-15.33101968503937
 20
11.00237401574803
 30
0.0
 10
-15.33841338582677
 20
11.00470866141732
 30
0.0
 10
-15.34652362204724
 20
11.00585826771654
 30
0.0
 10
-15.35534645669291
 20
11.00585826771654
 30
0.0
 10
-15.35534645669291
 20
11.00585826771654
 30
0.0
 10
-15.35534645669291
 20
11.00585826771654
 30
0.0
 10
-15.4197874015748
 20
11.00585826771654
 30
0.0
 10
-15.4197874015748
 20
11.00585826771654
 30
0.0
 10
-15.4197874015748
 20
11.00585826771654
 30
0.0
 10
-15.4197874015748
 20
11.00585826771654
 30
0.0
 10
-15.4197874015748
 20
11.02670472440945
 30
0.0
 10
-15.4197874015748
 20
11.02670472440945
 30
0.0
  0
SPLINE
  5
6A
330
1F
100
AcDbEntity
  8
Layer 1
  6
New Line6
 62
     7
370
     9
100
AcDbSpline
210
0.0
220
0.0
230
1.0
 70
    11
 71
     3
 72
    80
 73
    76
 74
     0
 42
0.0000000001
 43
0.0000000001
 40
0.0
 40
0.0
 40
0.0
 40
0.0
 40
0.0526315789473684
 40
0.0526315789473684
 40
0.0526315789473684
 40
0.0526315789473684
 40
0.1052631578947368
 40
0.1052631578947368
 40
0.1052631578947368
 40
0.1052631578947368
 40
0.1578947368421053
 40
0.1578947368421053
 40
0.1578947368421053
 40
0.1578947368421053
 40
0.2105263157894737
 40
0.2105263157894737
 40
0.2105263157894737
 40
0.2105263157894737
 40
0.2631578947368421
 40
0.2631578947368421
 40
0.2631578947368421
 40
0.2631578947368421
 40
0.3157894736842105
 40
0.3157894736842105
 40
0.3157894736842105
 40
0.3157894736842105
 40
0.3684210526315789
 40
0.3684210526315789
 40
0.3684210526315789
 40
0.3684210526315789
 40
0.4210526315789473
 40
0.4210526315789473
 40
0.4210526315789473
 40
0.4210526315789473
 40
0.4736842105263158
 40
0.4736842105263158
 40
0.4736842105263158
 40
0.4736842105263158
 40
0.5263157894736842
 40
0.5263157894736842
 40
0.5263157894736842
 40
0.5263157894736842
 40
0.5789473684210527
 40
0.5789473684210527
 40
0.5789473684210527
 40
0.5789473684210527
 40
0.631578947368421
 40
0.631578947368421
 40
0.631578947368421
 40
0.631578947368421
 40
0.6842105263157894
 40
0.6842105263157894
 40
0.6842105263157894
 40
0.6842105263157894
 40
0.7368421052631577
 40
0.7368421052631577
 40
0.7368421052631577
 40
0.7368421052631577
 40
0.7894736842105261
 40
0.7894736842105261
 40
0.7894736842105261
 40
0.7894736842105261
 40
0.8421052631578945
 40
0.8421052631578945
 40
0.8421052631578945
 40
0.8421052631578945
 40
0.8947368421052628
 40
0.8947368421052628
 40
0.8947368421052628
 40
0.8947368421052628
 40
0.9473684210526312
 40
0.9473684210526312
 40
0.9473684210526312
 40
0.9473684210526312
 40
1.0
 40
1.0
 40
1.0
 40
1.0
 10
-15.4197874015748
 20
10.86677165354331
 30
0.0
 10
-15.4197874015748
 20
10.86677165354331
 30
0.0
 10
-15.40170866141732
 20
10.86677165354331
 30
0.0
 10
-15.40170866141732
 20
10.86677165354331
 30
0.0
 10
-15.40170866141732
 20
10.86677165354331
 30
0.0
 10
-15.41562992125984
 20
10.87638188976378
 30
0.0
 10
-15.42255511811024
 20
10.88939763779528
 30
0.0
 10
-15.42255511811024
 20
10.90585433070866
 30
0.0
 10
-15.42255511811024
 20
10.90585433070866
 30
0.0
 10
-15.42255511811024
 20
10.91309448818898
 30
0.0
 10
-15.42116929133858
 20
10.91989763779528
 30
0.0
 10
-15.41840157480315
 20
10.92618503937008
 30
0.0
 10
-15.41840157480315
 20
10.92618503937008
 30
0.0
 10
-15.41562992125984
 20
10.93247637795276
 30
0.0
 10
-15.41211023622047
 20
10.93714566929134
 30
0.0
 10
-15.40791732283465
 20
10.94019291338583
 30
0.0
 10
-15.40791732283465
 20
10.94019291338583
 30
0.0
 10
-15.40368503937008
 20
10.94327559055118
 30
0.0
 10
-15.39854330708661
 20
10.94541338582677
 30
0.0
 10
-15.39244881889764
 20
10.94663779527559
 30
0.0
 10
-15.39244881889764
 20
10.94663779527559
 30
0.0
 10
-15.38833858267717
 20
10.94746850393701
 30
0.0
 10
-15.38184645669291
 20
10.94790551181102
 30
0.0
 10
-15.37294881889764
 20
10.94790551181102
 30
0.0
 10
-15.37294881889764
 20
10.94790551181102
 30
0.0
 10
-15.37294881889764
 20
10.94790551181102
 30
0.0
 10
-15.29672047244095
 20
10.94790551181102
 30
0.0
 10
-15.29672047244095
 20
10.94790551181102
 30
0.0
 10
-15.29672047244095
 20
10.94790551181102
 30
0.0
 10
-15.29672047244095
 20
10.94790551181102
 30
0.0
 10
-15.29672047244095
 20
10.92705905511811
 30
0.0
 10
-15.29672047244095
 20
10.92705905511811
 30
0.0
 10
-15.29672047244095
 20
10.92705905511811
 30
0.0
 10
-15.29672047244095
 20
10.92705905511811
 30
0.0
 10
-15.36495669291339
 20
10.92705905511811
 30
0.0
 10
-15.36495669291339
 20
10.92705905511811
 30
0.0
 10
-15.36495669291339
 20
10.92705905511811
 30
0.0
 10
-15.37587795275591
 20
10.92705905511811
 30
0.0
 10
-15.38319291338583
 20
10.92662598425197
 30
0.0
 10
-15.38699212598425
 20
10.92579133858268
 30
0.0
 10
-15.38699212598425
 20
10.92579133858268
 30
0.0
 10
-15.39248818897638
 20
10.92444488188976
 30
0.0
 10
-15.39676377952756
 20
10.92168110236221
 30
0.0
 10
-15.39992519685039
 20
10.91744488188976
 30
0.0
 10
-15.39992519685039
 20
10.91744488188976
 30
0.0
 10
-15.40305118110236
 20
10.91317322834646
 30
0.0
 10
-15.40459448818898
 20
10.90791338582677
 30
0.0
 10
-15.40459448818898
 20
10.90166141732283
 30
0.0
 10
-15.40459448818898
 20
10.90166141732283
 30
0.0
 10
-15.40459448818898
 20
10.89541338582677
 30
0.0
 10
-15.40301181102362
 20
10.88955511811024
 30
0.0
 10
-15.39981102362205
 20
10.88405905511811
 30
0.0
 10
-15.39981102362205
 20
10.88405905511811
 30
0.0
 10
-15.3966062992126
 20
10.87855905511811
 30
0.0
 10
-15.39221653543307
 20
10.87468503937008
 30
0.0
 10
-15.38671653543307
 20
10.87242913385827
 30
0.0
 10
-15.38671653543307
 20
10.87242913385827
 30
0.0
 10
-15.38117716535433
 20
10.87013385826772
 30
0.0
 10
-15.37314566929134
 20
10.86898818897638
 30
0.0
 10
-15.36266141732284
 20
10.86898818897638
 30
0.0
 10
-15.36266141732284
 20
10.86898818897638
 30
0.0
 10
-15.36266141732284
 20
10.86898818897638
 30
0.0
 10
-15.29672047244095
 20
10.86898818897638
 30
0.0
 10
-15.29672047244095
 20
10.86898818897638
 30
0.0
 10
-15.29672047244095
 20
10.86898818897638
 30
0.0
 10
-15.29672047244095
 20
10.86898818897638
 30
0.0
 10
-15.29672047244095
 20
10.84814173228346
 30
0.0
 10
-15.29672047244095
 20
10.84814173228346
 30
0.0
 10
-15.29672047244095
 20
10.84814173228346
 30
0.0
 10
-15.29672047244095
 20
10.84814173228346
 30
0.0
 10
-15.4197874015748
 20
10.84814173228346
 30
0.0
 10
-15.4197874015748
 20
10.84814173228346
 30
0.0
 10
-15.4197874015748
 20
10.84814173228346
 30
0.0
 10
-15.4197874015748
 20
10.84814173228346
 30
0.0
 10
-15.4197874015748
 20
10.86677165354331
 30
0.0
 10
-15.4197874015748
 20
10.86677165354331
 30
0.0
  0
SPLINE
  5
6C
330
1F
100
AcDbEntity
  8
Layer 1
  6
New Line7
 62
     7
370
     9
100
AcDbSpline
210
0.0
220
0.0
230
1.0
 70
    11
 71
     3
 72
    80
 73
    76
 74
     0
 42
0.0000000001
 43
0.0000000001
 40
0.0
 40
0.0
 40
0.0
 40
0.0
 40
0.0526315789473684
 40
0.0526315789473684
 40
0.0526315789473684
 40
0.0526315789473684
 40
0.1052631578947368
 40
0.1052631578947368
 40
0.1052631578947368
 40
0.1052631578947368
 40
0.1578947368421053
 40
0.1578947368421053
 40
0.1578947368421053
 40
0.1578947368421053
 40
0.2105263157894737
 40
0.2105263157894737
 40
0.2105263157894737
 40
0.2105263157894737
 40
0.2631578947368421
 40
0.2631578947368421
 40
0.2631578947368421
 40
0.2631578947368421
 40
0.3157894736842105
 40
0.3157894736842105
 40
0.3157894736842105
 40
0.3157894736842105
 40
0.3684210526315789
 40
0.3684210526315789
 40
0.3684210526315789
 40
0.3684210526315789
 40
0.4210526315789473
 40
0.4210526315789473
 40
0.4210526315789473
 40
0.4210526315789473
 40
0.4736842105263158
 40
0.4736842105263158
 40
0.4736842105263158
 40
0.4736842105263158
 40
0.5263157894736842
 40
0.5263157894736842
 40
0.5263157894736842
 40
0.5263157894736842
 40
0.5789473684210527
 40
0.5789473684210527
 40
0.5789473684210527
 40
0.5789473684210527
 40
0.631578947368421
 40
0.631578947368421
 40
0.631578947368421
 40
0.631578947368421
 40
0.6842105263157894
 40
0.6842105263157894
 40
0.6842105263157894
 40
0.6842105263157894
 40
0.7368421052631577
 40
0.7368421052631577
 40
0.7368421052631577
 40
0.7368421052631577
 40
0.7894736842105261
 40
0.7894736842105261
 40
0.7894736842105261
 40
0.7894736842105261
 40
0.8421052631578945
 40
0.8421052631578945
 40
0.8421052631578945
 40
0.8421052631578945
 40
0.8947368421052628
 40
0.8947368421052628
 40
0.8947368421052628
 40
0.8947368421052628
 40
0.9473684210526312
 40
0.9473684210526312
 40
0.9473684210526312
 40
0.9473684210526312
 40
1.0
 40
1.0
 40
1.0
 40
1.0
 10
-15.37468897637795
 20
10.7351220472441
 30
0.0
 10
-15.37468897637795
 20
10.7351220472441
 30
0.0
 10
-15.37738188976378
 20
10.71463385826772
 30
0.0
 10
-15.37738188976378
 20
10.71463385826772
 30
0.0
 10
-15.37738188976378
 20
10.71463385826772
 30
0.0
 10
-15.39150393700787
 20
10.71684645669291
 30
0.0
 10
-15.40257874015748
 20
10.72258267716535
 30
0.0
 10
-15.41056692913386
 20
10.73183858267716
 30
0.0
 10
-15.41056692913386
 20
10.73183858267716
 30
0.0
 10
-15.41855905511811
 20
10.74105511811024
 30
0.0
 10
-15.42255511811024
 20
10.7524094488189
 30
0.0
 10
-15.42255511811024
 20
10.76586220472441
 30
0.0
 10
-15.42255511811024
 20
10.76586220472441
 30
0.0
 10
-15.42255511811024
 20
10.78267322834646
 30
0.0
 10
-15.41705511811024
 20
10.79624015748031
 30
0.0
 10
-15.40605905511811
 20
10.80644488188976
 30
0.0
 10
-15.40605905511811
 20
10.80644488188976
 30
0.0
 10
-15.39506299212598
 20
10.81669291338583
 30
0.0
 10
-15.37927952755905
 20
10.82183464566929
 30
0.0
 10
-15.35870866141732
 20
10.82183464566929
 30
0.0
 10
-15.35870866141732
 20
10.82183464566929
 30
0.0
 10
-15.34541732283465
 20
10.82183464566929
 30
0.0
 10
-15.3337874015748
 20
10.81961811023622
 30
0.0
 10
-15.32381889763779
 20
10.81522834645669
 30
0.0
 10
-15.32381889763779
 20
10.81522834645669
 30
0.0
 10
-15.31385039370079
 20
10.81079921259843
 30
0.0
 10
-15.30637401574803
 20
10.80411023622047
 30
0.0
 10
-15.30138976377953
 20
10.79509448818898
 30
0.0
 10
-15.30138976377953
 20
10.79509448818898
 30
0.0
 10
-15.29640551181102
 20
10.78611417322835
 30
0.0
 10
-15.29391338582677
 20
10.7763031496063
 30
0.0
 10
-15.29391338582677
 20
10.76574015748031
 30
0.0
 10
-15.29391338582677
 20
10.76574015748031
 30
0.0
 10
-15.29391338582677
 20
10.75237007874016
 30
0.0
 10
-15.29731496062992
 20
10.74141338582677
 30
0.0
 10
-15.30407874015748
 20
10.73294881889764
 30
0.0
 10
-15.30407874015748
 20
10.73294881889764
 30
0.0
 10
-15.31084251968504
 20
10.72444094488189
 30
0.0
 10
-15.32041732283465
 20
10.7189842519685
 30
0.0
 10
-15.33287795275591
 20
10.71657086614173
 30
0.0
 10
-15.33287795275591
 20
10.71657086614173
 30
0.0
 10
-15.33287795275591
 20
10.71657086614173
 30
0.0
 10
-15.33600393700787
 20
10.73686220472441
 30
0.0
 10
-15.33600393700787
 20
10.73686220472441
 30
0.0
 10
-15.33600393700787
 20
10.73686220472441
 30
0.0
 10
-15.32773228346457
 20
10.7388031496063
 30
0.0
 10
-15.32152362204724
 20
10.74220472440945
 30
0.0
 10
-15.31733070866142
 20
10.74711023622047
 30
0.0
 10
-15.31733070866142
 20
10.74711023622047
 30
0.0
 10
-15.31317716535433
 20
10.7520157480315
 30
0.0
 10
-15.31108267716535
 20
10.75794488188976
 30
0.0
 10
-15.31108267716535
 20
10.7649094488189
 30
0.0
 10
-15.31108267716535
 20
10.7649094488189
 30
0.0
 10
-15.31108267716535
 20
10.77543307086614
 30
0.0
 10
-15.31483858267717
 20
10.78397637795276
 30
0.0
 10
-15.3223937007874
 20
10.79054330708661
 30
0.0
 10
-15.3223937007874
 20
10.79054330708661
 30
0.0
 10
-15.3299094488189
 20
10.79711023622047
 30
0.0
 10
-15.3418188976378
 20
10.8003937007874
 30
0.0
 10
-15.35811417322835
 20
10.8003937007874
 30
0.0
 10
-15.35811417322835
 20
10.8003937007874
 30
0.0
 10
-15.37464960629921
 20
10.8003937007874
 30
0.0
 10
-15.38667716535433
 20
10.79722834645669
 30
0.0
 10
-15.39419291338583
 20
10.79086220472441
 30
0.0
 10
-15.39419291338583
 20
10.79086220472441
 30
0.0
 10
-15.40166929133858
 20
10.78453149606299
 30
0.0
 10
-15.40542519685039
 20
10.77626377952756
 30
0.0
 10
-15.40542519685039
 20
10.76605511811024
 30
0.0
 10
-15.40542519685039
 20
10.76605511811024
 30
0.0
 10
-15.40542519685039
 20
10.75787007874016
 30
0.0
 10
-15.4028937007874
 20
10.75106299212598
 30
0.0
 10
-15.39787007874016
 20
10.74556692913386
 30
0.0
 10
-15.39787007874016
 20
10.74556692913386
 30
0.0
 10
-15.39284645669291
 20
10.74006692913386
 30
0.0
 10
-15.38513385826772
 20
10.73658661417323
 30
0.0
 10
-15.37468897637795
 20
10.7351220472441
 30
0.0
  0
SPLINE
  5
6E
330
1F
100
AcDbEntity
  8
Layer 1
  6
New Line8
 62
     7
370
     9
100
AcDbSpline
210
0.0
220
0.0
230
1.0
 70
    11
 71
     3
 72
    84
 73
    80
 74
     0
 42
0.0000000001
 43
0.0000000001
 40
0.0
 40
0.0
 40
0.0
 40
0.0
 40
0.05
 40
0.05
 40
0.05
 40
0.05
 40
0.1
 40
0.1
 40
0.1
 40
0.1
 40
0.15
 40
0.15
 40
0.15
 40
0.15
 40
0.2
 40
0.2
 40
0.2
 40
0.2
 40
0.25
 40
0.25
 40
0.25
 40
0.25
 40
0.3
 40
0.3
 40
0.3
 40
0.3
 40
0.35
 40
0.35
 40
0.35
 40
0.35
 40
0.4
 40
0.4
 40
0.4
 40
0.4
 40
0.45
 40
0.45
 40
0.45
 40
0.45
 40
0.4999999999999999
 40
0.4999999999999999
 40
0.4999999999999999
 40
0.4999999999999999
 40
0.5499999999999999
 40
0.5499999999999999
 40
0.5499999999999999
 40
0.5499999999999999
 40
0.6
 40
0.6
 40
0.6
 40
0.6
 40
0.65
 40
0.65
 40
0.65
 40
0.65
 40
0.7000000000000001
 40
0.7000000000000001
 40
0.7000000000000001
 40
0.7000000000000001
 40
0.7500000000000001
 40
0.7500000000000001
 40
0.7500000000000001
 40
0.7500000000000001
 40
0.8000000000000002
 40
0.8000000000000002
 40
0.8000000000000002
 40
0.8000000000000002
 40
0.8500000000000002
 40
0.8500000000000002
 40
0.8500000000000002
 40
0.8500000000000002
 40
0.9000000000000002
 40
0.9000000000000002
 40
0.9000000000000002
 40
0.9000000000000002
 40
0.9500000000000003
 40
0.9500000000000003
 40
0.9500000000000003
 40
0.9500000000000003
 40
1.0
 40
1.0
 40
1.0
 40
1.0
 10
-15.40111417322835
 20
10.65122047244095
 30
0.0
 10
-15.40111417322835
 20
10.65122047244095
 30
0.0
 10
-15.41954724409449
 20
10.6482125984252
 30
0.0
 10
-15.41954724409449
 20
10.6482125984252
 30
0.0
 10
-15.41954724409449
 20
10.6482125984252
 30
0.0
 10
-15.42077559055118
 20
10.65406692913386
 30
0.0
 10
-15.4214094488189
 20
10.65933070866142
 30
0.0
 10
-15.4214094488189
 20
10.66395669291339
 30
0.0
 10
-15.4214094488189
 20
10.66395669291339
 30
0.0
 10
-15.4214094488189
 20
10.67155118110236
 30
0.0
 10
-15.42022047244095
 20
10.6774094488189
 30
0.0
 10
-15.41780708661417
 20
10.68159842519685
 30
0.0
 10
-15.41780708661417
 20
10.68159842519685
 30
0.0
 10
-15.41543307086614
 20
10.68575196850394
 30
0.0
 10
-15.41227165354331
 20
10.6886811023622
 30
0.0
 10
-15.40835433070866
 20
10.69038188976378
 30
0.0
 10
-15.40835433070866
 20
10.69038188976378
 30
0.0
 10
-15.40447637795276
 20
10.69208267716535
 30
0.0
 10
-15.39624803149606
 20
10.69295275590551
 30
0.0
 10
-15.38374803149606
 20
10.69295275590551
 30
0.0
 10
-15.38374803149606
 20
10.69295275590551
 30
0.0
 10
-15.38374803149606
 20
10.69295275590551
 30
0.0
 10
-15.31294094488189
 20
10.69295275590551
 30
0.0
 10
-15.31294094488189
 20
10.69295275590551
 30
0.0
 10
-15.31294094488189
 20
10.69295275590551
 30
0.0
 10
-15.31294094488189
 20
10.69295275590551
 30
0.0
 10
-15.31294094488189
 20
10.70825984251968
 30
0.0
 10
-15.31294094488189
 20
10.70825984251968
 30
0.0
 10
-15.31294094488189
 20
10.70825984251968
 30
0.0
 10
-15.31294094488189
 20
10.70825984251968
 30
0.0
 10
-15.29672047244095
 20
10.70825984251968
 30
0.0
 10
-15.29672047244095
 20
10.70825984251968
 30
0.0
 10
-15.29672047244095
 20
10.70825984251968
 30
0.0
 10
-15.29672047244095
 20
10.70825984251968
 30
0.0
 10
-15.29672047244095
 20
10.69295275590551
 30
0.0
 10
-15.29672047244095
 20
10.69295275590551
 30
0.0
 10
-15.29672047244095
 20
10.69295275590551
 30
0.0
 10
-15.29672047244095
 20
10.69295275590551
 30
0.0
 10
-15.26622047244095
 20
10.69295275590551
 30
0.0
 10
-15.26622047244095
 20
10.69295275590551
 30
0.0
 10
-15.26622047244095
 20
10.69295275590551
 30
0.0
 10
-15.26622047244095
 20
10.69295275590551
 30
0.0
 10
-15.25372047244094
 20
10.67218503937008
 30
0.0
 10
-15.25372047244094
 20
10.67218503937008
 30
0.0
 10
-15.25372047244094
 20
10.67218503937008
 30
0.0
 10
-15.25372047244094
 20
10.67218503937008
 30
0.0
 10
-15.29672047244095
 20
10.67218503937008
 30
0.0
 10
-15.29672047244095
 20
10.67218503937008
 30
0.0
 10
-15.29672047244095
 20
10.67218503937008
 30
0.0
 10
-15.29672047244095
 20
10.67218503937008
 30
0.0
 10
-15.29672047244095
 20
10.65122047244095
 30
0.0
 10
-15.29672047244095
 20
10.65122047244095
 30
0.0
 10
-15.29672047244095
 20
10.65122047244095
 30
0.0
 10
-15.29672047244095
 20
10.65122047244095
 30
0.0
 10
-15.31294094488189
 20
10.65122047244095
 30
0.0
 10
-15.31294094488189
 20
10.65122047244095
 30
0.0
 10
-15.31294094488189
 20
10.65122047244095
 30
0.0
 10
-15.31294094488189
 20
10.65122047244095
 30
0.0
 10
-15.31294094488189
 20
10.67218503937008
 30
0.0
 10
-15.31294094488189
 20
10.67218503937008
 30
0.0
 10
-15.31294094488189
 20
10.67218503937008
 30
0.0
 10
-15.31294094488189
 20
10.67218503937008
 30
0.0
 10
-15.3848937007874
 20
10.67218503937008
 30
0.0
 10
-15.3848937007874
 20
10.67218503937008
 30
0.0
 10
-15.3848937007874
 20
10.67218503937008
 30
0.0
 10
-15.39087007874016
 20
10.67218503937008
 30
0.0
 10
-15.39466535433071
 20
10.67183070866142
 30
0.0
 10
-15.39636614173228
 20
10.67111811023622
 30
0.0
 10
-15.39636614173228
 20
10.67111811023622
 30
0.0
 10
-15.39806692913386
 20
10.67036614173228
 30
0.0
 10
-15.39941338582677
 20
10.66917716535433
 30
0.0
 10
-15.40044094488189
 20
10.66751968503937
 30
0.0
 10
-15.40044094488189
 20
10.66751968503937
 30
0.0
 10
-15.40142913385827
 20
10.66585433070866
 30
0.0
 10
-15.40194488188976
 20
10.66348031496063
 30
0.0
 10
-15.40194488188976
 20
10.66039763779528
 30
0.0
 10
-15.40194488188976
 20
10.66039763779528
 30
0.0
 10
-15.40194488188976
 20
10.65806299212598
 30
0.0
 10
-15.40166929133858
 20
10.65501968503937
 30
0.0
 10
-15.40111417322835
 20
10.65122047244095
 30
0.0
  0
SPLINE
  5
70
330
1F
100
AcDbEntity
  8
Layer 1
  6
New Line9
 62
     7
370
     9
100
AcDbSpline
210
0.0
220
0.0
230
1.0
 70
    11
 71
     3
 72
   112
 73
   108
 74
     0
 42
0.0000000001
 43
0.0000000001
 40
0.0
 40
0.0
 40
0.0
 40
0.0
 40
0.037037037037037
 40
0.037037037037037
 40
0.037037037037037
 40
0.037037037037037
 40
0.0740740740740741
 40
0.0740740740740741
 40
0.0740740740740741
 40
0.0740740740740741
 40
0.1111111111111111
 40
0.1111111111111111
 40
0.1111111111111111
 40
0.1111111111111111
 40
0.1481481481481481
 40
0.1481481481481481
 40
0.1481481481481481
 40
0.1481481481481481
 40
0.1851851851851852
 40
0.1851851851851852
 40
0.1851851851851852
 40
0.1851851851851852
 40
0.2222222222222222
 40
0.2222222222222222
 40
0.2222222222222222
 40
0.2222222222222222
 40
0.2592592592592592
 40
0.2592592592592592
 40
0.2592592592592592
 40
0.2592592592592592
 40
0.2962962962962963
 40
0.2962962962962963
 40
0.2962962962962963
 40
0.2962962962962963
 40
0.3333333333333333
 40
0.3333333333333333
 40
0.3333333333333333
 40
0.3333333333333333
 40
0.3703703703703703
 40
0.3703703703703703
 40
0.3703703703703703
 40
0.3703703703703703
 40
0.4074074074074074
 40
0.4074074074074074
 40
0.4074074074074074
 40
0.4074074074074074
 40
0.4444444444444444
 40
0.4444444444444444
 40
0.4444444444444444
 40
0.4444444444444444
 40
0.4814814814814815
 40
0.4814814814814815
 40
0.4814814814814815
 40
0.4814814814814815
 40
0.5185185185185185
 40
0.5185185185185185
 40
0.5185185185185185
 40
0.5185185185185185
 40
0.5555555555555556
 40
0.5555555555555556
 40
0.5555555555555556
 40
0.5555555555555556
 40
0.5925925925925926
 40
0.5925925925925926
 40
0.5925925925925926
 40
0.5925925925925926
 40
0.6296296296296295
 40
0.6296296296296295
 40
0.6296296296296295
 40
0.6296296296296295
 40
0.6666666666666665
 40
0.6666666666666665
 40
0.6666666666666665
 40
0.6666666666666665
 40
0.7037037037037035
 40
0.7037037037037035
 40
0.7037037037037035
 40
0.7037037037037035
 40
0.7407407407407405
 40
0.7407407407407405
 40
0.7407407407407405
 40
0.7407407407407405
 40
0.7777777777777775
 40
0.7777777777777775
 40
0.7777777777777775
 40
0.7777777777777775
 40
0.8148148148148144
 40
0.8148148148148144
 40
0.8148148148148144
 40
0.8148148148148144
 40
0.8518518518518514
 40
0.8518518518518514
 40
0.8518518518518514
 40
0.8518518518518514
 40
0.8888888888888884
 40
0.8888888888888884
 40
0.8888888888888884
 40
0.8888888888888884
 40
0.9259259259259254
 40
0.9259259259259254
 40
0.9259259259259254
 40
0.9259259259259254
 40
0.9629629629629624
 40
0.9629629629629624
 40
0.9629629629629624
 40
0.9629629629629624
 40
1.0
 40
1.0
 40
1.0
 40
1.0
 10
-15.40459448818898
 20
10.55050393700787
 30
0.0
 10
-15.41116141732283
 20
10.55825984251969
 30
0.0
 10
-15.41579133858268
 20
10.5656968503937
 30
0.0
 10
-15.41851968503937
 20
10.57281496062992
 30
0.0
 10
-15.41851968503937
 20
10.57281496062992
 30
0.0
 10
-15.42120866141732
 20
10.57997637795276
 30
0.0
 10
-15.42255511811024
 20
10.58765354330709
 30
0.0
 10
-15.42255511811024
 20
10.59583858267717
 30
0.0
 10
-15.42255511811024
 20
10.59583858267717
 30
0.0
 10
-15.42255511811024
 20
10.60937007874016
 30
0.0
 10
-15.41927165354331
 20
10.61973228346457
 30
0.0
 10
-15.41266535433071
 20
10.62701181102362
 30
0.0
 10
-15.41266535433071
 20
10.62701181102362
 30
0.0
 10
-15.40605905511811
 20
10.63425196850394
 30
0.0
 10
-15.39759448818898
 20
10.63788976377953
 30
0.0
 10
-15.38735039370079
 20
10.63788976377953
 30
0.0
 10
-15.38735039370079
 20
10.63788976377953
 30
0.0
 10
-15.38129527559055
 20
10.63788976377953
 30
0.0
 10
-15.37579527559055
 20
10.63654330708661
 30
0.0
 10
-15.37081102362205
 20
10.63377559055118
 30
0.0
 10
-15.37081102362205
 20
10.63377559055118
 30
0.0
 10
-15.36582677165354
 20
10.63104724409449
 30
0.0
 10
-15.36183464566929
 20
10.62744881889764
 30
0.0
 10
-15.35882677165354
 20
10.6230157480315
 30
0.0
 10
-15.35882677165354
 20
10.6230157480315
 30
0.0
 10
-15.35581889763779
 20
10.61854724409449
 30
0.0
 10
-15.35352755905512
 20
10.61356299212598
 30
0.0
 10
-15.35198031496063
 20
10.6079842519685
 30
0.0
 10
-15.35198031496063
 20
10.6079842519685
 30
0.0
 10
-15.35091338582677
 20
10.6039094488189
 30
0.0
 10
-15.34984645669291
 20
10.59773622047244
 30
0.0
 10
-15.34885826771654
 20
10.58947244094488
 30
0.0
 10
-15.34885826771654
 20
10.58947244094488
 30
0.0
 10
-15.34684251968504
 20
10.57261811023622
 30
0.0
 10
-15.34446456692913
 20
10.56020078740158
 30
0.0
 10
-15.34165748031496
 20
10.55224803149606
 30
0.0
 10
-15.34165748031496
 20
10.55224803149606
 30
0.0
 10
-15.33881102362205
 20
10.55216929133858
 30
0.0
 10
-15.33698818897638
 20
10.55212992125984
 30
0.0
 10
-15.33624015748032
 20
10.55212992125984
 30
0.0
 10
-15.33624015748032
 20
10.55212992125984
 30
0.0
 10
-15.32773228346457
 20
10.55212992125984
 30
0.0
 10
-15.32172047244094
 20
10.5541062992126
 30
0.0
 10
-15.31827952755905
 20
10.55806299212598
 30
0.0
 10
-15.31827952755905
 20
10.55806299212598
 30
0.0
 10
-15.31353149606299
 20
10.56336220472441
 30
0.0
 10
-15.31120078740157
 20
10.57131496062992
 30
0.0
 10
-15.31120078740157
 20
10.58179527559055
 30
0.0
 10
-15.31120078740157
 20
10.58179527559055
 30
0.0
 10
-15.31120078740157
 20
10.5916062992126
 30
0.0
 10
-15.31290157480315
 20
10.59884645669291
 30
0.0
 10
-15.31634251968504
 20
10.60355118110236
 30
0.0
 10
-15.31634251968504
 20
10.60355118110236
 30
0.0
 10
-15.31978346456693
 20
10.60822440944882
 30
0.0
 10
-15.32587401574803
 20
10.61166141732283
 30
0.0
 10
-15.33461811023622
 20
10.61391732283465
 30
0.0
 10
-15.33461811023622
 20
10.61391732283465
 30
0.0
 10
-15.33461811023622
 20
10.61391732283465
 30
0.0
 10
-15.33181102362205
 20
10.63429133858268
 30
0.0
 10
-15.33181102362205
 20
10.63429133858268
 30
0.0
 10
-15.33181102362205
 20
10.63429133858268
 30
0.0
 10
-15.3231062992126
 20
10.63243307086614
 30
0.0
 10
-15.31602362204724
 20
10.62938582677165
 30
0.0
 10
-15.31068503937008
 20
10.62515354330709
 30
0.0
 10
-15.31068503937008
 20
10.62515354330709
 30
0.0
 10
-15.3053031496063
 20
10.62091732283465
 30
0.0
 10
-15.30115354330709
 20
10.61474803149606
 30
0.0
 10
-15.29826377952756
 20
10.60671653543307
 30
0.0
 10
-15.29826377952756
 20
10.60671653543307
 30
0.0
 10
-15.29537401574803
 20
10.59868897637795
 30
0.0
 10
-15.29391338582677
 20
10.5893937007874
 30
0.0
 10
-15.29391338582677
 20
10.57879133858268
 30
0.0
 10
-15.29391338582677
 20
10.57879133858268
 30
0.0
 10
-15.29391338582677
 20
10.56826771653543
 30
0.0
 10
-15.29517716535433
 20
10.55976377952756
 30
0.0
 10
-15.29762992125984
 20
10.5531968503937
 30
0.0
 10
-15.29762992125984
 20
10.5531968503937
 30
0.0
 10
-15.30012204724409
 20
10.54662992125984
 30
0.0
 10
-15.30320866141732
 20
10.5418031496063
 30
0.0
 10
-15.30696850393701
 20
10.53867716535433
 30
0.0
 10
-15.30696850393701
 20
10.53867716535433
 30
0.0
 10
-15.31072440944882
 20
10.5355905511811
 30
0.0
 10
-15.31543307086614
 20
10.53345669291339
 30
0.0
 10
-15.32116929133858
 20
10.53219291338583
 30
0.0
 10
-15.32116929133858
 20
10.53219291338583
 30
0.0
 10
-15.32472834645669
 20
10.53151968503937
 30
0.0
 10
-15.33113779527559
 20
10.53116141732283
 30
0.0
 10
-15.3403937007874
 20
10.53116141732283
 30
0.0
 10
-15.3403937007874
 20
10.53116141732283
 30
0.0
 10
-15.3403937007874
 20
10.53116141732283
 30
0.0
 10
-15.36820078740157
 20
10.53116141732283
 30
0.0
 10
-15.36820078740157
 20
10.53116141732283
 30
0.0
 10
-15.36820078740157
 20
10.53116141732283
 30
0.0
 10
-15.38762598425197
 20
10.53116141732283
 30
0.0
 10
-15.39988582677165
 20
10.53072834645669
 30
0.0
 10
-15.40498818897638
 20
10.5298188976378
 30
0.0
 10
-15.40498818897638
 20
10.5298188976378
 30
0.0
 10
-15.41013385826772
 20
10.52894881889764
 30
0.0
 10
-15.41507874015748
 20
10.52716929133858
 30
0.0
 10
-15.4197874015748
 20
10.52455511811024
 30
0.0
 10
-15.4197874015748
 20
10.52455511811024
 30
0.0
 10
-15.4197874015748
 20
10.52455511811024
 30
0.0
 10
-15.4197874015748
 20
10.54635433070866
 30
0.0
 10
-15.4197874015748
 20
10.54635433070866
 30
0.0
 10
-15.4197874015748
 20
10.54635433070866
 30
0.0
 10
-15.41547244094488
 20
10.54848818897638
 30
0.0
 10
-15.4104094488189
 20
10.54991338582677
 30
0.0
 10
-15.40459448818898
 20
10.55050393700787
 30
0.0
  0
SPLINE
  5
72
330
1F
100
AcDbEntity
  8
Layer 1
  6
New Line10
 62
     7
370
     9
100
AcDbSpline
210
0.0
220
0.0
230
1.0
 70
    11
 71
     3
 72
    44
 73
    40
 74
     0
 42
0.0000000001
 43
0.0000000001
 40
0.0
 40
0.0
 40
0.0
 40
0.0
 40
0.1
 40
0.1
 40
0.1
 40
0.1
 40
0.2
 40
0.2
 40
0.2
 40
0.2
 40
0.3
 40
0.3
 40
0.3
 40
0.3
 40
0.4
 40
0.4
 40
0.4
 40
0.4
 40
0.5
 40
0.5
 40
0.5
 40
0.5
 40
0.6
 40
0.6
 40
0.6
 40
0.6
 40
0.7
 40
0.7
 40
0.7
 40
0.7
 40
0.7999999999999999
 40
0.7999999999999999
 40
0.7999999999999999
 40
0.7999999999999999
 40
0.8999999999999999
 40
0.8999999999999999
 40
0.8999999999999999
 40
0.8999999999999999
 40
1.0
 40
1.0
 40
1.0
 40
1.0
 10
-15.35799606299213
 20
10.55224803149606
 30
0.0
 10
-15.36112204724409
 20
10.55984251968504
 30
0.0
 10
-15.36373228346457
 20
10.57119291338583
 30
0.0
 10
-15.3659094488189
 20
10.58630708661417
 30
0.0
 10
-15.3659094488189
 20
10.58630708661417
 30
0.0
 10
-15.36713385826772
 20
10.59488976377953
 30
0.0
 10
-15.36851968503937
 20
10.60098031496063
 30
0.0
 10
-15.37005905511811
 20
10.60450393700787
 30
0.0
 10
-15.37005905511811
 20
10.60450393700787
 30
0.0
 10
-15.3716062992126
 20
10.60806299212598
 30
0.0
 10
-15.37385826771654
 20
10.61083070866142
 30
0.0
 10
-15.37686220472441
 20
10.61272834645669
 30
0.0
 10
-15.37686220472441
 20
10.61272834645669
 30
0.0
 10
-15.37983464566929
 20
10.61466929133858
 30
0.0
 10
-15.38311417322835
 20
10.61565748031496
 30
0.0
 10
-15.38675590551181
 20
10.61565748031496
 30
0.0
 10
-15.38675590551181
 20
10.61565748031496
 30
0.0
 10
-15.39233464566929
 20
10.61565748031496
 30
0.0
 10
-15.39696062992126
 20
10.61351968503937
 30
0.0
 10
-15.40067716535433
 20
10.60933070866142
 30
0.0
 10
-15.40067716535433
 20
10.60933070866142
 30
0.0
 10
-15.40435826771654
 20
10.60513779527559
 30
0.0
 10
-15.40621653543307
 20
10.59896456692913
 30
0.0
 10
-15.40621653543307
 20
10.59085433070866
 30
0.0
 10
-15.40621653543307
 20
10.59085433070866
 30
0.0
 10
-15.40621653543307
 20
10.58282283464567
 30
0.0
 10
-15.40447637795276
 20
10.57566535433071
 30
0.0
 10
-15.40095669291339
 20
10.56941338582677
 30
0.0
 10
-15.40095669291339
 20
10.56941338582677
 30
0.0
 10
-15.39743307086614
 20
10.56316535433071
 30
0.0
 10
-15.39261023622047
 20
10.55853543307087
 30
0.0
 10
-15.38651968503937
 20
10.55561023622047
 30
0.0
 10
-15.38651968503937
 20
10.55561023622047
 30
0.0
 10
-15.38181102362205
 20
10.55335433070866
 30
0.0
 10
-15.37485039370079
 20
10.55224803149606
 30
0.0
 10
-15.36566929133858
 20
10.55224803149606
 30
0.0
 10
-15.36566929133858
 20
10.55224803149606
 30
0.0
 10
-15.36566929133858
 20
10.55224803149606
 30
0.0
 10
-15.35799606299213
 20
10.55224803149606
 30
0.0
 10
-15.35799606299213
 20
10.55224803149606
 30
0.0
  0
SPLINE
  5
74
330
1F
100
AcDbEntity
  8
Layer 1
  6
New Line11
 62
     7
370
     9
100
AcDbSpline
210
0.0
220
0.0
230
1.0
 70
    11
 71
     3
 72
    56
 73
    52
 74
     0
 42
0.0000000001
 43
0.0000000001
 40
0.0
 40
0.0
 40
0.0
 40
0.0
 40
0.0769230769230769
 40
0.0769230769230769
 40
0.0769230769230769
 40
0.0769230769230769
 40
0.1538461538461539
 40
0.1538461538461539
 40
0.1538461538461539
 40
0.1538461538461539
 40
0.2307692307692308
 40
0.2307692307692308
 40
0.2307692307692308
 40
0.2307692307692308
 40
0.3076923076923077
 40
0.3076923076923077
 40
0.3076923076923077
 40
0.3076923076923077
 40
0.3846153846153846
 40
0.3846153846153846
 40
0.3846153846153846
 40
0.3846153846153846
 40
0.4615384615384616
 40
0.4615384615384616
 40
0.4615384615384616
 40
0.4615384615384616
 40
0.5384615384615385
 40
0.5384615384615385
 40
0.5384615384615385
 40
0.5384615384615385
 40
0.6153846153846154
 40
0.6153846153846154
 40
0.6153846153846154
 40
0.6153846153846154
 40
0.6923076923076923
 40
0.6923076923076923
 40
0.6923076923076923
 40
0.6923076923076923
 40
0.7692307692307692
 40
0.7692307692307692
 40
0.7692307692307692
 40
0.7692307692307692
 40
0.846153846153846
 40
0.846153846153846
 40
0.846153846153846
 40
0.846153846153846
 40
0.9230769230769229
 40
0.9230769230769229
 40
0.9230769230769229
 40
0.9230769230769229
 40
1.0
 40
1.0
 40
1.0
 40
1.0
 10
-15.4197874015748
 20
10.47957874015748
 30
0.0
 10
-15.4197874015748
 20
10.47957874015748
 30
0.0
 10
-15.4197874015748
 20
10.49892125984252
 30
0.0
 10
-15.4197874015748
 20
10.49892125984252
 30
0.0
 10
-15.4197874015748
 20
10.49892125984252
 30
0.0
 10
-15.4197874015748
 20
10.49892125984252
 30
0.0
 10
-15.24988582677165
 20
10.49892125984252
 30
0.0
 10
-15.24988582677165
 20
10.49892125984252
 30
0.0
 10
-15.24988582677165
 20
10.49892125984252
 30
0.0
 10
-15.24988582677165
 20
10.49892125984252
 30
0.0
 10
-15.24988582677165
 20
10.47807480314961
 30
0.0
 10
-15.24988582677165
 20
10.47807480314961
 30
0.0
 10
-15.24988582677165
 20
10.47807480314961
 30
0.0
 10
-15.24988582677165
 20
10.47807480314961
 30
0.0
 10
-15.31048818897638
 20
10.47807480314961
 30
0.0
 10
-15.31048818897638
 20
10.47807480314961
 30
0.0
 10
-15.31048818897638
 20
10.47807480314961
 30
0.0
 10
-15.29945275590551
 20
10.46925590551181
 30
0.0
 10
-15.29391338582677
 20
10.45801968503937
 30
0.0
 10
-15.29391338582677
 20
10.44437401574803
 30
0.0
 10
-15.29391338582677
 20
10.44437401574803
 30
0.0
 10
-15.29391338582677
 20
10.43677952755906
 30
0.0
 10
-15.29545669291339
 20
10.42961811023622
 30
0.0
 10
-15.2985
 20
10.42285433070866
 30
0.0
 10
-15.2985
 20
10.42285433070866
 30
0.0
 10
-15.30154724409449
 20
10.4160905511811
 30
0.0
 10
-15.30585826771654
 20
10.41055118110236
 30
0.0
 10
-15.31135826771654
 20
10.40616141732283
 30
0.0
 10
-15.31135826771654
 20
10.40616141732283
 30
0.0
 10
-15.31689763779528
 20
10.40180708661417
 30
0.0
 10
-15.32354330708661
 20
10.39836614173228
 30
0.0
 10
-15.33137401574803
 20
10.39591338582677
 30
0.0
 10
-15.33137401574803
 20
10.39591338582677
 30
0.0
 10
-15.33916535433071
 20
10.39342125984252
 30
0.0
 10
-15.34751181102362
 20
10.39219291338583
 30
0.0
 10
-15.35637401574803
 20
10.39219291338583
 30
0.0
 10
-15.35637401574803
 20
10.39219291338583
 30
0.0
 10
-15.37749606299213
 20
10.39219291338583
 30
0.0
 10
-15.39379527559055
 20
10.39741732283465
 30
0.0
 10
-15.40530708661417
 20
10.40785826771654
 30
0.0
 10
-15.40530708661417
 20
10.40785826771654
 30
0.0
 10
-15.41681889763779
 20
10.41826377952756
 30
0.0
 10
-15.42255511811024
 20
10.4308031496063
 30
0.0
 10
-15.42255511811024
 20
10.44540157480315
 30
0.0
 10
-15.42255511811024
 20
10.44540157480315
 30
0.0
 10
-15.42255511811024
 20
10.45992125984252
 30
0.0
 10
-15.41650393700787
 20
10.47131102362205
 30
0.0
 10
-15.40435826771654
 20
10.47957874015748
 30
0.0
 10
-15.40435826771654
 20
10.47957874015748
 30
0.0
 10
-15.40435826771654
 20
10.47957874015748
 30
0.0
 10
-15.4197874015748
 20
10.47957874015748
 30
0.0
 10
-15.4197874015748
 20
10.47957874015748
 30
0.0
  0
SPLINE
  5
76
330
1F
100
AcDbEntity
  8
Layer 1
  6
New Line12
 62
     7
370
     9
100
AcDbSpline
210
0.0
220
0.0
230
1.0
 70
    11
 71
     3
 72
    36
 73
    32
 74
     0
 42
0.0000000001
 43
0.0000000001
 40
0.0
 40
0.0
 40
0.0
 40
0.0
 40
0.125
 40
0.125
 40
0.125
 40
0.125
 40
0.25
 40
0.25
 40
0.25
 40
0.25
 40
0.375
 40
0.375
 40
0.375
 40
0.375
 40
0.5
 40
0.5
 40
0.5
 40
0.5
 40
0.625
 40
0.625
 40
0.625
 40
0.625
 40
0.75
 40
0.75
 40
0.75
 40
0.75
 40
0.875
 40
0.875
 40
0.875
 40
0.875
 40
1.0
 40
1.0
 40
1.0
 40
1.0
 10
-15.35732283464567
 20
10.4798188976378
 30
0.0
 10
-15.37207874015748
 20
10.4798188976378
 30
0.0
 10
-15.38272047244094
 20
10.47779921259843
 30
0.0
 10
-15.3892874015748
 20
10.4738031496063
 30
0.0
 10
-15.3892874015748
 20
10.4738031496063
 30
0.0
 10
-15.40004724409449
 20
10.46723622047244
 30
0.0
 10
-15.40542519685039
 20
10.45833464566929
 30
0.0
 10
-15.40542519685039
 20
10.44714173228346
 30
0.0
 10
-15.40542519685039
 20
10.44714173228346
 30
0.0
 10
-15.40542519685039
 20
10.43800393700787
 30
0.0
 10
-15.40147244094488
 20
10.43012992125984
 30
0.0
 10
-15.39351968503937
 20
10.4234842519685
 30
0.0
 10
-15.39351968503937
 20
10.4234842519685
 30
0.0
 10
-15.3856062992126
 20
10.41684251968504
 30
0.0
 10
-15.3738188976378
 20
10.4135157480315
 30
0.0
 10
-15.35811417322835
 20
10.4135157480315
 30
0.0
 10
-15.35811417322835
 20
10.4135157480315
 30
0.0
 10
-15.34205511811024
 20
10.4135157480315
 30
0.0
 10
-15.33018503937008
 20
10.41672047244094
 30
0.0
 10
-15.32255118110236
 20
10.4230905511811
 30
0.0
 10
-15.32255118110236
 20
10.4230905511811
 30
0.0
 10
-15.31491732283465
 20
10.42946062992126
 30
0.0
 10
-15.31108267716535
 20
10.43717322834646
 30
0.0
 10
-15.31108267716535
 20
10.44619291338583
 30
0.0
 10
-15.31108267716535
 20
10.44619291338583
 30
0.0
 10
-15.31108267716535
 20
10.45533070866142
 30
0.0
 10
-15.31503543307087
 20
10.46320078740158
 30
0.0
 10
-15.32294881889764
 20
10.46985039370079
 30
0.0
 10
-15.32294881889764
 20
10.46985039370079
 30
0.0
 10
-15.33085826771654
 20
10.47649212598425
 30
0.0
 10
-15.34233070866142
 20
10.4798188976378
 30
0.0
 10
-15.35732283464567
 20
10.4798188976378
 30
0.0
  0
SPLINE
  5
78
330
1F
100
AcDbEntity
  8
Layer 1
  6
New Line13
 62
     7
370
     9
100
AcDbSpline
210
0.0
220
0.0
230
1.0
 70
    11
 71
     3
 72
    20
 73
    16
 74
     0
 42
0.0000000001
 43
0.0000000001
 40
0.0
 40
0.0
 40
0.0
 40
0.0
 40
0.25
 40
0.25
 40
0.25
 40
0.25
 40
0.5
 40
0.5
 40
0.5
 40
0.5
 40
0.75
 40
0.75
 40
0.75
 40
0.75
 40
1.0
 40
1.0
 40
1.0
 40
1.0
 10
-15.4197874015748
 20
10.36727165354331
 30
0.0
 10
-15.4197874015748
 20
10.36727165354331
 30
0.0
 10
-15.24988582677165
 20
10.36727165354331
 30
0.0
 10
-15.24988582677165
 20
10.36727165354331
 30
0.0
 10
-15.24988582677165
 20
10.36727165354331
 30
0.0
 10
-15.24988582677165
 20
10.36727165354331
 30
0.0
 10
-15.24988582677165
 20
10.34642913385827
 30
0.0
 10
-15.24988582677165
 20
10.34642913385827
 30
0.0
 10
-15.24988582677165
 20
10.34642913385827
 30
0.0
 10
-15.24988582677165
 20
10.34642913385827
 30
0.0
 10
-15.4197874015748
 20
10.34642913385827
 30
0.0
 10
-15.4197874015748
 20
10.34642913385827
 30
0.0
 10
-15.4197874015748
 20
10.34642913385827
 30
0.0
 10
-15.4197874015748
 20
10.34642913385827
 30
0.0
 10
-15.4197874015748
 20
10.36727165354331
 30
0.0
 10
-15.4197874015748
 20
10.36727165354331
 30
0.0
  0
SPLINE
  5
7A
330
1F
100
AcDbEntity
  8
Layer 1
  6
New Line14
 62
     7
370
     9
100
AcDbSpline
210
0.0
220
0.0
230
1.0
 70
    11
 71
     3
 72
    64
 73
    60
 74
     0
 42
0.0000000001
 43
0.0000000001
 40
0.0
 40
0.0
 40
0.0
 40
0.0
 40
0.0666666666666667
 40
0.0666666666666667
 40
0.0666666666666667
 40
0.0666666666666667
 40
0.1333333333333333
 40
0.1333333333333333
 40
0.1333333333333333
 40
0.1333333333333333
 40
0.2
 40
0.2
 40
0.2
 40
0.2
 40
0.2666666666666667
 40
0.2666666666666667
 40
0.2666666666666667
 40
0.2666666666666667
 40
0.3333333333333333
 40
0.3333333333333333
 40
0.3333333333333333
 40
0.3333333333333333
 40
0.4
 40
0.4
 40
0.4
 40
0.4
 40
0.4666666666666666
 40
0.4666666666666666
 40
0.4666666666666666
 40
0.4666666666666666
 40
0.5333333333333333
 40
0.5333333333333333
 40
0.5333333333333333
 40
0.5333333333333333
 40
0.6
 40
0.6
 40
0.6
 40
0.6
 40
0.6666666666666666
 40
0.6666666666666666
 40
0.6666666666666666
 40
0.6666666666666666
 40
0.7333333333333333
 40
0.7333333333333333
 40
0.7333333333333333
 40
0.7333333333333333
 40
0.7999999999999999
 40
0.7999999999999999
 40
0.7999999999999999
 40
0.7999999999999999
 40
0.8666666666666666
 40
0.8666666666666666
 40
0.8666666666666666
 40
0.8666666666666666
 40
0.9333333333333332
 40
0.9333333333333332
 40
0.9333333333333332
 40
0.9333333333333332
 40
1.0
 40
1.0
 40
1.0
 40
1.0
 10
-15.38014960629921
 20
10.22985039370079
 30
0.0
 10
-15.38014960629921
 20
10.22985039370079
 30
0.0
 10
-15.38279921259842
 20
10.20829133858268
 30
0.0
 10
-15.38279921259842
 20
10.20829133858268
 30
0.0
 10
-15.38279921259842
 20
10.20829133858268
 30
0.0
 10
-15.39541732283465
 20
10.21169291338583
 30
0.0
 10
-15.40518897637795
 20
10.2179842519685
 30
0.0
 10
-15.41215354330709
 20
10.22716141732283
 30
0.0
 10
-15.41215354330709
 20
10.22716141732283
 30
0.0
 10
-15.41907480314961
 20
10.23637795275591
 30
0.0
 10
-15.42255511811024
 20
10.24812598425197
 30
0.0
 10
-15.42255511811024
 20
10.26240551181102
 30
0.0
 10
-15.42255511811024
 20
10.26240551181102
 30
0.0
 10
-15.42255511811024
 20
10.28040551181102
 30
0.0
 10
-15.4170157480315
 20
10.29468897637795
 30
0.0
 10
-15.40594094488189
 20
10.30520866141732
 30
0.0
 10
-15.40594094488189
 20
10.30520866141732
 30
0.0
 10
-15.39486220472441
 20
10.31577165354331
 30
0.0
 10
-15.37931889763779
 20
10.32103149606299
 30
0.0
 10
-15.3593031496063
 20
10.32103149606299
 30
0.0
 10
-15.3593031496063
 20
10.32103149606299
 30
0.0
 10
-15.33857480314961
 20
10.32103149606299
 30
0.0
 10
-15.32251181102362
 20
10.31569291338583
 30
0.0
 10
-15.31108267716535
 20
10.30505118110236
 30
0.0
 10
-15.31108267716535
 20
10.30505118110236
 30
0.0
 10
-15.29964566929134
 20
10.29437007874016
 30
0.0
 10
-15.29391338582677
 20
10.28056299212598
 30
0.0
 10
-15.29391338582677
 20
10.26355511811024
 30
0.0
 10
-15.29391338582677
 20
10.26355511811024
 30
0.0
 10
-15.29391338582677
 20
10.24709842519685
 30
0.0
 10
-15.29952755905512
 20
10.23364960629921
 30
0.0
 10
-15.31072440944882
 20
10.22324409448819
 30
0.0
 10
-15.31072440944882
 20
10.22324409448819
 30
0.0
 10
-15.32192125984252
 20
10.21279921259842
 30
0.0
 10
-15.33770078740157
 20
10.20757874015748
 30
0.0
 10
-15.35799606299213
 20
10.20757874015748
 30
0.0
 10
-15.35799606299213
 20
10.20757874015748
 30
0.0
 10
-15.35926377952756
 20
10.20757874015748
 30
0.0
 10
-15.36112204724409
 20
10.20761811023622
 30
0.0
 10
-15.36357480314961
 20
10.2076968503937
 30
0.0
 10
-15.36357480314961
 20
10.2076968503937
 30
0.0
 10
-15.36357480314961
 20
10.2076968503937
 30
0.0
 10
-15.36357480314961
 20
10.29947244094488
 30
0.0
 10
-15.36357480314961
 20
10.29947244094488
 30
0.0
 10
-15.36357480314961
 20
10.29947244094488
 30
0.0
 10
-15.37710236220472
 20
10.29872047244094
 30
0.0
 10
-15.38746456692913
 20
10.29488188976378
 30
0.0
 10
-15.39462598425197
 20
10.288
 30
0.0
 10
-15.39462598425197
 20
10.288
 30
0.0
 10
-15.40182677165354
 20
10.28111811023622
 30
0.0
 10
-15.40542519685039
 20
10.27257086614173
 30
0.0
 10
-15.40542519685039
 20
10.2622874015748
 30
0.0
 10
-15.40542519685039
 20
10.2622874015748
 30
0.0
 10
-15.40542519685039
 20
10.25465354330709
 30
0.0
 10
-15.4034094488189
 20
10.24812598425197
 30
0.0
 10
-15.39937401574803
 20
10.24270472440945
 30
0.0
 10
-15.39937401574803
 20
10.24270472440945
 30
0.0
 10
-15.39537795275591
 20
10.2372874015748
 30
0.0
 10
-15.38896850393701
 20
10.2330157480315
 30
0.0
 10
-15.38014960629921
 20
10.22985039370079
 30
0.0
  0
SPLINE
  5
7C
330
1F
100
AcDbEntity
  8
Layer 1
  6
New Line15
 62
     7
370
     9
100
AcDbSpline
210
0.0
220
0.0
230
1.0
 70
    11
 71
     3
 72
    24
 73
    20
 74
     0
 42
0.0000000001
 43
0.0000000001
 40
0.0
 40
0.0
 40
0.0
 40
0.0
 40
0.2
 40
0.2
 40
0.2
 40
0.2
 40
0.4
 40
0.4
 40
0.4
 40
0.4
 40
0.6000000000000001
 40
0.6000000000000001
 40
0.6000000000000001
 40
0.6000000000000001
 40
0.8
 40
0.8
 40
0.8
 40
0.8
 40
1.0
 40
1.0
 40
1.0
 40
1.0
 10
-15.34640551181102
 20
10.29832677165354
 30
0.0
 10
-15.34640551181102
 20
10.29832677165354
 30
0.0
 10
-15.34640551181102
 20
10.22961417322835
 30
0.0
 10
-15.34640551181102
 20
10.22961417322835
 30
0.0
 10
-15.34640551181102
 20
10.22961417322835
 30
0.0
 10
-15.33608267716535
 20
10.23052362204724
 30
0.0
 10
-15.3282874015748
 20
10.23317322834646
 30
0.0
 10
-15.32314566929134
 20
10.2374842519685
 30
0.0
 10
-15.32314566929134
 20
10.2374842519685
 30
0.0
 10
-15.31511417322835
 20
10.24412992125984
 30
0.0
 10
-15.31108267716535
 20
10.25275590551181
 30
0.0
 10
-15.31108267716535
 20
10.26331496062992
 30
0.0
 10
-15.31108267716535
 20
10.26331496062992
 30
0.0
 10
-15.31108267716535
 20
10.27288976377953
 30
0.0
 10
-15.3142874015748
 20
10.28096062992126
 30
0.0
 10
-15.32069291338583
 20
10.2874842519685
 30
0.0
 10
-15.32069291338583
 20
10.2874842519685
 30
0.0
 10
-15.32710236220472
 20
10.2940157480315
 30
0.0
 10
-15.33568503937008
 20
10.29761417322835
 30
0.0
 10
-15.34640551181102
 20
10.29832677165354
 30
0.0
  0
SPLINE
  5
7E
330
1F
100
AcDbEntity
  8
Layer 1
  6
New Line16
 62
     7
370
     9
100
AcDbSpline
210
0.0
220
0.0
230
1.0
 70
    11
 71
     3
 72
   136
 73
   132
 74
     0
 42
0.0000000001
 43
0.0000000001
 40
0.0
 40
0.0
 40
0.0
 40
0.0
 40
0.0303030303030303
 40
0.0303030303030303
 40
0.0303030303030303
 40
0.0303030303030303
 40
0.0606060606060606
 40
0.0606060606060606
 40
0.0606060606060606
 40
0.0606060606060606
 40
0.0909090909090909
 40
0.0909090909090909
 40
0.0909090909090909
 40
0.0909090909090909
 40
0.1212121212121212
 40
0.1212121212121212
 40
0.1212121212121212
 40
0.1212121212121212
 40
0.1515151515151515
 40
0.1515151515151515
 40
0.1515151515151515
 40
0.1515151515151515
 40
0.1818181818181818
 40
0.1818181818181818
 40
0.1818181818181818
 40
0.1818181818181818
 40
0.2121212121212121
 40
0.2121212121212121
 40
0.2121212121212121
 40
0.2121212121212121
 40
0.2424242424242424
 40
0.2424242424242424
 40
0.2424242424242424
 40
0.2424242424242424
 40
0.2727272727272727
 40
0.2727272727272727
 40
0.2727272727272727
 40
0.2727272727272727
 40
0.303030303030303
 40
0.303030303030303
 40
0.303030303030303
 40
0.303030303030303
 40
0.3333333333333333
 40
0.3333333333333333
 40
0.3333333333333333
 40
0.3333333333333333
 40
0.3636363636363635
 40
0.3636363636363635
 40
0.3636363636363635
 40
0.3636363636363635
 40
0.3939393939393938
 40
0.3939393939393938
 40
0.3939393939393938
 40
0.3939393939393938
 40
0.4242424242424241
 40
0.4242424242424241
 40
0.4242424242424241
 40
0.4242424242424241
 40
0.4545454545454544
 40
0.4545454545454544
 40
0.4545454545454544
 40
0.4545454545454544
 40
0.4848484848484846
 40
0.4848484848484846
 40
0.4848484848484846
 40
0.4848484848484846
 40
0.5151515151515149
 40
0.5151515151515149
 40
0.5151515151515149
 40
0.5151515151515149
 40
0.5454545454545452
 40
0.5454545454545452
 40
0.5454545454545452
 40
0.5454545454545452
 40
0.5757575757575755
 40
0.5757575757575755
 40
0.5757575757575755
 40
0.5757575757575755
 40
0.6060606060606057
 40
0.6060606060606057
 40
0.6060606060606057
 40
0.6060606060606057
 40
0.636363636363636
 40
0.636363636363636
 40
0.636363636363636
 40
0.636363636363636
 40
0.6666666666666663
 40
0.6666666666666663
 40
0.6666666666666663
 40
0.6666666666666663
 40
0.6969696969696966
 40
0.6969696969696966
 40
0.6969696969696966
 40
0.6969696969696966
 40
0.7272727272727268
 40
0.7272727272727268
 40
0.7272727272727268
 40
0.7272727272727268
 40
0.7575757575757571
 40
0.7575757575757571
 40
0.7575757575757571
 40
0.7575757575757571
 40
0.7878787878787874
 40
0.7878787878787874
 40
0.7878787878787874
 40
0.7878787878787874
 40
0.8181818181818177
 40
0.8181818181818177
 40
0.8181818181818177
 40
0.8181818181818177
 40
0.848484848484848
 40
0.848484848484848
 40
0.848484848484848
 40
0.848484848484848
 40
0.8787878787878782
 40
0.8787878787878782
 40
0.8787878787878782
 40
0.8787878787878782
 40
0.9090909090909085
 40
0.9090909090909085
 40
0.9090909090909085
 40
0.9090909090909085
 40
0.9393939393939388
 40
0.9393939393939388
 40
0.9393939393939388
 40
0.9393939393939388
 40
0.9696969696969691
 40
0.9696969696969691
 40
0.9696969696969691
 40
0.9696969696969691
 40
1.0
 40
1.0
 40
1.0
 40
1.0
 10
-15.38303543307087
 20
10.1904094488189
 30
0.0
 10
-15.38303543307087
 20
10.1904094488189
 30
0.0
 10
-15.37979527559055
 20
10.1698031496063
 30
0.0
 10
-15.37979527559055
 20
10.1698031496063
 30
0.0
 10
-15.37979527559055
 20
10.1698031496063
 30
0.0
 10
-15.38805905511811
 20
10.16865354330709
 30
0.0
 10
-15.39438976377953
 20
10.1654094488189
 30
0.0
 10
-15.3988188976378
 20
10.16011023622047
 30
0.0
 10
-15.3988188976378
 20
10.16011023622047
 30
0.0
 10
-15.40320866141732
 20
10.15484645669291
 30
0.0
 10
-15.40542519685039
 20
10.14745275590551
 30
0.0
 10
-15.40542519685039
 20
10.13791732283465
 30
0.0
 10
-15.40542519685039
 20
10.13791732283465
 30
0.0
 10
-15.40542519685039
 20
10.12834645669291
 30
0.0
 10
-15.40344881889764
 20
10.12122440944882
 30
0.0
 10
-15.39957086614173
 20
10.11659842519685
 30
0.0
 10
-15.39957086614173
 20
10.11659842519685
 30
0.0
 10
-15.39565354330709
 20
10.11196850393701
 30
0.0
 10
-15.39106692913386
 20
10.10963385826772
 30
0.0
 10
-15.38584645669291
 20
10.10963385826772
 30
0.0
 10
-15.38584645669291
 20
10.10963385826772
 30
0.0
 10
-15.38109842519685
 20
10.10963385826772
 30
0.0
 10
-15.37741732283465
 20
10.11168897637795
 30
0.0
 10
-15.37468897637795
 20
10.11580708661417
 30
0.0
 10
-15.37468897637795
 20
10.11580708661417
 30
0.0
 10
-15.37283070866142
 20
10.11865354330709
 30
0.0
 10
-15.37049606299213
 20
10.12577559055118
 30
0.0
 10
-15.36764566929134
 20
10.13712598425197
 30
0.0
 10
-15.36764566929134
 20
10.13712598425197
 30
0.0
 10
-15.36377165354331
 20
10.15239763779527
 30
0.0
 10
-15.36044881889764
 20
10.16303937007874
 30
0.0
 10
-15.35759842519685
 20
10.16893307086614
 30
0.0
 10
-15.35759842519685
 20
10.16893307086614
 30
0.0
 10
-15.35479133858268
 20
10.17482677165354
 30
0.0
 10
-15.35087401574803
 20
10.17933464566929
 30
0.0
 10
-15.34588976377953
 20
10.18238188976378
 30
0.0
 10
-15.34588976377953
 20
10.18238188976378
 30
0.0
 10
-15.34090551181102
 20
10.18542519685039
 30
0.0
 10
-15.3354094488189
 20
10.18697244094488
 30
0.0
 10
-15.32939763779528
 20
10.18697244094488
 30
0.0
 10
-15.32939763779528
 20
10.18697244094488
 30
0.0
 10
-15.32389763779527
 20
10.18697244094488
 30
0.0
 10
-15.31883464566929
 20
10.18570472440945
 30
0.0
 10
-15.31416535433071
 20
10.18317322834646
 30
0.0
 10
-15.31416535433071
 20
10.18317322834646
 30
0.0
 10
-15.30946062992126
 20
10.1806811023622
 30
0.0
 10
-15.30558267716535
 20
10.17723622047244
 30
0.0
 10
-15.30249606299213
 20
10.17292519685039
 30
0.0
 10
-15.30249606299213
 20
10.17292519685039
 30
0.0
 10
-15.30012204724409
 20
10.1696811023622
 30
0.0
 10
-15.29806692913386
 20
10.16525196850394
 30
0.0
 10
-15.29640551181102
 20
10.15967322834646
 30
0.0
 10
-15.29640551181102
 20
10.15967322834646
 30
0.0
 10
-15.29474409448819
 20
10.15405511811024
 30
0.0
 10
-15.29391338582677
 20
10.14804330708661
 30
0.0
 10
-15.29391338582677
 20
10.14163385826772
 30
0.0
 10
-15.29391338582677
 20
10.14163385826772
 30
0.0
 10
-15.29391338582677
 20
10.1319842519685
 30
0.0
 10
-15.29533464566929
 20
10.12351968503937
 30
0.0
 10
-15.2981062992126
 20
10.11620078740157
 30
0.0
 10
-15.2981062992126
 20
10.11620078740157
 30
0.0
 10
-15.30087401574803
 20
10.10888188976378
 30
0.0
 10
-15.30462992125984
 20
10.10350393700787
 30
0.0
 10
-15.30938188976378
 20
10.10001968503937
 30
0.0
 10
-15.30938188976378
 20
10.10001968503937
 30
0.0
 10
-15.31416535433071
 20
10.09654330708661
 30
0.0
 10
-15.32049606299213
 20
10.09416535433071
 30
0.0
 10
-15.32844488188976
 20
10.09286220472441
 30
0.0
 10
-15.32844488188976
 20
10.09286220472441
 30
0.0
 10
-15.32844488188976
 20
10.09286220472441
 30
0.0
 10
-15.33125590551181
 20
10.11323622047244
 30
0.0
 10
-15.33125590551181
 20
10.11323622047244
 30
0.0
 10
-15.33125590551181
 20
10.11323622047244
 30
0.0
 10
-15.32492519685039
 20
10.1141811023622
 30
0.0
 10
-15.3199842519685
 20
10.11687401574803
 30
0.0
 10
-15.31642125984252
 20
10.1213031496063
 30
0.0
 10
-15.31642125984252
 20
10.1213031496063
 30
0.0
 10
-15.31286220472441
 20
10.12573622047244
 30
0.0
 10
-15.31108267716535
 20
10.13202362204724
 30
0.0
 10
-15.31108267716535
 20
10.14013385826772
 30
0.0
 10
-15.31108267716535
 20
10.14013385826772
 30
0.0
 10
-15.31108267716535
 20
10.14970472440945
 30
0.0
 10
-15.31266141732283
 20
10.15654724409449
 30
0.0
 10
-15.31582677165354
 20
10.16062598425197
 30
0.0
 10
-15.31582677165354
 20
10.16062598425197
 30
0.0
 10
-15.31899212598425
 20
10.16473622047244
 30
0.0
 10
-15.32270866141732
 20
10.16679527559055
 30
0.0
 10
-15.32694488188976
 20
10.16679527559055
 30
0.0
 10
-15.32694488188976
 20
10.16679527559055
 30
0.0
 10
-15.32967322834646
 20
10.16679527559055
 30
0.0
 10
-15.33208661417323
 20
10.16592519685039
 30
0.0
 10
-15.33426377952756
 20
10.16422440944882
 30
0.0
 10
-15.33426377952756
 20
10.16422440944882
 30
0.0
 10
-15.3365157480315
 20
10.16252362204724
 30
0.0
 10
-15.33833464566929
 20
10.15987401574803
 30
0.0
 10
-15.33983858267717
 20
10.15623228346457
 30
0.0
 10
-15.33983858267717
 20
10.15623228346457
 30
0.0
 10
-15.3405905511811
 20
10.15413385826772
 30
0.0
 10
-15.34237007874016
 20
10.14800393700787
 30
0.0
 10
-15.34513779527559
 20
10.13779921259843
 30
0.0
 10
-15.34513779527559
 20
10.13779921259843
 30
0.0
 10
-15.34909448818898
 20
10.12304330708661
 30
0.0
 10
-15.35229921259842
 20
10.11275984251968
 30
0.0
 10
-15.35483070866142
 20
10.10694488188976
 30
0.0
 10
-15.35483070866142
 20
10.10694488188976
 30
0.0
 10
-15.35732283464567
 20
10.1010905511811
 30
0.0
 10
-15.36100393700787
 20
10.09650393700787
 30
0.0
 10
-15.3657874015748
 20
10.09317716535433
 30
0.0
 10
-15.3657874015748
 20
10.09317716535433
 30
0.0
 10
-15.37057480314961
 20
10.08985433070866
 30
0.0
 10
-15.37650787401575
 20
10.08819291338583
 30
0.0
 10
-15.38362992125984
 20
10.08819291338583
 30
0.0
 10
-15.38362992125984
 20
10.08819291338583
 30
0.0
 10
-15.3905905511811
 20
10.08819291338583
 30
0.0
 10
-15.39711811023622
 20
10.09025196850394
 30
0.0
 10
-15.40329133858268
 20
10.09428346456693
 30
0.0
 10
-15.40329133858268
 20
10.09428346456693
 30
0.0
 10
-15.40942125984252
 20
10.09836220472441
 30
0.0
 10
-15.41416929133858
 20
10.1042125984252
 30
0.0
 10
-15.41753149606299
 20
10.11185039370079
 30
0.0
 10
-15.41753149606299
 20
10.11185039370079
 30
0.0
 10
-15.4208937007874
 20
10.1194842519685
 30
0.0
 10
-15.42255511811024
 20
10.12814566929134
 30
0.0
 10
-15.42255511811024
 20
10.13779921259843
 30
0.0
 10
-15.42255511811024
 20
10.13779921259843
 30
0.0
 10
-15.42255511811024
 20
10.15382283464567
 30
0.0
 10
-15.41923228346457
 20
10.16600393700787
 30
0.0
 10
-15.41258661417323
 20
10.17438976377953
 30
0.0
 10
-15.41258661417323
 20
10.17438976377953
 30
0.0
 10
-15.40594094488189
 20
10.18277559055118
 30
0.0
 10
-15.3960905511811
 20
10.18811811023622
 30
0.0
 10
-15.38303543307087
 20
10.1904094488189
 30
0.0
  0
SPLINE
  5
80
330
1F
100
AcDbEntity
  8
Layer 1
  6
New Line17
 62
     7
370
     9
100
AcDbSpline
210
0.0
220
0.0
230
1.0
 70
    11
 71
     3
 72
    20
 73
    16
 74
     0
 42
0.0000000001
 43
0.0000000001
 40
0.0
 40
0.0
 40
0.0
 40
0.0
 40
0.25
 40
0.25
 40
0.25
 40
0.25
 40
0.5
 40
0.5
 40
0.5
 40
0.5
 40
0.75
 40
0.75
 40
0.75
 40
0.75
 40
1.0
 40
1.0
 40
1.0
 40
1.0
 10
-15.4197874015748
 20
10.05749606299213
 30
0.0
 10
-15.4197874015748
 20
10.05749606299213
 30
0.0
 10
-15.39601181102362
 20
10.05749606299213
 30
0.0
 10
-15.39601181102362
 20
10.05749606299213
 30
0.0
 10
-15.39601181102362
 20
10.05749606299213
 30
0.0
 10
-15.39601181102362
 20
10.05749606299213
 30
0.0
 10
-15.39601181102362
 20
10.03372440944882
 30
0.0
 10
-15.39601181102362
 20
10.03372440944882
 30
0.0
 10
-15.39601181102362
 20
10.03372440944882
 30
0.0
 10
-15.39601181102362
 20
10.03372440944882
 30
0.0
 10
-15.4197874015748
 20
10.03372440944882
 30
0.0
 10
-15.4197874015748
 20
10.03372440944882
 30
0.0
 10
-15.4197874015748
 20
10.03372440944882
 30
0.0
 10
-15.4197874015748
 20
10.03372440944882
 30
0.0
 10
-15.4197874015748
 20
10.05749606299213
 30
0.0
 10
-15.4197874015748
 20
10.05749606299213
 30
0.0
  0
SPLINE
  5
82
330
1F
100
AcDbEntity
  8
Layer 1
  6
New Line18
 62
     7
370
     9
100
AcDbSpline
210
0.0
220
0.0
230
1.0
 70
    11
 71
     3
 72
    80
 73
    76
 74
     0
 42
0.0000000001
 43
0.0000000001
 40
0.0
 40
0.0
 40
0.0
 40
0.0
 40
0.0526315789473684
 40
0.0526315789473684
 40
0.0526315789473684
 40
0.0526315789473684
 40
0.1052631578947368
 40
0.1052631578947368
 40
0.1052631578947368
 40
0.1052631578947368
 40
0.1578947368421053
 40
0.1578947368421053
 40
0.1578947368421053
 40
0.1578947368421053
 40
0.2105263157894737
 40
0.2105263157894737
 40
0.2105263157894737
 40
0.2105263157894737
 40
0.2631578947368421
 40
0.2631578947368421
 40
0.2631578947368421
 40
0.2631578947368421
 40
0.3157894736842105
 40
0.3157894736842105
 40
0.3157894736842105
 40
0.3157894736842105
 40
0.3684210526315789
 40
0.3684210526315789
 40
0.3684210526315789
 40
0.3684210526315789
 40
0.4210526315789473
 40
0.4210526315789473
 40
0.4210526315789473
 40
0.4210526315789473
 40
0.4736842105263158
 40
0.4736842105263158
 40
0.4736842105263158
 40
0.4736842105263158
 40
0.5263157894736842
 40
0.5263157894736842
 40
0.5263157894736842
 40
0.5263157894736842
 40
0.5789473684210527
 40
0.5789473684210527
 40
0.5789473684210527
 40
0.5789473684210527
 40
0.631578947368421
 40
0.631578947368421
 40
0.631578947368421
 40
0.631578947368421
 40
0.6842105263157894
 40
0.6842105263157894
 40
0.6842105263157894
 40
0.6842105263157894
 40
0.7368421052631577
 40
0.7368421052631577
 40
0.7368421052631577
 40
0.7368421052631577
 40
0.7894736842105261
 40
0.7894736842105261
 40
0.7894736842105261
 40
0.7894736842105261
 40
0.8421052631578945
 40
0.8421052631578945
 40
0.8421052631578945
 40
0.8421052631578945
 40
0.8947368421052628
 40
0.8947368421052628
 40
0.8947368421052628
 40
0.8947368421052628
 40
0.9473684210526312
 40
0.9473684210526312
 40
0.9473684210526312
 40
0.9473684210526312
 40
1.0
 40
1.0
 40
1.0
 40
1.0
 10
-15.37468897637795
 20
9.917145669291338
 30
0.0
 10
-15.37468897637795
 20
9.917145669291338
 30
0.0
 10
-15.37738188976378
 20
9.896653543307087
 30
0.0
 10
-15.37738188976378
 20
9.896653543307087
 30
0.0
 10
-15.37738188976378
 20
9.896653543307087
 30
0.0
 10
-15.39150393700787
 20
9.898870078740158
 30
0.0
 10
-15.40257874015748
 20
9.904606299212599
 30
0.0
 10
-15.41056692913386
 20
9.91386220472441
 30
0.0
 10
-15.41056692913386
 20
9.91386220472441
 30
0.0
 10
-15.41855905511811
 20
9.92307874015748
 30
0.0
 10
-15.42255511811024
 20
9.934433070866142
 30
0.0
 10
-15.42255511811024
 20
9.94788188976378
 30
0.0
 10
-15.42255511811024
 20
9.94788188976378
 30
0.0
 10
-15.42255511811024
 20
9.964692913385827
 30
0.0
 10
-15.41705511811024
 20
9.978263779527559
 30
0.0
 10
-15.40605905511811
 20
9.988468503937009
 30
0.0
 10
-15.40605905511811
 20
9.988468503937009
 30
0.0
 10
-15.39506299212598
 20
9.99871653543307
 30
0.0
 10
-15.37927952755905
 20
10.00385433070866
 30
0.0
 10
-15.35870866141732
 20
10.00385433070866
 30
0.0
 10
-15.35870866141732
 20
10.00385433070866
 30
0.0
 10
-15.34541732283465
 20
10.00385433070866
 30
0.0
 10
-15.3337874015748
 20
10.00164173228347
 30
0.0
 10
-15.32381889763779
 20
9.997248031496063
 30
0.0
 10
-15.32381889763779
 20
9.997248031496063
 30
0.0
 10
-15.31385039370079
 20
9.992818897637795
 30
0.0
 10
-15.30637401574803
 20
9.986133858267717
 30
0.0
 10
-15.30138976377953
 20
9.977114173228346
 30
0.0
 10
-15.30138976377953
 20
9.977114173228346
 30
0.0
 10
-15.29640551181102
 20
9.96813779527559
 30
0.0
 10
-15.29391338582677
 20
9.958326771653544
 30
0.0
 10
-15.29391338582677
 20
9.947763779527559
 30
0.0
 10
-15.29391338582677
 20
9.947763779527559
 30
0.0
 10
-15.29391338582677
 20
9.934393700787401
 30
0.0
 10
-15.29731496062992
 20
9.923433070866142
 30
0.0
 10
-15.30407874015748
 20
9.914968503937008
 30
0.0
 10
-15.30407874015748
 20
9.914968503937008
 30
0.0
 10
-15.31084251968504
 20
9.906464566929134
 30
0.0
 10
-15.32041732283465
 20
9.901003937007873
 30
0.0
 10
-15.33287795275591
 20
9.898590551181103
 30
0.0
 10
-15.33287795275591
 20
9.898590551181103
 30
0.0
 10
-15.33287795275591
 20
9.898590551181103
 30
0.0
 10
-15.33600393700787
 20
9.918885826771653
 30
0.0
 10
-15.33600393700787
 20
9.918885826771653
 30
0.0
 10
-15.33600393700787
 20
9.918885826771653
 30
0.0
 10
-15.32773228346457
 20
9.920826771653543
 30
0.0
 10
-15.32152362204724
 20
9.924224409448819
 30
0.0
 10
-15.31733070866142
 20
9.929129921259843
 30
0.0
 10
-15.31733070866142
 20
9.929129921259843
 30
0.0
 10
-15.31317716535433
 20
9.934035433070866
 30
0.0
 10
-15.31108267716535
 20
9.939968503937008
 30
0.0
 10
-15.31108267716535
 20
9.946933070866141
 30
0.0
 10
-15.31108267716535
 20
9.946933070866141
 30
0.0
 10
-15.31108267716535
 20
9.957456692913386
 30
0.0
 10
-15.31483858267717
 20
9.966
 30
0.0
 10
-15.3223937007874
 20
9.972566929133858
 30
0.0
 10
-15.3223937007874
 20
9.972566929133858
 30
0.0
 10
-15.3299094488189
 20
9.979133858267717
 30
0.0
 10
-15.3418188976378
 20
9.982417322834646
 30
0.0
 10
-15.35811417322835
 20
9.982417322834646
 30
0.0
 10
-15.35811417322835
 20
9.982417322834646
 30
0.0
 10
-15.37464960629921
 20
9.982417322834646
 30
0.0
 10
-15.38667716535433
 20
9.979251968503936
 30
0.0
 10
-15.39419291338583
 20
9.97288188976378
 30
0.0
 10
-15.39419291338583
 20
9.97288188976378
 30
0.0
 10
-15.40166929133858
 20
9.966551181102362
 30
0.0
 10
-15.40542519685039
 20
9.958287401574804
 30
0.0
 10
-15.40542519685039
 20
9.94807874015748
 30
0.0
 10
-15.40542519685039
 20
9.94807874015748
 30
0.0
 10
-15.40542519685039
 20
9.939889763779528
 30
0.0
 10
-15.4028937007874
 20
9.933086614173229
 30
0.0
 10
-15.39787007874016
 20
9.927590551181103
 30
0.0
 10
-15.39787007874016
 20
9.927590551181103
 30
0.0
 10
-15.39284645669291
 20
9.922090551181102
 30
0.0
 10
-15.38513385826772
 20
9.918606299212598
 30
0.0
 10
-15.37468897637795
 20
9.917145669291338
 30
0.0
  0
SPLINE
  5
84
330
1F
100
AcDbEntity
  8
Layer 1
  6
New Line19
 62
     7
370
     9
100
AcDbSpline
210
0.0
220
0.0
230
1.0
 70
    11
 71
     3
 72
    40
 73
    36
 74
     0
 42
0.0000000001
 43
0.0000000001
 40
0.0
 40
0.0
 40
0.0
 40
0.0
 40
0.1111111111111111
 40
0.1111111111111111
 40
0.1111111111111111
 40
0.1111111111111111
 40
0.2222222222222222
 40
0.2222222222222222
 40
0.2222222222222222
 40
0.2222222222222222
 40
0.3333333333333333
 40
0.3333333333333333
 40
0.3333333333333333
 40
0.3333333333333333
 40
0.4444444444444444
 40
0.4444444444444444
 40
0.4444444444444444
 40
0.4444444444444444
 40
0.5555555555555556
 40
0.5555555555555556
 40
0.5555555555555556
 40
0.5555555555555556
 40
0.6666666666666667
 40
0.6666666666666667
 40
0.6666666666666667
 40
0.6666666666666667
 40
0.7777777777777779
 40
0.7777777777777779
 40
0.7777777777777779
 40
0.7777777777777779
 40
0.8888888888888891
 40
0.8888888888888891
 40
0.8888888888888891
 40
0.8888888888888891
 40
1.0
 40
1.0
 40
1.0
 40
1.0
 10
-15.35823228346457
 20
9.886566929133858
 30
0.0
 10
-15.33544881889764
 20
9.886566929133858
 30
0.0
 10
-15.31855905511811
 20
9.88023622047244
 30
0.0
 10
-15.30759842519685
 20
9.867535433070866
 30
0.0
 10
-15.30759842519685
 20
9.867535433070866
 30
0.0
 10
-15.2985
 20
9.856976377952757
 30
0.0
 10
-15.29391338582677
 20
9.84407874015748
 30
0.0
 10
-15.29391338582677
 20
9.828850393700787
 30
0.0
 10
-15.29391338582677
 20
9.828850393700787
 30
0.0
 10
-15.29391338582677
 20
9.811921259842519
 30
0.0
 10
-15.29945275590551
 20
9.798074803149607
 30
0.0
 10
-15.31056692913386
 20
9.787354330708661
 30
0.0
 10
-15.31056692913386
 20
9.787354330708661
 30
0.0
 10
-15.32164173228346
 20
9.776594488188977
 30
0.0
 10
-15.33694881889764
 20
9.771255905511811
 30
0.0
 10
-15.35649212598425
 20
9.771255905511811
 30
0.0
 10
-15.35649212598425
 20
9.771255905511811
 30
0.0
 10
-15.37235826771654
 20
9.771255905511811
 30
0.0
 10
-15.38481889763779
 20
9.773625984251968
 30
0.0
 10
-15.39387401574803
 20
9.778374015748032
 30
0.0
 10
-15.39387401574803
 20
9.778374015748032
 30
0.0
 10
-15.40297244094488
 20
9.783122047244094
 30
0.0
 10
-15.4100157480315
 20
9.790047244094488
 30
0.0
 10
-15.41503937007874
 20
9.799102362204724
 30
0.0
 10
-15.41503937007874
 20
9.799102362204724
 30
0.0
 10
-15.42006299212598
 20
9.808200787401574
 30
0.0
 10
-15.42255511811024
 20
9.818090551181102
 30
0.0
 10
-15.42255511811024
 20
9.828850393700787
 30
0.0
 10
-15.42255511811024
 20
9.828850393700787
 30
0.0
 10
-15.42255511811024
 20
9.84605905511811
 30
0.0
 10
-15.41705511811024
 20
9.859984251968504
 30
0.0
 10
-15.40598031496063
 20
9.870622047244094
 30
0.0
 10
-15.40598031496063
 20
9.870622047244094
 30
0.0
 10
-15.39494094488189
 20
9.88126377952756
 30
0.0
 10
-15.37903937007874
 20
9.886566929133858
 30
0.0
 10
-15.35823228346457
 20
9.886566929133858
 30
0.0
  0
SPLINE
  5
86
330
1F
100
AcDbEntity
  8
Layer 1
  6
New Line20
 62
     7
370
     9
100
AcDbSpline
210
0.0
220
0.0
230
1.0
 70
    11
 71
     3
 72
    36
 73
    32
 74
     0
 42
0.0000000001
 43
0.0000000001
 40
0.0
 40
0.0
 40
0.0
 40
0.0
 40
0.125
 40
0.125
 40
0.125
 40
0.125
 40
0.25
 40
0.25
 40
0.25
 40
0.25
 40
0.375
 40
0.375
 40
0.375
 40
0.375
 40
0.5
 40
0.5
 40
0.5
 40
0.5
 40
0.625
 40
0.625
 40
0.625
 40
0.625
 40
0.75
 40
0.75
 40
0.75
 40
0.75
 40
0.875
 40
0.875
 40
0.875
 40
0.875
 40
1.0
 40
1.0
 40
1.0
 40
1.0
 10
-15.35823228346457
 20
9.865125984251968
 30
0.0
 10
-15.3740157480315
 20
9.865125984251968
 30
0.0
 10
-15.38580708661417
 20
9.861685039370078
 30
0.0
 10
-15.39363779527559
 20
9.8548031496063
 30
0.0
 10
-15.39363779527559
 20
9.8548031496063
 30
0.0
 10
-15.40151181102362
 20
9.847917322834645
 30
0.0
 10
-15.40542519685039
 20
9.839255905511811
 30
0.0
 10
-15.40542519685039
 20
9.828850393700787
 30
0.0
 10
-15.40542519685039
 20
9.828850393700787
 30
0.0
 10
-15.40542519685039
 20
9.818488188976378
 30
0.0
 10
-15.40147244094488
 20
9.809862204724409
 30
0.0
 10
-15.39359842519685
 20
9.80298031496063
 30
0.0
 10
-15.39359842519685
 20
9.80298031496063
 30
0.0
 10
-15.38572440944882
 20
9.796137795275591
 30
0.0
 10
-15.37370078740157
 20
9.792692913385826
 30
0.0
 10
-15.35755905511811
 20
9.792692913385826
 30
0.0
 10
-15.35755905511811
 20
9.792692913385826
 30
0.0
 10
-15.34233070866142
 20
9.792692913385826
 30
0.0
 10
-15.33077952755906
 20
9.796137795275591
 30
0.0
 10
-15.32294881889764
 20
9.80305905511811
 30
0.0
 10
-15.32294881889764
 20
9.80305905511811
 30
0.0
 10
-15.31511417322835
 20
9.809984251968505
 30
0.0
 10
-15.31120078740157
 20
9.818566929133858
 30
0.0
 10
-15.31120078740157
 20
9.828850393700787
 30
0.0
 10
-15.31120078740157
 20
9.828850393700787
 30
0.0
 10
-15.31120078740157
 20
9.839255905511811
 30
0.0
 10
-15.31511417322835
 20
9.847917322834645
 30
0.0
 10
-15.3229094488189
 20
9.8548031496063
 30
0.0
 10
-15.3229094488189
 20
9.8548031496063
 30
0.0
 10
-15.33070078740158
 20
9.861685039370078
 30
0.0
 10
-15.34248818897638
 20
9.865125984251968
 30
0.0
 10
-15.35823228346457
 20
9.865125984251968
 30
0.0
  0
SPLINE
  5
88
330
1F
100
AcDbEntity
  8
Layer 1
  6
New Line21
 62
     7
370
     9
100
AcDbSpline
210
0.0
220
0.0
230
1.0
 70
    11
 71
     3
 72
   116
 73
   112
 74
     0
 42
0.0000000001
 43
0.0000000001
 40
0.0
 40
0.0
 40
0.0
 40
0.0
 40
0.0357142857142857
 40
0.0357142857142857
 40
0.0357142857142857
 40
0.0357142857142857
 40
0.0714285714285714
 40
0.0714285714285714
 40
0.0714285714285714
 40
0.0714285714285714
 40
0.1071428571428571
 40
0.1071428571428571
 40
0.1071428571428571
 40
0.1071428571428571
 40
0.1428571428571428
 40
0.1428571428571428
 40
0.1428571428571428
 40
0.1428571428571428
 40
0.1785714285714285
 40
0.1785714285714285
 40
0.1785714285714285
 40
0.1785714285714285
 40
0.2142857142857142
 40
0.2142857142857142
 40
0.2142857142857142
 40
0.2142857142857142
 40
0.2499999999999999
 40
0.2499999999999999
 40
0.2499999999999999
 40
0.2499999999999999
 40
0.2857142857142856
 40
0.2857142857142856
 40
0.2857142857142856
 40
0.2857142857142856
 40
0.3214285714285713
 40
0.3214285714285713
 40
0.3214285714285713
 40
0.3214285714285713
 40
0.357142857142857
 40
0.357142857142857
 40
0.357142857142857
 40
0.357142857142857
 40
0.3928571428571427
 40
0.3928571428571427
 40
0.3928571428571427
 40
0.3928571428571427
 40
0.4285714285714284
 40
0.4285714285714284
 40
0.4285714285714284
 40
0.4285714285714284
 40
0.4642857142857141
 40
0.4642857142857141
 40
0.4642857142857141
 40
0.4642857142857141
 40
0.4999999999999998
 40
0.4999999999999998
 40
0.4999999999999998
 40
0.4999999999999998
 40
0.5357142857142856
 40
0.5357142857142856
 40
0.5357142857142856
 40
0.5357142857142856
 40
0.5714285714285713
 40
0.5714285714285713
 40
0.5714285714285713
 40
0.5714285714285713
 40
0.607142857142857
 40
0.607142857142857
 40
0.607142857142857
 40
0.607142857142857
 40
0.6428571428571427
 40
0.6428571428571427
 40
0.6428571428571427
 40
0.6428571428571427
 40
0.6785714285714284
 40
0.6785714285714284
 40
0.6785714285714284
 40
0.6785714285714284
 40
0.7142857142857141
 40
0.7142857142857141
 40
0.7142857142857141
 40
0.7142857142857141
 40
0.7499999999999998
 40
0.7499999999999998
 40
0.7499999999999998
 40
0.7499999999999998
 40
0.7857142857142855
 40
0.7857142857142855
 40
0.7857142857142855
 40
0.7857142857142855
 40
0.8214285714285712
 40
0.8214285714285712
 40
0.8214285714285712
 40
0.8214285714285712
 40
0.8571428571428569
 40
0.8571428571428569
 40
0.8571428571428569
 40
0.8571428571428569
 40
0.8928571428571426
 40
0.8928571428571426
 40
0.8928571428571426
 40
0.8928571428571426
 40
0.9285714285714283
 40
0.9285714285714283
 40
0.9285714285714283
 40
0.9285714285714283
 40
0.964285714285714
 40
0.964285714285714
 40
0.964285714285714
 40
0.964285714285714
 40
1.0
 40
1.0
 40
1.0
 40
1.0
 10
-15.4197874015748
 20
9.746767716535434
 30
0.0
 10
-15.4197874015748
 20
9.746767716535434
 30
0.0
 10
-15.29672047244095
 20
9.746767716535434
 30
0.0
 10
-15.29672047244095
 20
9.746767716535434
 30
0.0
 10
-15.29672047244095
 20
9.746767716535434
 30
0.0
 10
-15.29672047244095
 20
9.746767716535434
 30
0.0
 10
-15.29672047244095
 20
9.728137795275591
 30
0.0
 10
-15.29672047244095
 20
9.728137795275591
 30
0.0
 10
-15.29672047244095
 20
9.728137795275591
 30
0.0
 10
-15.29672047244095
 20
9.728137795275591
 30
0.0
 10
-15.31396850393701
 20
9.728137795275591
 30
0.0
 10
-15.31396850393701
 20
9.728137795275591
 30
0.0
 10
-15.31396850393701
 20
9.728137795275591
 30
0.0
 10
-15.30795669291339
 20
9.724259842519684
 30
0.0
 10
-15.3030905511811
 20
9.71911811023622
 30
0.0
 10
-15.29945275590551
 20
9.712708661417324
 30
0.0
 10
-15.29945275590551
 20
9.712708661417324
 30
0.0
 10
-15.29577165354331
 20
9.706299212598426
 30
0.0
 10
-15.29391338582677
 20
9.698984251968504
 30
0.0
 10
-15.29391338582677
 20
9.69079527559055
 30
0.0
 10
-15.29391338582677
 20
9.69079527559055
 30
0.0
 10
-15.29391338582677
 20
9.6816968503937
 30
0.0
 10
-15.29581102362205
 20
9.674220472440945
 30
0.0
 10
-15.2996062992126
 20
9.668405511811024
 30
0.0
 10
-15.2996062992126
 20
9.668405511811024
 30
0.0
 10
-15.30340551181102
 20
9.662547244094489
 30
0.0
 10
-15.30866929133858
 20
9.658437007874015
 30
0.0
 10
-15.31547244094488
 20
9.656062992125984
 30
0.0
 10
-15.31547244094488
 20
9.656062992125984
 30
0.0
 10
-15.30111023622047
 20
9.646291338582676
 30
0.0
 10
-15.29391338582677
 20
9.633633858267716
 30
0.0
 10
-15.29391338582677
 20
9.618047244094488
 30
0.0
 10
-15.29391338582677
 20
9.618047244094488
 30
0.0
 10
-15.29391338582677
 20
9.60582283464567
 30
0.0
 10
-15.29731496062992
 20
9.596448818897638
 30
0.0
 10
-15.30407874015748
 20
9.58988188976378
 30
0.0
 10
-15.30407874015748
 20
9.58988188976378
 30
0.0
 10
-15.31084251968504
 20
9.583314960629922
 30
0.0
 10
-15.32124803149606
 20
9.580031496062992
 30
0.0
 10
-15.33529133858268
 20
9.580031496062992
 30
0.0
 10
-15.33529133858268
 20
9.580031496062992
 30
0.0
 10
-15.33529133858268
 20
9.580031496062992
 30
0.0
 10
-15.4197874015748
 20
9.580031496062992
 30
0.0
 10
-15.4197874015748
 20
9.580031496062992
 30
0.0
 10
-15.4197874015748
 20
9.580031496062992
 30
0.0
 10
-15.4197874015748
 20
9.580031496062992
 30
0.0
 10
-15.4197874015748
 20
9.600759842519684
 30
0.0
 10
-15.4197874015748
 20
9.600759842519684
 30
0.0
 10
-15.4197874015748
 20
9.600759842519684
 30
0.0
 10
-15.4197874015748
 20
9.600759842519684
 30
0.0
 10
-15.34225196850394
 20
9.600759842519684
 30
0.0
 10
-15.34225196850394
 20
9.600759842519684
 30
0.0
 10
-15.34225196850394
 20
9.600759842519684
 30
0.0
 10
-15.33390551181102
 20
9.600759842519684
 30
0.0
 10
-15.3278937007874
 20
9.601433070866142
 30
0.0
 10
-15.3242125984252
 20
9.60277559055118
 30
0.0
 10
-15.3242125984252
 20
9.60277559055118
 30
0.0
 10
-15.32057480314961
 20
9.604161417322835
 30
0.0
 10
-15.3176062992126
 20
9.606614173228346
 30
0.0
 10
-15.31535433070866
 20
9.610133858267716
 30
0.0
 10
-15.31535433070866
 20
9.610133858267716
 30
0.0
 10
-15.31313779527559
 20
9.613696850393701
 30
0.0
 10
-15.31198818897638
 20
9.617889763779528
 30
0.0
 10
-15.31198818897638
 20
9.622673228346457
 30
0.0
 10
-15.31198818897638
 20
9.622673228346457
 30
0.0
 10
-15.31198818897638
 20
9.631338582677165
 30
0.0
 10
-15.31487795275591
 20
9.6385
 30
0.0
 10
-15.32065354330709
 20
9.644236220472441
 30
0.0
 10
-15.32065354330709
 20
9.644236220472441
 30
0.0
 10
-15.32638976377953
 20
9.649929133858267
 30
0.0
 10
-15.3356062992126
 20
9.652818897637795
 30
0.0
 10
-15.34826377952756
 20
9.652818897637795
 30
0.0
 10
-15.34826377952756
 20
9.652818897637795
 30
0.0
 10
-15.34826377952756
 20
9.652818897637795
 30
0.0
 10
-15.4197874015748
 20
9.652818897637795
 30
0.0
 10
-15.4197874015748
 20
9.652818897637795
 30
0.0
 10
-15.4197874015748
 20
9.652818897637795
 30
0.0
 10
-15.4197874015748
 20
9.652818897637795
 30
0.0
 10
-15.4197874015748
 20
9.673665354330709
 30
0.0
 10
-15.4197874015748
 20
9.673665354330709
 30
0.0
 10
-15.4197874015748
 20
9.673665354330709
 30
0.0
 10
-15.4197874015748
 20
9.673665354330709
 30
0.0
 10
-15.33983858267717
 20
9.673665354330709
 30
0.0
 10
-15.33983858267717
 20
9.673665354330709
 30
0.0
 10
-15.33983858267717
 20
9.673665354330709
 30
0.0
 10
-15.33054330708661
 20
9.673665354330709
 30
0.0
 10
-15.32358267716535
 20
9.675366141732283
 30
0.0
 10
-15.31895275590551
 20
9.678767716535432
 30
0.0
 10
-15.31895275590551
 20
9.678767716535432
 30
0.0
 10
-15.31432677165354
 20
9.682169291338584
 30
0.0
 10
-15.31198818897638
 20
9.687708661417323
 30
0.0
 10
-15.31198818897638
 20
9.69546062992126
 30
0.0
 10
-15.31198818897638
 20
9.69546062992126
 30
0.0
 10
-15.31198818897638
 20
9.70131496062992
 30
0.0
 10
-15.31353149606299
 20
9.706736220472441
 30
0.0
 10
-15.31665748031496
 20
9.711720472440945
 30
0.0
 10
-15.31665748031496
 20
9.711720472440945
 30
0.0
 10
-15.31974409448819
 20
9.716704724409448
 30
0.0
 10
-15.32425590551181
 20
9.720342519685039
 30
0.0
 10
-15.33018503937008
 20
9.72255905511811
 30
0.0
 10
-15.33018503937008
 20
9.72255905511811
 30
0.0
 10
-15.33616141732283
 20
9.724811023622047
 30
0.0
 10
-15.34474409448819
 20
9.72592125984252
 30
0.0
 10
-15.35594094488189
 20
9.72592125984252
 30
0.0
 10
-15.35594094488189
 20
9.72592125984252
 30
0.0
 10
-15.35594094488189
 20
9.72592125984252
 30
0.0
 10
-15.4197874015748
 20
9.72592125984252
 30
0.0
 10
-15.4197874015748
 20
9.72592125984252
 30
0.0
 10
-15.4197874015748
 20
9.72592125984252
 30
0.0
 10
-15.4197874015748
 20
9.72592125984252
 30
0.0
 10
-15.4197874015748
 20
9.746767716535434
 30
0.0
 10
-15.4197874015748
 20
9.746767716535434
 30
0.0
  0
SPLINE
  5
8A
330
1F
100
AcDbEntity
  8
Layer 1
 62
     7
370
     9
100
AcDbSpline
210
0.0
220
0.0
230
1.0
 70
    11
 71
     3
 72
   192
 73
   188
 74
     0
 42
0.0000000001
 43
0.0000000001
 40
0.0
 40
0.0
 40
0.0
 40
0.0
 40
0.0212765957446809
 40
0.0212765957446809
 40
0.0212765957446809
 40
0.0212765957446809
 40
0.0425531914893617
 40
0.0425531914893617
 40
0.0425531914893617
 40
0.0425531914893617
 40
0.0638297872340425
 40
0.0638297872340425
 40
0.0638297872340425
 40
0.0638297872340425
 40
0.0851063829787234
 40
0.0851063829787234
 40
0.0851063829787234
 40
0.0851063829787234
 40
0.1063829787234043
 40
0.1063829787234043
 40
0.1063829787234043
 40
0.1063829787234043
 40
0.1276595744680851
 40
0.1276595744680851
 40
0.1276595744680851
 40
0.1276595744680851
 40
0.148936170212766
 40
0.148936170212766
 40
0.148936170212766
 40
0.148936170212766
 40
0.1702127659574468
 40
0.1702127659574468
 40
0.1702127659574468
 40
0.1702127659574468
 40
0.1914893617021277
 40
0.1914893617021277
 40
0.1914893617021277
 40
0.1914893617021277
 40
0.2127659574468085
 40
0.2127659574468085
 40
0.2127659574468085
 40
0.2127659574468085
 40
0.2340425531914894
 40
0.2340425531914894
 40
0.2340425531914894
 40
0.2340425531914894
 40
0.2553191489361702
 40
0.2553191489361702
 40
0.2553191489361702
 40
0.2553191489361702
 40
0.276595744680851
 40
0.276595744680851
 40
0.276595744680851
 40
0.276595744680851
 40
0.2978723404255318
 40
0.2978723404255318
 40
0.2978723404255318
 40
0.2978723404255318
 40
0.3191489361702127
 40
0.3191489361702127
 40
0.3191489361702127
 40
0.3191489361702127
 40
0.3404255319148935
 40
0.3404255319148935
 40
0.3404255319148935
 40
0.3404255319148935
 40
0.3617021276595743
 40
0.3617021276595743
 40
0.3617021276595743
 40
0.3617021276595743
 40
0.3829787234042552
 40
0.3829787234042552
 40
0.3829787234042552
 40
0.3829787234042552
 40
0.404255319148936
 40
0.404255319148936
 40
0.404255319148936
 40
0.404255319148936
 40
0.4255319148936168
 40
0.4255319148936168
 40
0.4255319148936168
 40
0.4255319148936168
 40
0.4468085106382976
 40
0.4468085106382976
 40
0.4468085106382976
 40
0.4468085106382976
 40
0.4680851063829785
 40
0.4680851063829785
 40
0.4680851063829785
 40
0.4680851063829785
 40
0.4893617021276593
 40
0.4893617021276593
 40
0.4893617021276593
 40
0.4893617021276593
 40
0.5106382978723402
 40
0.5106382978723402
 40
0.5106382978723402
 40
0.5106382978723402
 40
0.531914893617021
 40
0.531914893617021
 40
0.531914893617021
 40
0.531914893617021
 40
0.5531914893617019
 40
0.5531914893617019
 40
0.5531914893617019
 40
0.5531914893617019
 40
0.5744680851063828
 40
0.5744680851063828
 40
0.5744680851063828
 40
0.5744680851063828
 40
0.5957446808510637
 40
0.5957446808510637
 40
0.5957446808510637
 40
0.5957446808510637
 40
0.6170212765957446
 40
0.6170212765957446
 40
0.6170212765957446
 40
0.6170212765957446
 40
0.6382978723404255
 40
0.6382978723404255
 40
0.6382978723404255
 40
0.6382978723404255
 40
0.6595744680851063
 40
0.6595744680851063
 40
0.6595744680851063
 40
0.6595744680851063
 40
0.6808510638297872
 40
0.6808510638297872
 40
0.6808510638297872
 40
0.6808510638297872
 40
0.7021276595744681
 40
0.7021276595744681
 40
0.7021276595744681
 40
0.7021276595744681
 40
0.723404255319149
 40
0.723404255319149
 40
0.723404255319149
 40
0.723404255319149
 40
0.7446808510638299
 40
0.7446808510638299
 40
0.7446808510638299
 40
0.7446808510638299
 40
0.7659574468085107
 40
0.7659574468085107
 40
0.7659574468085107
 40
0.7659574468085107
 40
0.7872340425531916
 40
0.7872340425531916
 40
0.7872340425531916
 40
0.7872340425531916
 40
0.8085106382978725
 40
0.8085106382978725
 40
0.8085106382978725
 40
0.8085106382978725
 40
0.8297872340425534
 40
0.8297872340425534
 40
0.8297872340425534
 40
0.8297872340425534
 40
0.8510638297872343
 40
0.8510638297872343
 40
0.8510638297872343
 40
0.8510638297872343
 40
0.8723404255319152
 40
0.8723404255319152
 40
0.8723404255319152
 40
0.8723404255319152
 40
0.893617021276596
 40
0.893617021276596
 40
0.893617021276596
 40
0.893617021276596
 40
0.9148936170212769
 40
0.9148936170212769
 40
0.9148936170212769
 40
0.9148936170212769
 40
0.9361702127659578
 40
0.9361702127659578
 40
0.9361702127659578
 40
0.9361702127659578
 40
0.9574468085106387
 40
0.9574468085106387
 40
0.9574468085106387
 40
0.9574468085106387
 40
0.9787234042553196
 40
0.9787234042553196
 40
0.9787234042553196
 40
0.9787234042553196
 40
1.0
 40
1.0
 40
1.0
 40
1.0
 10
-16.4937125984252
 20
11.0556062992126
 30
0.0
 10
-16.49701968503937
 20
11.0818188976378
 30
0.0
 10
-16.48409448818898
 20
11.0918031496063
 30
0.0
 10
-16.47142519685039
 20
11.10204330708661
 30
0.0
 10
-16.47142519685039
 20
11.10204330708661
 30
0.0
 10
-16.47658267716535
 20
11.10493700787402
 30
0.0
 10
-16.48224409448819
 20
11.10732283464567
 30
0.0
 10
-16.48628346456693
 20
11.11133070866142
 30
0.0
 10
-16.48628346456693
 20
11.11133070866142
 30
0.0
 10
-16.48682677165354
 20
11.14791338582677
 30
0.0
 10
-16.48479921259842
 20
11.16034251968504
 30
0.0
 10
-16.48257086614173
 20
11.19305905511811
 30
0.0
 10
-16.48257086614173
 20
11.19305905511811
 30
0.0
 10
-16.50233858267717
 20
11.19711023622047
 30
0.0
 10
-16.53055511811024
 20
11.19971653543307
 30
0.0
 10
-16.55501181102362
 20
11.20420472440945
 30
0.0
 10
-16.55501181102362
 20
11.20420472440945
 30
0.0
 10
-16.54632677165354
 20
11.17779921259842
 30
0.0
 10
-16.55113779527559
 20
11.16484251968504
 30
0.0
 10
-16.54757874015748
 20
11.12990551181102
 30
0.0
 10
-16.54757874015748
 20
11.12990551181102
 30
0.0
 10
-16.55219291338583
 20
11.12770472440945
 30
0.0
 10
-16.55851181102362
 20
11.12721653543307
 30
0.0
 10
-16.56429921259842
 20
11.12618897637795
 30
0.0
 10
-16.56429921259842
 20
11.12618897637795
 30
0.0
 10
-16.54599212598425
 20
11.11633070866142
 30
0.0
 10
-16.53543700787402
 20
11.07446456692913
 30
0.0
 10
-16.55872440944882
 20
11.06118110236221
 30
0.0
 10
-16.55872440944882
 20
11.06118110236221
 30
0.0
 10
-16.57261811023622
 20
11.05128346456693
 30
0.0
 10
-16.60879921259842
 20
11.04893700787402
 30
0.0
 10
-16.62373622047244
 20
11.06118110236221
 30
0.0
 10
-16.62373622047244
 20
11.06118110236221
 30
0.0
 10
-16.6446062992126
 20
11.07445669291338
 30
0.0
 10
-16.64487795275591
 20
11.11472047244095
 30
0.0
 10
-16.62187795275591
 20
11.12618897637795
 30
0.0
 10
-16.62187795275591
 20
11.12618897637795
 30
0.0
 10
-16.63953937007874
 20
11.13797244094488
 30
0.0
 10
-16.62922440944882
 20
11.18615748031496
 30
0.0
 10
-16.63488188976378
 20
11.21349212598425
 30
0.0
 10
-16.63488188976378
 20
11.21349212598425
 30
0.0
 10
-16.65174803149606
 20
11.22076771653543
 30
0.0
 10
-16.67828346456693
 20
11.21838188976378
 30
0.0
 10
-16.69246062992126
 20
11.22835039370079
 30
0.0
 10
-16.69246062992126
 20
11.22835039370079
 30
0.0
 10
-16.69205905511811
 20
11.25209448818898
 30
0.0
 10
-16.68747637795276
 20
11.27165748031496
 30
0.0
 10
-16.68317322834646
 20
11.29150393700787
 30
0.0
 10
-16.68317322834646
 20
11.29150393700787
 30
0.0
 10
-16.68907874015748
 20
11.29555118110236
 30
0.0
 10
-16.70364566929134
 20
11.30068897637795
 30
0.0
 10
-16.71103543307087
 20
11.29707480314961
 30
0.0
 10
-16.71103543307087
 20
11.29707480314961
 30
0.0
 10
-16.71509448818898
 20
11.29735039370079
 30
0.0
 10
-16.71502362204724
 20
11.30175590551181
 30
0.0
 10
-16.71475196850394
 20
11.30636220472441
 30
0.0
 10
-16.71475196850394
 20
11.30636220472441
 30
0.0
 10
-16.71643700787402
 20
11.31085433070866
 30
0.0
 10
-16.72023228346457
 20
11.30215354330709
 30
0.0
 10
-16.7258937007874
 20
11.30450393700787
 30
0.0
 10
-16.7258937007874
 20
11.30450393700787
 30
0.0
 10
-16.72611811023622
 20
11.32663779527559
 30
0.0
 10
-16.71584645669291
 20
11.33792125984252
 30
0.0
 10
-16.70546456692913
 20
11.35651181102362
 30
0.0
 10
-16.70546456692913
 20
11.35651181102362
 30
0.0
 10
-16.68988976377953
 20
11.3844094488189
 30
0.0
 10
-16.66954330708661
 20
11.41180708661417
 30
0.0
 10
-16.63859448818897
 20
11.42338188976378
 30
0.0
 10
-16.63859448818897
 20
11.42338188976378
 30
0.0
 10
-16.61257874015748
 20
11.46795275590551
 30
0.0
 10
-16.58481102362205
 20
11.51076377952756
 30
0.0
 10
-16.52529133858268
 20
11.52182677165354
 30
0.0
 10
-16.52529133858268
 20
11.52182677165354
 30
0.0
 10
-16.52194488188976
 20
11.53024409448819
 30
0.0
 10
-16.52397244094488
 20
11.54403543307087
 30
0.0
 10
-16.52343307086614
 20
11.55525984251969
 30
0.0
 10
-16.52343307086614
 20
11.55525984251969
 30
0.0
 10
-16.53165354330709
 20
11.56251968503937
 30
0.0
 10
-16.53853937007874
 20
11.56477952755906
 30
0.0
 10
-16.53807480314961
 20
11.58072440944882
 30
0.0
 10
-16.53807480314961
 20
11.58072440944882
 30
0.0
 10
-16.53807480314961
 20
11.58072440944882
 30
0.0
 10
-16.61883858267716
 20
11.58083858267717
 30
0.0
 10
-16.61883858267716
 20
11.58083858267717
 30
0.0
 10
-16.61883858267716
 20
11.58083858267717
 30
0.0
 10
-16.61883858267716
 20
11.58083858267717
 30
0.0
 10
-16.61701574803149
 20
11.60591338582677
 30
0.0
 10
-16.61701574803149
 20
11.60591338582677
 30
0.0
 10
-16.61701574803149
 20
11.60591338582677
 30
0.0
 10
-16.61701574803149
 20
11.60591338582677
 30
0.0
 10
-16.53677559055118
 20
11.60223228346457
 30
0.0
 10
-16.53677559055118
 20
11.60223228346457
 30
0.0
 10
-16.53677559055118
 20
11.60223228346457
 30
0.0
 10
-16.53318503937008
 20
11.61283464566929
 30
0.0
 10
-16.53055118110236
 20
11.62259448818898
 30
0.0
 10
-16.52405118110236
 20
11.61779527559055
 30
0.0
 10
-16.52405118110236
 20
11.61779527559055
 30
0.0
 10
-16.52025196850394
 20
11.62704330708661
 30
0.0
 10
-16.52047637795276
 20
11.64141732283464
 30
0.0
 10
-16.5215748031496
 20
11.65556299212598
 30
0.0
 10
-16.5215748031496
 20
11.65556299212598
 30
0.0
 10
-16.49847637795276
 20
11.66024409448819
 30
0.0
 10
-16.47308661417323
 20
11.66749212598425
 30
0.0
 10
-16.44727952755905
 20
11.67042125984252
 30
0.0
 10
-16.44727952755905
 20
11.67042125984252
 30
0.0
 10
-16.43187401574803
 20
11.67217322834646
 30
0.0
 10
-16.4076062992126
 20
11.67727952755905
 30
0.0
 10
-16.39341338582677
 20
11.67413779527559
 30
0.0
 10
-16.39341338582677
 20
11.67413779527559
 30
0.0
 10
-16.36883070866142
 20
11.6686968503937
 30
0.0
 10
-16.35962598425197
 20
11.64387007874016
 30
0.0
 10
-16.34919291338583
 20
11.6208937007874
 30
0.0
 10
-16.34919291338583
 20
11.6208937007874
 30
0.0
 10
-16.34638976377953
 20
11.61471653543307
 30
0.0
 10
-16.35053149606299
 20
11.63190551181102
 30
0.0
 10
-16.34053543307087
 20
11.60821653543307
 30
0.0
 10
-16.34053543307087
 20
11.60821653543307
 30
0.0
 10
-16.30922440944882
 20
11.61196456692913
 30
0.0
 10
-16.26294881889764
 20
11.60944488188976
 30
0.0
 10
-16.2398779527559
 20
11.61211417322835
 30
0.0
 10
-16.2398779527559
 20
11.61211417322835
 30
0.0
 10
-16.2398779527559
 20
11.61211417322835
 30
0.0
 10
-16.24202755905512
 20
11.59344881889764
 30
0.0
 10
-16.24202755905512
 20
11.59344881889764
 30
0.0
 10
-16.24202755905512
 20
11.59344881889764
 30
0.0
 10
-16.26272834645669
 20
11.59324015748031
 30
0.0
 10
-16.31852362204724
 20
11.58875196850394
 30
0.0
 10
-16.33397244094488
 20
11.5886968503937
 30
0.0
 10
-16.33397244094488
 20
11.5886968503937
 30
0.0
 10
-16.33482677165354
 20
11.58291338582677
 30
0.0
 10
-16.3397874015748
 20
11.57662992125984
 30
0.0
 10
-16.34075984251968
 20
11.57096456692913
 30
0.0
 10
-16.34075984251968
 20
11.57096456692913
 30
0.0
 10
-16.34399212598425
 20
11.5521062992126
 30
0.0
 10
-16.34281889763779
 20
11.53438976377953
 30
0.0
 10
-16.33768897637795
 20
11.51625590551181
 30
0.0
 10
-16.33768897637795
 20
11.51625590551181
 30
0.0
 10
-16.33270078740157
 20
11.49862992125984
 30
0.0
 10
-16.30366535433071
 20
11.48388188976378
 30
0.0
 10
-16.29682283464567
 20
11.46053149606299
 30
0.0
 10
-16.29682283464567
 20
11.46053149606299
 30
0.0
 10
-16.29401574803149
 20
11.45094488188976
 30
0.0
 10
-16.2972125984252
 20
11.44269291338583
 30
0.0
 10
-16.29311023622047
 20
11.43081102362205
 30
0.0
 10
-16.29311023622047
 20
11.43081102362205
 30
0.0
 10
-16.2901062992126
 20
11.42700393700787
 30
0.0
 10
-16.28416929133858
 20
11.42612992125984
 30
0.0
 10
-16.2801062992126
 20
11.42338188976378
 30
0.0
 10
-16.2801062992126
 20
11.42338188976378
 30
0.0
 10
-16.25126771653543
 20
11.39086614173228
 30
0.0
 10
-16.23442913385827
 20
11.33664566929134
 30
0.0
 10
-16.22624015748032
 20
11.28964566929134
 30
0.0
 10
-16.22624015748032
 20
11.28964566929134
 30
0.0
 10
-16.24599212598425
 20
11.28035826771653
 30
0.0
 10
-16.26291732283465
 20
11.28911417322835
 30
0.0
 10
-16.27267716535433
 20
11.28221653543307
 30
0.0
 10
-16.27267716535433
 20
11.28221653543307
 30
0.0
 10
-16.27864566929134
 20
11.28058267716535
 30
0.0
 10
-16.27522440944882
 20
11.28833858267716
 30
0.0
 10
-16.2801062992126
 20
11.2877874015748
 30
0.0
 10
-16.2801062992126
 20
11.2877874015748
 30
0.0
 10
-16.2838937007874
 20
11.28724409448819
 30
0.0
 10
-16.28374803149606
 20
11.28275984251968
 30
0.0
 10
-16.28753937007874
 20
11.28221653543307
 30
0.0
 10
-16.28753937007874
 20
11.28221653543307
 30
0.0
 10
-16.28449606299213
 20
11.25418897637795
 30
0.0
 10
-16.28940551181102
 20
11.2349842519685
 30
0.0
 10
-16.2893937007874
 20
11.20605905511811
 30
0.0
 10
-16.2893937007874
 20
11.20605905511811
 30
0.0
 10
-16.31981889763779
 20
11.19288976377953
 30
0.0
 10
-16.35421653543307
 20
11.19517716535433
 30
0.0
 10
-16.39712598425197
 20
11.19491732283465
 30
0.0
 10
-16.39712598425197
 20
11.19491732283465
 30
0.0
 10
-16.39662204724409
 20
11.18933070866142
 30
0.0
 10
-16.40766929133858
 20
11.16877559055118
 30
0.0
 10
-16.39872834645669
 20
11.1552125984252
 30
0.0
 10
-16.39872834645669
 20
11.1552125984252
 30
0.0
 10
-16.41198425196851
 20
11.14165354330709
 30
0.0
 10
-16.39213385826772
 20
11.09581102362205
 30
0.0
 10
-16.41941732283465
 20
11.09461417322835
 30
0.0
 10
-16.41941732283465
 20
11.09461417322835
 30
0.0
 10
-16.41040551181102
 20
11.08133464566929
 30
0.0
 10
-16.39859448818898
 20
11.06503149606299
 30
0.0
 10
-16.41157874015748
 20
11.04650787401575
 30
0.0
 10
-16.41157874015748
 20
11.04650787401575
 30
0.0
 10
-16.43896850393701
 20
11.00742913385827
 30
0.0
 10
-16.48550787401575
 20
11.03366141732283
 30
0.0
 10
-16.4937125984252
 20
11.0556062992126
 30
0.0
  0
SPLINE
  5
8B
330
1F
100
AcDbEntity
  8
Layer 1
 62
     7
370
     9
100
AcDbSpline
210
0.0
220
0.0
230
1.0
 70
    11
 71
     3
 72
    28
 73
    24
 74
     0
 42
0.0000000001
 43
0.0000000001
 40
0.0
 40
0.0
 40
0.0
 40
0.0
 40
0.1666666666666667
 40
0.1666666666666667
 40
0.1666666666666667
 40
0.1666666666666667
 40
0.3333333333333333
 40
0.3333333333333333
 40
0.3333333333333333
 40
0.3333333333333333
 40
0.5
 40
0.5
 40
0.5
 40
0.5
 40
0.6666666666666666
 40
0.6666666666666666
 40
0.6666666666666666
 40
0.6666666666666666
 40
0.8333333333333333
 40
0.8333333333333333
 40
0.8333333333333333
 40
0.8333333333333333
 40
1.0
 40
1.0
 40
1.0
 40
1.0
 10
-16.67958267716535
 20
9.584385826771653
 30
0.0
 10
-16.67958267716535
 20
9.584385826771653
 30
0.0
 10
-16.4666062992126
 20
9.559374015748032
 30
0.0
 10
-16.4666062992126
 20
9.559374015748032
 30
0.0
 10
-16.4666062992126
 20
9.559374015748032
 30
0.0
 10
-16.4666062992126
 20
9.559374015748032
 30
0.0
 10
-16.29323622047244
 20
9.563952755905511
 30
0.0
 10
-16.29323622047244
 20
9.563952755905511
 30
0.0
 10
-16.29323622047244
 20
9.563952755905511
 30
0.0
 10
-16.29323622047244
 20
9.563952755905511
 30
0.0
 10
-16.2950905511811
 20
9.543523622047244
 30
0.0
 10
-16.2950905511811
 20
9.543523622047244
 30
0.0
 10
-16.2950905511811
 20
9.543523622047244
 30
0.0
 10
-16.2950905511811
 20
9.543523622047244
 30
0.0
 10
-16.47972440944882
 20
9.539708661417324
 30
0.0
 10
-16.47972440944882
 20
9.539708661417324
 30
0.0
 10
-16.47972440944882
 20
9.539708661417324
 30
0.0
 10
-16.47972440944882
 20
9.539708661417324
 30
0.0
 10
-16.68329921259842
 20
9.567669291338582
 30
0.0
 10
-16.68329921259842
 20
9.567669291338582
 30
0.0
 10
-16.68329921259842
 20
9.567669291338582
 30
0.0
 10
-16.68329921259842
 20
9.567669291338582
 30
0.0
 10
-16.67958267716535
 20
9.584385826771653
 30
0.0
 10
-16.67958267716535
 20
9.584385826771653
 30
0.0
  0
SPLINE
  5
8C
330
1F
100
AcDbEntity
  8
Layer 1
 62
     7
370
     9
100
AcDbSpline
210
0.0
220
0.0
230
1.0
 70
    11
 71
     3
 72
    64
 73
    60
 74
     0
 42
0.0000000001
 43
0.0000000001
 40
0.0
 40
0.0
 40
0.0
 40
0.0
 40
0.0666666666666667
 40
0.0666666666666667
 40
0.0666666666666667
 40
0.0666666666666667
 40
0.1333333333333333
 40
0.1333333333333333
 40
0.1333333333333333
 40
0.1333333333333333
 40
0.2
 40
0.2
 40
0.2
 40
0.2
 40
0.2666666666666667
 40
0.2666666666666667
 40
0.2666666666666667
 40
0.2666666666666667
 40
0.3333333333333333
 40
0.3333333333333333
 40
0.3333333333333333
 40
0.3333333333333333
 40
0.4
 40
0.4
 40
0.4
 40
0.4
 40
0.4666666666666666
 40
0.4666666666666666
 40
0.4666666666666666
 40
0.4666666666666666
 40
0.5333333333333333
 40
0.5333333333333333
 40
0.5333333333333333
 40
0.5333333333333333
 40
0.6
 40
0.6
 40
0.6
 40
0.6
 40
0.6666666666666666
 40
0.6666666666666666
 40
0.6666666666666666
 40
0.6666666666666666
 40
0.7333333333333333
 40
0.7333333333333333
 40
0.7333333333333333
 40
0.7333333333333333
 40
0.7999999999999999
 40
0.7999999999999999
 40
0.7999999999999999
 40
0.7999999999999999
 40
0.8666666666666666
 40
0.8666666666666666
 40
0.8666666666666666
 40
0.8666666666666666
 40
0.9333333333333332
 40
0.9333333333333332
 40
0.9333333333333332
 40
0.9333333333333332
 40
1.0
 40
1.0
 40
1.0
 40
1.0
 10
-16.42720866141732
 20
9.951267716535433
 30
0.0
 10
-16.42720866141732
 20
9.951267716535433
 30
0.0
 10
-16.43861417322834
 20
9.95234251968504
 30
0.0
 10
-16.43861417322834
 20
9.95234251968504
 30
0.0
 10
-16.43861417322834
 20
9.95234251968504
 30
0.0
 10
-16.43861417322834
 20
9.95234251968504
 30
0.0
 10
-16.44496062992126
 20
9.939751968503938
 30
0.0
 10
-16.44496062992126
 20
9.939751968503938
 30
0.0
 10
-16.44496062992126
 20
9.939751968503938
 30
0.0
 10
-16.44496062992126
 20
9.939751968503938
 30
0.0
 10
-16.44248425196851
 20
9.921570866141732
 30
0.0
 10
-16.44248425196851
 20
9.921570866141732
 30
0.0
 10
-16.44248425196851
 20
9.921570866141732
 30
0.0
 10
-16.44248425196851
 20
9.921570866141732
 30
0.0
 10
-16.43430708661417
 20
9.915330708661417
 30
0.0
 10
-16.43430708661417
 20
9.915330708661417
 30
0.0
 10
-16.43430708661417
 20
9.915330708661417
 30
0.0
 10
-16.43430708661417
 20
9.915330708661417
 30
0.0
 10
-16.41752362204724
 20
9.918232283464567
 30
0.0
 10
-16.41752362204724
 20
9.918232283464567
 30
0.0
 10
-16.41752362204724
 20
9.918232283464567
 30
0.0
 10
-16.41752362204724
 20
9.918232283464567
 30
0.0
 10
-16.40902362204724
 20
9.92996062992126
 30
0.0
 10
-16.40902362204724
 20
9.92996062992126
 30
0.0
 10
-16.40902362204724
 20
9.92996062992126
 30
0.0
 10
-16.40902362204724
 20
9.92996062992126
 30
0.0
 10
-16.41515354330709
 20
9.944381889763779
 30
0.0
 10
-16.41515354330709
 20
9.944381889763779
 30
0.0
 10
-16.41515354330709
 20
9.944381889763779
 30
0.0
 10
-16.41515354330709
 20
9.944381889763779
 30
0.0
 10
-16.42042913385827
 20
9.944811023622048
 30
0.0
 10
-16.42042913385827
 20
9.944811023622048
 30
0.0
 10
-16.42042913385827
 20
9.944811023622048
 30
0.0
 10
-16.42042913385827
 20
9.944811023622048
 30
0.0
 10
-16.42214960629921
 20
9.933944881889763
 30
0.0
 10
-16.42214960629921
 20
9.933944881889763
 30
0.0
 10
-16.42214960629921
 20
9.933944881889763
 30
0.0
 10
-16.42214960629921
 20
9.933944881889763
 30
0.0
 10
-16.42731496062992
 20
9.927377952755906
 30
0.0
 10
-16.42731496062992
 20
9.927377952755906
 30
0.0
 10
-16.42731496062992
 20
9.927377952755906
 30
0.0
 10
-16.42731496062992
 20
9.927377952755906
 30
0.0
 10
-16.43215748031496
 20
9.927055118110236
 30
0.0
 10
-16.43215748031496
 20
9.927055118110236
 30
0.0
 10
-16.43215748031496
 20
9.927055118110236
 30
0.0
 10
-16.43215748031496
 20
9.927055118110236
 30
0.0
 10
-16.43753543307087
 20
9.935988188976378
 30
0.0
 10
-16.43753543307087
 20
9.935988188976378
 30
0.0
 10
-16.43753543307087
 20
9.935988188976378
 30
0.0
 10
-16.43753543307087
 20
9.935988188976378
 30
0.0
 10
-16.43140157480315
 20
9.9433031496063
 30
0.0
 10
-16.43140157480315
 20
9.9433031496063
 30
0.0
 10
-16.43140157480315
 20
9.9433031496063
 30
0.0
 10
-16.43140157480315
 20
9.9433031496063
 30
0.0
 10
-16.42591338582677
 20
9.949220472440945
 30
0.0
 10
-16.42591338582677
 20
9.949220472440945
 30
0.0
 10
-16.42591338582677
 20
9.949220472440945
 30
0.0
 10
-16.42591338582677
 20
9.949220472440945
 30
0.0
 10
-16.42720866141732
 20
9.951267716535433
 30
0.0
 10
-16.42720866141732
 20
9.951267716535433
 30
0.0
  0
SPLINE
  5
8D
330
1F
100
AcDbEntity
  8
Layer 1
 62
     7
370
     9
100
AcDbSpline
210
0.0
220
0.0
230
1.0
 70
    11
 71
     3
 72
    32
 73
    28
 74
     0
 42
0.0000000001
 43
0.0000000001
 40
0.0
 40
0.0
 40
0.0
 40
0.0
 40
0.1428571428571428
 40
0.1428571428571428
 40
0.1428571428571428
 40
0.1428571428571428
 40
0.2857142857142857
 40
0.2857142857142857
 40
0.2857142857142857
 40
0.2857142857142857
 40
0.4285714285714285
 40
0.4285714285714285
 40
0.4285714285714285
 40
0.4285714285714285
 40
0.5714285714285714
 40
0.5714285714285714
 40
0.5714285714285714
 40
0.5714285714285714
 40
0.7142857142857142
 40
0.7142857142857142
 40
0.7142857142857142
 40
0.7142857142857142
 40
0.857142857142857
 40
0.857142857142857
 40
0.857142857142857
 40
0.857142857142857
 40
1.0
 40
1.0
 40
1.0
 40
1.0
 10
-16.46939763779528
 20
9.938421259842519
 30
0.0
 10
-16.46939763779528
 20
9.938421259842519
 30
0.0
 10
-16.47808267716535
 20
9.936362204724409
 30
0.0
 10
-16.47808267716535
 20
9.936362204724409
 30
0.0
 10
-16.47808267716535
 20
9.936362204724409
 30
0.0
 10
-16.47808267716535
 20
9.936362204724409
 30
0.0
 10
-16.48274015748031
 20
9.931535433070867
 30
0.0
 10
-16.48274015748031
 20
9.931535433070867
 30
0.0
 10
-16.48274015748031
 20
9.931535433070867
 30
0.0
 10
-16.48274015748031
 20
9.931535433070867
 30
0.0
 10
-16.48381496062992
 20
9.923464566929134
 30
0.0
 10
-16.48381496062992
 20
9.923464566929134
 30
0.0
 10
-16.48381496062992
 20
9.923464566929134
 30
0.0
 10
-16.48381496062992
 20
9.923464566929134
 30
0.0
 10
-16.47746850393701
 20
9.926692913385827
 30
0.0
 10
-16.47746850393701
 20
9.926692913385827
 30
0.0
 10
-16.47746850393701
 20
9.926692913385827
 30
0.0
 10
-16.47746850393701
 20
9.926692913385827
 30
0.0
 10
-16.46939763779528
 20
9.934976377952756
 30
0.0
 10
-16.46939763779528
 20
9.934976377952756
 30
0.0
 10
-16.46939763779528
 20
9.934976377952756
 30
0.0
 10
-16.46939763779528
 20
9.934976377952756
 30
0.0
 10
-16.46832283464567
 20
9.937988188976378
 30
0.0
 10
-16.46832283464567
 20
9.937988188976378
 30
0.0
 10
-16.46832283464567
 20
9.937988188976378
 30
0.0
 10
-16.46832283464567
 20
9.937988188976378
 30
0.0
 10
-16.46939763779528
 20
9.938421259842519
 30
0.0
 10
-16.46939763779528
 20
9.938421259842519
 30
0.0
  0
SPLINE
  5
8E
330
1F
100
AcDbEntity
  8
Layer 1
 62
     7
370
     9
100
AcDbSpline
210
0.0
220
0.0
230
1.0
 70
    11
 71
     3
 72
    32
 73
    28
 74
     0
 42
0.0000000001
 43
0.0000000001
 40
0.0
 40
0.0
 40
0.0
 40
0.0
 40
0.1428571428571428
 40
0.1428571428571428
 40
0.1428571428571428
 40
0.1428571428571428
 40
0.2857142857142857
 40
0.2857142857142857
 40
0.2857142857142857
 40
0.2857142857142857
 40
0.4285714285714285
 40
0.4285714285714285
 40
0.4285714285714285
 40
0.4285714285714285
 40
0.5714285714285714
 40
0.5714285714285714
 40
0.5714285714285714
 40
0.5714285714285714
 40
0.7142857142857142
 40
0.7142857142857142
 40
0.7142857142857142
 40
0.7142857142857142
 40
0.857142857142857
 40
0.857142857142857
 40
0.857142857142857
 40
0.857142857142857
 40
1.0
 40
1.0
 40
1.0
 40
1.0
 10
-16.46766535433071
 20
9.922645669291338
 30
0.0
 10
-16.46766535433071
 20
9.922645669291338
 30
0.0
 10
-16.47046062992126
 20
9.916728346456694
 30
0.0
 10
-16.47046062992126
 20
9.916728346456694
 30
0.0
 10
-16.47046062992126
 20
9.916728346456694
 30
0.0
 10
-16.47046062992126
 20
9.916728346456694
 30
0.0
 10
-16.46131496062992
 20
9.91694094488189
 30
0.0
 10
-16.46131496062992
 20
9.91694094488189
 30
0.0
 10
-16.46131496062992
 20
9.91694094488189
 30
0.0
 10
-16.46131496062992
 20
9.91694094488189
 30
0.0
 10
-16.4581968503937
 20
9.928562992125984
 30
0.0
 10
-16.4581968503937
 20
9.928562992125984
 30
0.0
 10
-16.4581968503937
 20
9.928562992125984
 30
0.0
 10
-16.4581968503937
 20
9.928562992125984
 30
0.0
 10
-16.4635748031496
 20
9.934051181102362
 30
0.0
 10
-16.4635748031496
 20
9.934051181102362
 30
0.0
 10
-16.4635748031496
 20
9.934051181102362
 30
0.0
 10
-16.4635748031496
 20
9.934051181102362
 30
0.0
 10
-16.4669094488189
 20
9.933622047244095
 30
0.0
 10
-16.4669094488189
 20
9.933622047244095
 30
0.0
 10
-16.4669094488189
 20
9.933622047244095
 30
0.0
 10
-16.4669094488189
 20
9.933622047244095
 30
0.0
 10
-16.46820078740157
 20
9.932003937007874
 30
0.0
 10
-16.46820078740157
 20
9.932003937007874
 30
0.0
 10
-16.46820078740157
 20
9.932003937007874
 30
0.0
 10
-16.46820078740157
 20
9.932003937007874
 30
0.0
 10
-16.46766535433071
 20
9.922645669291338
 30
0.0
 10
-16.46766535433071
 20
9.922645669291338
 30
0.0
  0
SPLINE
  5
8F
330
1F
100
AcDbEntity
  8
Layer 1
 62
     7
370
     9
100
AcDbSpline
210
0.0
220
0.0
230
1.0
 70
    11
 71
     3
 72
    16
 73
    12
 74
     0
 42
0.0000000001
 43
0.0000000001
 40
0.0
 40
0.0
 40
0.0
 40
0.0
 40
0.3333333333333333
 40
0.3333333333333333
 40
0.3333333333333333
 40
0.3333333333333333
 40
0.6666666666666666
 40
0.6666666666666666
 40
0.6666666666666666
 40
0.6666666666666666
 40
1.0
 40
1.0
 40
1.0
 40
1.0
 10
-16.43483858267717
 20
9.934125984251969
 30
0.0
 10
-16.43379921259843
 20
9.931452755905513
 30
0.0
 10
-16.43194094488189
 20
9.929594488188977
 30
0.0
 10
-16.42926771653543
 20
9.928555118110236
 30
0.0
 10
-16.42926771653543
 20
9.928555118110236
 30
0.0
 10
-16.42686614173228
 20
9.932346456692914
 30
0.0
 10
-16.42026377952756
 20
9.931933070866142
 30
0.0
 10
-16.42183858267716
 20
9.939700787401575
 30
0.0
 10
-16.42183858267716
 20
9.939700787401575
 30
0.0
 10
-16.42795669291339
 20
9.939629921259842
 30
0.0
 10
-16.43498031496063
 20
9.94046062992126
 30
0.0
 10
-16.43483858267717
 20
9.934125984251969
 30
0.0
  0
SPLINE
  5
90
330
1F
100
AcDbEntity
  8
Layer 1
 62
     7
370
     9
100
AcDbSpline
210
0.0
220
0.0
230
1.0
 70
    11
 71
     3
 72
    28
 73
    24
 74
     0
 42
0.0000000001
 43
0.0000000001
 40
0.0
 40
0.0
 40
0.0
 40
0.0
 40
0.1666666666666667
 40
0.1666666666666667
 40
0.1666666666666667
 40
0.1666666666666667
 40
0.3333333333333333
 40
0.3333333333333333
 40
0.3333333333333333
 40
0.3333333333333333
 40
0.5
 40
0.5
 40
0.5
 40
0.5
 40
0.6666666666666666
 40
0.6666666666666666
 40
0.6666666666666666
 40
0.6666666666666666
 40
0.8333333333333333
 40
0.8333333333333333
 40
0.8333333333333333
 40
0.8333333333333333
 40
1.0
 40
1.0
 40
1.0
 40
1.0
 10
-16.4404094488189
 20
9.922984251968504
 30
0.0
 10
-16.43172834645669
 20
9.912429133858268
 30
0.0
 10
-16.41352755905512
 20
9.919200787401575
 30
0.0
 10
-16.41069291338583
 20
9.930413385826771
 30
0.0
 10
-16.41069291338583
 20
9.930413385826771
 30
0.0
 10
-16.41514173228347
 20
9.932771653543307
 30
0.0
 10
-16.41004330708661
 20
9.944685039370079
 30
0.0
 10
-16.41812204724409
 20
9.943413385826771
 30
0.0
 10
-16.41812204724409
 20
9.943413385826771
 30
0.0
 10
-16.41585433070866
 20
9.92938188976378
 30
0.0
 10
-16.42256692913386
 20
9.924330708661417
 30
0.0
 10
-16.43298031496063
 20
9.922980314960629
 30
0.0
 10
-16.43298031496063
 20
9.922980314960629
 30
0.0
 10
-16.43559448818898
 20
9.92655905511811
 30
0.0
 10
-16.43788976377953
 20
9.930456692913387
 30
0.0
 10
-16.43855511811024
 20
9.935984251968504
 30
0.0
 10
-16.43855511811024
 20
9.935984251968504
 30
0.0
 10
-16.43695275590551
 20
9.942437007874016
 30
0.0
 10
-16.43083464566929
 20
9.94436220472441
 30
0.0
 10
-16.4274094488189
 20
9.948988188976378
 30
0.0
 10
-16.4274094488189
 20
9.948988188976378
 30
0.0
 10
-16.44143700787401
 20
9.95915748031496
 30
0.0
 10
-16.44316141732283
 20
9.932370078740158
 30
0.0
 10
-16.4404094488189
 20
9.922984251968504
 30
0.0
  0
SPLINE
  5
91
330
1F
100
AcDbEntity
  8
Layer 1
 62
     7
370
     9
100
AcDbSpline
210
0.0
220
0.0
230
1.0
 70
    11
 71
     3
 72
    24
 73
    20
 74
     0
 42
0.0000000001
 43
0.0000000001
 40
0.0
 40
0.0
 40
0.0
 40
0.0
 40
0.2
 40
0.2
 40
0.2
 40
0.2
 40
0.4
 40
0.4
 40
0.4
 40
0.4
 40
0.6000000000000001
 40
0.6000000000000001
 40
0.6000000000000001
 40
0.6000000000000001
 40
0.8
 40
0.8
 40
0.8
 40
0.8
 40
1.0
 40
1.0
 40
1.0
 40
1.0
 10
-16.40140551181102
 20
9.958275590551182
 30
0.0
 10
-16.41047637795275
 20
9.95805905511811
 30
0.0
 10
-16.42098031496063
 20
9.959275590551181
 30
0.0
 10
-16.4274094488189
 20
9.956417322834646
 30
0.0
 10
-16.4274094488189
 20
9.956417322834646
 30
0.0
 10
-16.41447244094488
 20
9.950779527559055
 30
0.0
 10
-16.4056968503937
 20
9.940976377952756
 30
0.0
 10
-16.40697637795276
 20
9.921125984251969
 30
0.0
 10
-16.40697637795276
 20
9.921125984251969
 30
0.0
 10
-16.42688188976378
 20
9.893598425196851
 30
0.0
 10
-16.46078346456693
 20
9.92732283464567
 30
0.0
 10
-16.44041338582677
 20
9.95455905511811
 30
0.0
 10
-16.44041338582677
 20
9.95455905511811
 30
0.0
 10
-16.45335433070866
 20
9.955444881889763
 30
0.0
 10
-16.47692913385827
 20
9.945566929133859
 30
0.0
 10
-16.49427559055118
 20
9.947129921259842
 30
0.0
 10
-16.49427559055118
 20
9.947129921259842
 30
0.0
 10
-16.46906692913386
 20
9.95418503937008
 30
0.0
 10
-16.42921653543307
 20
9.966181102362205
 30
0.0
 10
-16.40140551181102
 20
9.958275590551182
 30
0.0
  0
SPLINE
  5
92
330
1F
100
AcDbEntity
  8
Layer 1
 62
     7
370
     9
100
AcDbSpline
210
0.0
220
0.0
230
1.0
 70
    11
 71
     3
 72
    12
 73
     8
 74
     0
 42
0.0000000001
 43
0.0000000001
 40
0.0
 40
0.0
 40
0.0
 40
0.0
 40
0.5
 40
0.5
 40
0.5
 40
0.5
 40
1.0
 40
1.0
 40
1.0
 40
1.0
 10
-16.47653937007874
 20
9.921125984251969
 30
0.0
 10
-16.47072440944882
 20
9.92026377952756
 30
0.0
 10
-16.46824803149606
 20
9.922740157480314
 30
0.0
 10
-16.46911023622047
 20
9.928555118110236
 30
0.0
 10
-16.46911023622047
 20
9.928555118110236
 30
0.0
 10
-16.47492519685039
 20
9.929417322834645
 30
0.0
 10
-16.47740157480315
 20
9.92694094488189
 30
0.0
 10
-16.47653937007874
 20
9.921125984251969
 30
0.0
  0
SPLINE
  5
93
330
1F
100
AcDbEntity
  8
Layer 1
 62
     7
370
     9
100
AcDbSpline
210
0.0
220
0.0
230
1.0
 70
    11
 71
     3
 72
    16
 73
    12
 74
     0
 42
0.0000000001
 43
0.0000000001
 40
0.0
 40
0.0
 40
0.0
 40
0.0
 40
0.3333333333333333
 40
0.3333333333333333
 40
0.3333333333333333
 40
0.3333333333333333
 40
0.6666666666666666
 40
0.6666666666666666
 40
0.6666666666666666
 40
0.6666666666666666
 40
1.0
 40
1.0
 40
1.0
 40
1.0
 10
-16.46911023622047
 20
9.917409448818898
 30
0.0
 10
-16.4617874015748
 20
9.916279527559055
 30
0.0
 10
-16.46088188976378
 20
9.921566929133858
 30
0.0
 10
-16.45982283464567
 20
9.9266968503937
 30
0.0
 10
-16.45982283464567
 20
9.9266968503937
 30
0.0
 10
-16.46041338582677
 20
9.928846456692913
 30
0.0
 10
-16.46557086614173
 20
9.935444881889763
 30
0.0
 10
-16.46725196850394
 20
9.930413385826771
 30
0.0
 10
-16.46725196850394
 20
9.930413385826771
 30
0.0
 10
-16.46213779527559
 20
9.927535433070867
 30
0.0
 10
-16.46707086614173
 20
9.91926377952756
 30
0.0
 10
-16.46911023622047
 20
9.917409448818898
 30
0.0
  0
SPLINE
  5
94
330
1F
100
AcDbEntity
  8
Layer 1
 62
     7
370
     9
100
AcDbSpline
210
0.0
220
0.0
230
1.0
 70
    11
 71
     3
 72
    12
 73
     8
 74
     0
 42
0.0000000001
 43
0.0000000001
 40
0.0
 40
0.0
 40
0.0
 40
0.0
 40
0.5
 40
0.5
 40
0.5
 40
0.5
 40
1.0
 40
1.0
 40
1.0
 40
1.0
 10
-16.48211023622047
 20
9.924838582677165
 30
0.0
 10
-16.47604724409449
 20
9.927444881889764
 30
0.0
 10
-16.47455511811023
 20
9.934622047244094
 30
0.0
 10
-16.46911023622047
 20
9.93784251968504
 30
0.0
 10
-16.46911023622047
 20
9.93784251968504
 30
0.0
 10
-16.47723622047244
 20
9.937303149606299
 30
0.0
 10
-16.4831968503937
 20
9.934594488188976
 30
0.0
 10
-16.48211023622047
 20
9.924838582677165
 30
0.0
  0
SPLINE
  5
95
330
1F
100
AcDbEntity
  8
Layer 1
 62
     7
370
     9
100
AcDbSpline
210
0.0
220
0.0
230
1.0
 70
    11
 71
     3
 72
    12
 73
     8
 74
     0
 42
0.0000000001
 43
0.0000000001
 40
0.0
 40
0.0
 40
0.0
 40
0.0
 40
0.5
 40
0.5
 40
0.5
 40
0.5
 40
1.0
 40
1.0
 40
1.0
 40
1.0
 10
-16.45424803149606
 20
9.917409448818898
 30
0.0
 10
-16.46084251968504
 20
9.914098425196851
 30
0.0
 10
-16.46522440944882
 20
9.908574803149607
 30
0.0
 10
-16.47653937007874
 20
9.90998031496063
 30
0.0
 10
-16.47653937007874
 20
9.90998031496063
 30
0.0
 10
-16.50567322834646
 20
9.934649606299212
 30
0.0
 10
-16.4539094488189
 20
9.957271653543307
 30
0.0
 10
-16.45424803149606
 20
9.917409448818898
 30
0.0
  0
SPLINE
  5
96
330
1F
100
AcDbEntity
  8
Layer 1
 62
     7
370
     9
100
AcDbSpline
210
0.0
220
0.0
230
1.0
 70
    11
 71
     3
 72
    24
 73
    20
 74
     0
 42
0.0000000001
 43
0.0000000001
 40
0.0
 40
0.0
 40
0.0
 40
0.0
 40
0.2
 40
0.2
 40
0.2
 40
0.2
 40
0.4
 40
0.4
 40
0.4
 40
0.4
 40
0.6000000000000001
 40
0.6000000000000001
 40
0.6000000000000001
 40
0.6000000000000001
 40
0.8
 40
0.8
 40
0.8
 40
0.8
 40
1.0
 40
1.0
 40
1.0
 40
1.0
 10
-16.37623622047244
 20
9.906267716535433
 30
0.0
 10
-16.37405905511811
 20
9.905964566929134
 30
0.0
 10
-16.37466929133858
 20
9.902877952755906
 30
0.0
 10
-16.37437795275591
 20
9.900692913385827
 30
0.0
 10
-16.37437795275591
 20
9.900692913385827
 30
0.0
 10
-16.41598818897638
 20
9.895720472440946
 30
0.0
 10
-16.45000787401575
 20
9.882964566929134
 30
0.0
 10
-16.48582677165354
 20
9.885834645669291
 30
0.0
 10
-16.48582677165354
 20
9.885834645669291
 30
0.0
 10
-16.48001968503937
 20
9.895350393700788
 30
0.0
 10
-16.46647637795276
 20
9.890547244094488
 30
0.0
 10
-16.45796456692914
 20
9.891405511811024
 30
0.0
 10
-16.45796456692914
 20
9.891405511811024
 30
0.0
 10
-16.43224015748032
 20
9.894
 30
0.0
 10
-16.40637007874016
 20
9.903811023622048
 30
0.0
 10
-16.37995275590551
 20
9.904409448818898
 30
0.0
 10
-16.37995275590551
 20
9.904409448818898
 30
0.0
 10
-16.37779133858268
 20
9.904106299212598
 30
0.0
 10
-16.37664566929134
 20
9.904818897637796
 30
0.0
 10
-16.37623622047244
 20
9.906267716535433
 30
0.0
  0
SPLINE
  5
97
330
1F
100
AcDbEntity
  8
Layer 1
 62
     7
370
     9
100
AcDbSpline
210
0.0
220
0.0
230
1.0
 70
    11
 71
     3
 72
    12
 73
     8
 74
     0
 42
0.0000000001
 43
0.0000000001
 40
0.0
 40
0.0
 40
0.0
 40
0.0
 40
0.5
 40
0.5
 40
0.5
 40
0.5
 40
1.0
 40
1.0
 40
1.0
 40
1.0
 10
-16.53406692913386
 20
9.736204724409449
 30
0.0
 10
-16.54100393700788
 20
9.758220472440945
 30
0.0
 10
-16.53032283464567
 20
9.770433070866142
 30
0.0
 10
-16.51920866141732
 20
9.771496062992126
 30
0.0
 10
-16.51920866141732
 20
9.771496062992126
 30
0.0
 10
-16.47678346456693
 20
9.775547244094488
 30
0.0
 10
-16.50406299212598
 20
9.696874015748032
 30
0.0
 10
-16.53406692913386
 20
9.736204724409449
 30
0.0
  0
SPLINE
  5
98
330
1F
100
AcDbEntity
  8
Layer 1
 62
     7
370
     9
100
AcDbSpline
210
0.0
220
0.0
230
1.0
 70
    11
 71
     3
 72
    16
 73
    12
 74
     0
 42
0.0000000001
 43
0.0000000001
 40
0.0
 40
0.0
 40
0.0
 40
0.0
 40
0.3333333333333333
 40
0.3333333333333333
 40
0.3333333333333333
 40
0.3333333333333333
 40
0.6666666666666666
 40
0.6666666666666666
 40
0.6666666666666666
 40
0.6666666666666666
 40
1.0
 40
1.0
 40
1.0
 40
1.0
 10
-16.4319094488189
 20
9.764062992125984
 30
0.0
 10
-16.42953543307087
 20
9.752673228346456
 30
0.0
 10
-16.43427559055118
 20
9.738263779527559
 30
0.0
 10
-16.4411968503937
 20
9.730629921259842
 30
0.0
 10
-16.4411968503937
 20
9.730629921259842
 30
0.0
 10
-16.45529133858268
 20
9.729535433070867
 30
0.0
 10
-16.46600787401575
 20
9.73182283464567
 30
0.0
 10
-16.47277165354331
 20
9.73805905511811
 30
0.0
 10
-16.47277165354331
 20
9.73805905511811
 30
0.0
 10
-16.47644488188977
 20
9.766881889763779
 30
0.0
 10
-16.4520157480315
 20
9.779811023622047
 30
0.0
 10
-16.4319094488189
 20
9.764062992125984
 30
0.0
  0
SPLINE
  5
99
330
1F
100
AcDbEntity
  8
Layer 1
 62
     7
370
     9
100
AcDbSpline
210
0.0
220
0.0
230
1.0
 70
    11
 71
     3
 72
    12
 73
     8
 74
     0
 42
0.0000000001
 43
0.0000000001
 40
0.0
 40
0.0
 40
0.0
 40
0.0
 40
0.5
 40
0.5
 40
0.5
 40
0.5
 40
1.0
 40
1.0
 40
1.0
 40
1.0
 10
-16.36875590551181
 20
9.771496062992126
 30
0.0
 10
-16.3626062992126
 20
9.762055118110236
 30
0.0
 10
-16.36451968503937
 20
9.75344094488189
 30
0.0
 10
-16.36503937007874
 20
9.739917322834646
 30
0.0
 10
-16.36503937007874
 20
9.739917322834646
 30
0.0
 10
-16.39746062992126
 20
9.705251968503937
 30
0.0
 10
-16.4186811023622
 20
9.779728346456693
 30
0.0
 10
-16.36875590551181
 20
9.771496062992126
 30
0.0
  0
SPLINE
  5
9A
330
1F
100
AcDbEntity
  8
Layer 1
 62
     7
370
     9
100
AcDbSpline
210
0.0
220
0.0
230
1.0
 70
    11
 71
     3
 72
    20
 73
    16
 74
     0
 42
0.0000000001
 43
0.0000000001
 40
0.0
 40
0.0
 40
0.0
 40
0.0
 40
0.25
 40
0.25
 40
0.25
 40
0.25
 40
0.5
 40
0.5
 40
0.5
 40
0.5
 40
0.75
 40
0.75
 40
0.75
 40
0.75
 40
1.0
 40
1.0
 40
1.0
 40
1.0
 10
-16.56192913385827
 20
9.700909448818898
 30
0.0
 10
-16.56192913385827
 20
9.700909448818898
 30
0.0
 10
-16.56192913385827
 20
9.667476377952756
 30
0.0
 10
-16.56192913385827
 20
9.667476377952756
 30
0.0
 10
-16.56192913385827
 20
9.667476377952756
 30
0.0
 10
-16.56192913385827
 20
9.667476377952756
 30
0.0
 10
-16.35203937007874
 20
9.674905511811023
 30
0.0
 10
-16.35203937007874
 20
9.674905511811023
 30
0.0
 10
-16.35203937007874
 20
9.674905511811023
 30
0.0
 10
-16.35203937007874
 20
9.674905511811023
 30
0.0
 10
-16.35761023622047
 20
9.704625984251969
 30
0.0
 10
-16.35761023622047
 20
9.704625984251969
 30
0.0
 10
-16.35761023622047
 20
9.704625984251969
 30
0.0
 10
-16.35761023622047
 20
9.704625984251969
 30
0.0
 10
-16.56192913385827
 20
9.700909448818898
 30
0.0
 10
-16.56192913385827
 20
9.700909448818898
 30
0.0
  0
SPLINE
  5
9B
330
1F
100
AcDbEntity
  8
Layer 1
 62
     7
370
     9
100
AcDbSpline
210
0.0
220
0.0
230
1.0
 70
    11
 71
     3
 72
    16
 73
    12
 74
     0
 42
0.0000000001
 43
0.0000000001
 40
0.0
 40
0.0
 40
0.0
 40
0.0
 40
0.3333333333333333
 40
0.3333333333333333
 40
0.3333333333333333
 40
0.3333333333333333
 40
0.6666666666666666
 40
0.6666666666666666
 40
0.6666666666666666
 40
0.6666666666666666
 40
1.0
 40
1.0
 40
1.0
 40
1.0
 10
-16.51536614173228
 20
9.900251968503937
 30
0.0
 10
-16.51536614173228
 20
9.900251968503937
 30
0.0
 10
-16.51618503937008
 20
9.938094488188977
 30
0.0
 10
-16.51618503937008
 20
9.938094488188977
 30
0.0
 10
-16.51618503937008
 20
9.938094488188977
 30
0.0
 10
-16.52358267716535
 20
9.935637795275591
 30
0.0
 10
-16.52989763779528
 20
9.930082677165354
 30
0.0
 10
-16.53185826771654
 20
9.919877952755906
 30
0.0
 10
-16.53185826771654
 20
9.919877952755906
 30
0.0
 10
-16.53381889763779
 20
9.909669291338583
 30
0.0
 10
-16.52654724409449
 20
9.902570866141732
 30
0.0
 10
-16.51536614173228
 20
9.900251968503937
 30
0.0
  0
SPLINE
  5
9C
330
1F
100
AcDbEntity
  8
Layer 1
 62
     7
370
     9
100
AcDbSpline
210
0.0
220
0.0
230
1.0
 70
    11
 71
     3
 72
    16
 73
    12
 74
     0
 42
0.0000000001
 43
0.0000000001
 40
0.0
 40
0.0
 40
0.0
 40
0.0
 40
0.3333333333333333
 40
0.3333333333333333
 40
0.3333333333333333
 40
0.3333333333333333
 40
0.6666666666666666
 40
0.6666666666666666
 40
0.6666666666666666
 40
0.6666666666666666
 40
1.0
 40
1.0
 40
1.0
 40
1.0
 10
-16.35603937007874
 20
9.90321653543307
 30
0.0
 10
-16.35603937007874
 20
9.90321653543307
 30
0.0
 10
-16.35522440944882
 20
9.94105905511811
 30
0.0
 10
-16.35522440944882
 20
9.94105905511811
 30
0.0
 10
-16.35522440944882
 20
9.94105905511811
 30
0.0
 10
-16.34782677165354
 20
9.938606299212598
 30
0.0
 10
-16.34151181102362
 20
9.933047244094489
 30
0.0
 10
-16.33954724409449
 20
9.92284251968504
 30
0.0
 10
-16.33954724409449
 20
9.92284251968504
 30
0.0
 10
-16.33758661417323
 20
9.912637795275591
 30
0.0
 10
-16.34485826771654
 20
9.905535433070867
 30
0.0
 10
-16.35603937007874
 20
9.90321653543307
 30
0.0
  0
SPLINE
  5
9D
330
1F
100
AcDbEntity
  8
Layer 1
 62
     7
370
     9
100
AcDbSpline
210
0.0
220
0.0
230
1.0
 70
    11
 71
     3
 72
    16
 73
    12
 74
     0
 42
0.0000000001
 43
0.0000000001
 40
0.0
 40
0.0
 40
0.0
 40
0.0
 40
0.3333333333333333
 40
0.3333333333333333
 40
0.3333333333333333
 40
0.3333333333333333
 40
0.6666666666666666
 40
0.6666666666666666
 40
0.6666666666666666
 40
0.6666666666666666
 40
1.0
 40
1.0
 40
1.0
 40
1.0
 10
-16.64642913385827
 20
9.77582283464567
 30
0.0
 10
-16.64642913385827
 20
9.77582283464567
 30
0.0
 10
-16.62955905511811
 20
9.78836220472441
 30
0.0
 10
-16.62955905511811
 20
9.78836220472441
 30
0.0
 10
-16.62955905511811
 20
9.78836220472441
 30
0.0
 10
-16.62955905511811
 20
9.78836220472441
 30
0.0
 10
-16.66692519685039
 20
9.64623622047244
 30
0.0
 10
-16.66692519685039
 20
9.64623622047244
 30
0.0
 10
-16.66692519685039
 20
9.64623622047244
 30
0.0
 10
-16.66692519685039
 20
9.64623622047244
 30
0.0
 10
-16.64642913385827
 20
9.77582283464567
 30
0.0
 10
-16.64642913385827
 20
9.77582283464567
 30
0.0
  0
SPLINE
  5
9E
330
1F
100
AcDbEntity
  8
Layer 1
 62
     7
370
     9
100
AcDbSpline
210
0.0
220
0.0
230
1.0
 70
    11
 71
     3
 72
    16
 73
    12
 74
     0
 42
0.0000000001
 43
0.0000000001
 40
0.0
 40
0.0
 40
0.0
 40
0.0
 40
0.3333333333333333
 40
0.3333333333333333
 40
0.3333333333333333
 40
0.3333333333333333
 40
0.6666666666666666
 40
0.6666666666666666
 40
0.6666666666666666
 40
0.6666666666666666
 40
1.0
 40
1.0
 40
1.0
 40
1.0
 10
-16.27843700787401
 20
9.76025590551181
 30
0.0
 10
-16.27843700787401
 20
9.76025590551181
 30
0.0
 10
-16.29530708661417
 20
9.772795275590552
 30
0.0
 10
-16.29530708661417
 20
9.772795275590552
 30
0.0
 10
-16.29530708661417
 20
9.772795275590552
 30
0.0
 10
-16.29530708661417
 20
9.772795275590552
 30
0.0
 10
-16.27979133858268
 20
9.636909448818898
 30
0.0
 10
-16.27979133858268
 20
9.636909448818898
 30
0.0
 10
-16.27979133858268
 20
9.636909448818898
 30
0.0
 10
-16.27979133858268
 20
9.636909448818898
 30
0.0
 10
-16.27843700787401
 20
9.76025590551181
 30
0.0
 10
-16.27843700787401
 20
9.76025590551181
 30
0.0
  0
ELLIPSE
  5
9F
330
1F
100
AcDbEntity
  8
Layer 1
 62
     7
370
     9
100
AcDbEllipse
 10
-16.44676377952756
 20
9.392669291338583
 30
0.0
 11
0.0
 21
0.01872834645669291
 31
0.0
210
0.0
220
0.0
230
1.0
 40
0.8751313853268867
 41
0.0
 42
6.283185307179586
  0
ELLIPSE
  5
A0
330
1F
100
AcDbEntity
  8
Layer 1
 62
     7
370
     9
100
AcDbEllipse
 10
-16.59033070866142
 20
9.421673228346457
 30
0.0
 11
0.0
 21
0.01873228346456693
 31
0.0
210
0.0
220
0.0
230
1.0
 40
0.87494745691467
 41
0.0
 42
6.283185307179586
  0
SPLINE
  5
A1
330
1F
100
AcDbEntity
  8
Layer 1
 62
   250
370
     9
100
AcDbSpline
210
0.0
220
0.0
230
1.0
 70
    11
 71
     3
 72
    44
 73
    40
 74
     0
 42
0.0000000001
 43
0.0000000001
 40
0.0
 40
0.0
 40
0.0
 40
0.0
 40
0.1
 40
0.1
 40
0.1
 40
0.1
 40
0.2
 40
0.2
 40
0.2
 40
0.2
 40
0.3
 40
0.3
 40
0.3
 40
0.3
 40
0.4
 40
0.4
 40
0.4
 40
0.4
 40
0.5
 40
0.5
 40
0.5
 40
0.5
 40
0.6
 40
0.6
 40
0.6
 40
0.6
 40
0.7
 40
0.7
 40
0.7
 40
0.7
 40
0.7999999999999999
 40
0.7999999999999999
 40
0.7999999999999999
 40
0.7999999999999999
 40
0.8999999999999999
 40
0.8999999999999999
 40
0.8999999999999999
 40
0.8999999999999999
 40
1.0
 40
1.0
 40
1.0
 40
1.0
 10
-16.55284251968504
 20
9.524751968503937
 30
0.0
 10
-16.55284251968504
 20
9.524751968503937
 30
0.0
 10
-16.48040157480315
 20
9.513606299212599
 30
0.0
 10
-16.48040157480315
 20
9.513606299212599
 30
0.0
 10
-16.48040157480315
 20
9.513606299212599
 30
0.0
 10
-16.48040157480315
 20
9.513606299212599
 30
0.0
 10
-16.48411811023622
 20
9.431877952755906
 30
0.0
 10
-16.48411811023622
 20
9.431877952755906
 30
0.0
 10
-16.48411811023622
 20
9.431877952755906
 30
0.0
 10
-16.48411811023622
 20
9.431877952755906
 30
0.0
 10
-16.46925196850394
 20
9.422586614173229
 30
0.0
 10
-16.46925196850394
 20
9.422586614173229
 30
0.0
 10
-16.46925196850394
 20
9.422586614173229
 30
0.0
 10
-16.50320866141732
 20
9.39288188976378
 30
0.0
 10
-16.4968031496063
 20
9.36948031496063
 30
0.0
 10
-16.46277559055118
 20
9.350397637795275
 30
0.0
 10
-16.46277559055118
 20
9.350397637795275
 30
0.0
 10
-16.46277559055118
 20
9.350397637795275
 30
0.0
 10
-16.46385826771654
 20
9.329858267716535
 30
0.0
 10
-16.46385826771654
 20
9.329858267716535
 30
0.0
 10
-16.46385826771654
 20
9.329858267716535
 30
0.0
 10
-16.46385826771654
 20
9.329858267716535
 30
0.0
 10
-16.567
 20
9.329858267716535
 30
0.0
 10
-16.567
 20
9.329858267716535
 30
0.0
 10
-16.567
 20
9.329858267716535
 30
0.0
 10
-16.567
 20
9.329858267716535
 30
0.0
 10
-16.56755118110236
 20
9.377318897637796
 30
0.0
 10
-16.56755118110236
 20
9.377318897637796
 30
0.0
 10
-16.56755118110236
 20
9.377318897637796
 30
0.0
 10
-16.53774803149606
 20
9.392433070866142
 30
0.0
 10
-16.53596456692913
 20
9.415192913385827
 30
0.0
 10
-16.56212992125984
 20
9.446740157480315
 30
0.0
 10
-16.56212992125984
 20
9.446740157480315
 30
0.0
 10
-16.56212992125984
 20
9.446740157480315
 30
0.0
 10
-16.54541338582677
 20
9.450452755905511
 30
0.0
 10
-16.54541338582677
 20
9.450452755905511
 30
0.0
 10
-16.54541338582677
 20
9.450452755905511
 30
0.0
 10
-16.54541338582677
 20
9.450452755905511
 30
0.0
 10
-16.55284251968504
 20
9.524751968503937
 30
0.0
 10
-16.55284251968504
 20
9.524751968503937
 30
0.0
  0
SPLINE
  5
A2
330
1F
100
AcDbEntity
  8
Layer 1
 62
   250
370
     9
100
AcDbSpline
210
0.0
220
0.0
230
1.0
 70
    11
 71
     3
 72
    20
 73
    16
 74
     0
 42
0.0000000001
 43
0.0000000001
 40
0.0
 40
0.0
 40
0.0
 40
0.0
 40
0.25
 40
0.25
 40
0.25
 40
0.25
 40
0.5
 40
0.5
 40
0.5
 40
0.5
 40
0.75
 40
0.75
 40
0.75
 40
0.75
 40
1.0
 40
1.0
 40
1.0
 40
1.0
 10
-16.42058661417323
 20
10.01724409448819
 30
0.0
 10
-16.42058661417323
 20
10.01724409448819
 30
0.0
 10
-16.38135826771654
 20
10.01724409448819
 30
0.0
 10
-16.38135826771654
 20
10.01724409448819
 30
0.0
 10
-16.38135826771654
 20
10.01724409448819
 30
0.0
 10
-16.38135826771654
 20
10.01724409448819
 30
0.0
 10
-16.38705118110236
 20
9.993523622047244
 30
0.0
 10
-16.38705118110236
 20
9.993523622047244
 30
0.0
 10
-16.38705118110236
 20
9.993523622047244
 30
0.0
 10
-16.38705118110236
 20
9.993523622047244
 30
0.0
 10
-16.41824015748032
 20
9.994602362204724
 30
0.0
 10
-16.41824015748032
 20
9.994602362204724
 30
0.0
 10
-16.41824015748032
 20
9.994602362204724
 30
0.0
 10
-16.41824015748032
 20
9.994602362204724
 30
0.0
 10
-16.42058661417323
 20
10.01724409448819
 30
0.0
 10
-16.42058661417323
 20
10.01724409448819
 30
0.0
  0
SPLINE
  5
A3
330
1F
100
AcDbEntity
  8
Layer 1
  6
New Line22
 62
     7
370
     9
100
AcDbSpline
210
0.0
220
0.0
230
1.0
 70
    11
 71
     3
 72
    48
 73
    44
 74
     0
 42
0.0000000001
 43
0.0000000001
 40
0.0
 40
0.0
 40
0.0
 40
0.0
 40
0.0909090909090909
 40
0.0909090909090909
 40
0.0909090909090909
 40
0.0909090909090909
 40
0.1818181818181818
 40
0.1818181818181818
 40
0.1818181818181818
 40
0.1818181818181818
 40
0.2727272727272727
 40
0.2727272727272727
 40
0.2727272727272727
 40
0.2727272727272727
 40
0.3636363636363636
 40
0.3636363636363636
 40
0.3636363636363636
 40
0.3636363636363636
 40
0.4545454545454546
 40
0.4545454545454546
 40
0.4545454545454546
 40
0.4545454545454546
 40
0.5454545454545455
 40
0.5454545454545455
 40
0.5454545454545455
 40
0.5454545454545455
 40
0.6363636363636365
 40
0.6363636363636365
 40
0.6363636363636365
 40
0.6363636363636365
 40
0.7272727272727274
 40
0.7272727272727274
 40
0.7272727272727274
 40
0.7272727272727274
 40
0.8181818181818183
 40
0.8181818181818183
 40
0.8181818181818183
 40
0.8181818181818183
 40
0.9090909090909093
 40
0.9090909090909093
 40
0.9090909090909093
 40
0.9090909090909093
 40
1.0
 40
1.0
 40
1.0
 40
1.0
 10
-17.64223228346457
 20
11.55903543307087
 30
0.0
 10
-17.64223228346457
 20
11.55903543307087
 30
0.0
 10
-17.58238188976378
 20
11.55903543307087
 30
0.0
 10
-17.58238188976378
 20
11.55903543307087
 30
0.0
 10
-17.58238188976378
 20
11.55903543307087
 30
0.0
 10
-17.58238188976378
 20
11.55903543307087
 30
0.0
 10
-17.50091338582677
 20
11.61349212598425
 30
0.0
 10
-17.50091338582677
 20
11.61349212598425
 30
0.0
 10
-17.50091338582677
 20
11.61349212598425
 30
0.0
 10
-17.50091338582677
 20
11.61349212598425
 30
0.0
 10
-17.50091338582677
 20
11.59075590551181
 30
0.0
 10
-17.50091338582677
 20
11.59075590551181
 30
0.0
 10
-17.50091338582677
 20
11.59075590551181
 30
0.0
 10
-17.50091338582677
 20
11.59075590551181
 30
0.0
 10
-17.54352362204724
 20
11.56288582677165
 30
0.0
 10
-17.54352362204724
 20
11.56288582677165
 30
0.0
 10
-17.54352362204724
 20
11.56288582677165
 30
0.0
 10
-17.5514842519685
 20
11.55775196850394
 30
0.0
 10
-17.55944881889764
 20
11.55298031496063
 30
0.0
 10
-17.56744094488189
 20
11.54853937007874
 30
0.0
 10
-17.56744094488189
 20
11.54853937007874
 30
0.0
 10
-17.56003937007874
 20
11.54429527559055
 30
0.0
 10
-17.55171653543307
 20
11.53916141732283
 30
0.0
 10
-17.54246850393701
 20
11.5331062992126
 30
0.0
 10
-17.54246850393701
 20
11.5331062992126
 30
0.0
 10
-17.54246850393701
 20
11.5331062992126
 30
0.0
 10
-17.50091338582677
 20
11.50573228346457
 30
0.0
 10
-17.50091338582677
 20
11.50573228346457
 30
0.0
 10
-17.50091338582677
 20
11.50573228346457
 30
0.0
 10
-17.50091338582677
 20
11.50573228346457
 30
0.0
 10
-17.50091338582677
 20
11.48394881889764
 30
0.0
 10
-17.50091338582677
 20
11.48394881889764
 30
0.0
 10
-17.50091338582677
 20
11.48394881889764
 30
0.0
 10
-17.50091338582677
 20
11.48394881889764
 30
0.0
 10
-17.58238188976378
 20
11.54034645669291
 30
0.0
 10
-17.58238188976378
 20
11.54034645669291
 30
0.0
 10
-17.58238188976378
 20
11.54034645669291
 30
0.0
 10
-17.58238188976378
 20
11.54034645669291
 30
0.0
 10
-17.64223228346457
 20
11.54034645669291
 30
0.0
 10
-17.64223228346457
 20
11.54034645669291
 30
0.0
 10
-17.64223228346457
 20
11.54034645669291
 30
0.0
 10
-17.64223228346457
 20
11.54034645669291
 30
0.0
 10
-17.64223228346457
 20
11.55903543307087
 30
0.0
 10
-17.64223228346457
 20
11.55903543307087
 30
0.0
  0
SPLINE
  5
A5
330
1F
100
AcDbEntity
  8
Layer 1
  6
New Line23
 62
     7
370
     9
100
AcDbSpline
210
0.0
220
0.0
230
1.0
 70
    11
 71
     3
 72
    64
 73
    60
 74
     0
 42
0.0000000001
 43
0.0000000001
 40
0.0
 40
0.0
 40
0.0
 40
0.0
 40
0.0666666666666667
 40
0.0666666666666667
 40
0.0666666666666667
 40
0.0666666666666667
 40
0.1333333333333333
 40
0.1333333333333333
 40
0.1333333333333333
 40
0.1333333333333333
 40
0.2
 40
0.2
 40
0.2
 40
0.2
 40
0.2666666666666667
 40
0.2666666666666667
 40
0.2666666666666667
 40
0.2666666666666667
 40
0.3333333333333333
 40
0.3333333333333333
 40
0.3333333333333333
 40
0.3333333333333333
 40
0.4
 40
0.4
 40
0.4
 40
0.4
 40
0.4666666666666666
 40
0.4666666666666666
 40
0.4666666666666666
 40
0.4666666666666666
 40
0.5333333333333333
 40
0.5333333333333333
 40
0.5333333333333333
 40
0.5333333333333333
 40
0.6
 40
0.6
 40
0.6
 40
0.6
 40
0.6666666666666666
 40
0.6666666666666666
 40
0.6666666666666666
 40
0.6666666666666666
 40
0.7333333333333333
 40
0.7333333333333333
 40
0.7333333333333333
 40
0.7333333333333333
 40
0.7999999999999999
 40
0.7999999999999999
 40
0.7999999999999999
 40
0.7999999999999999
 40
0.8666666666666666
 40
0.8666666666666666
 40
0.8666666666666666
 40
0.8666666666666666
 40
0.9333333333333332
 40
0.9333333333333332
 40
0.9333333333333332
 40
0.9333333333333332
 40
1.0
 40
1.0
 40
1.0
 40
1.0
 10
-17.60926377952756
 20
11.41744881889764
 30
0.0
 10
-17.60926377952756
 20
11.41744881889764
 30
0.0
 10
-17.61146850393701
 20
11.3995157480315
 30
0.0
 10
-17.61146850393701
 20
11.3995157480315
 30
0.0
 10
-17.61146850393701
 20
11.3995157480315
 30
0.0
 10
-17.62196456692913
 20
11.40234645669291
 30
0.0
 10
-17.6300905511811
 20
11.40757874015748
 30
0.0
 10
-17.63588188976378
 20
11.4152125984252
 30
0.0
 10
-17.63588188976378
 20
11.4152125984252
 30
0.0
 10
-17.64164173228346
 20
11.42287795275591
 30
0.0
 10
-17.64453543307087
 20
11.43264960629921
 30
0.0
 10
-17.64453543307087
 20
11.44453149606299
 30
0.0
 10
-17.64453543307087
 20
11.44453149606299
 30
0.0
 10
-17.64453543307087
 20
11.4595
 30
0.0
 10
-17.63992913385827
 20
11.4713779527559
 30
0.0
 10
-17.63071653543307
 20
11.48012992125984
 30
0.0
 10
-17.63071653543307
 20
11.48012992125984
 30
0.0
 10
-17.62150393700787
 20
11.48891732283465
 30
0.0
 10
-17.60857086614173
 20
11.49329133858268
 30
0.0
 10
-17.59192125984252
 20
11.49329133858268
 30
0.0
 10
-17.59192125984252
 20
11.49329133858268
 30
0.0
 10
-17.57468110236221
 20
11.49329133858268
 30
0.0
 10
-17.56132283464567
 20
11.48885039370079
 30
0.0
 10
-17.55181496062992
 20
11.48
 30
0.0
 10
-17.55181496062992
 20
11.48
 30
0.0
 10
-17.5423031496063
 20
11.47111417322835
 30
0.0
 10
-17.53753149606299
 20
11.45963385826772
 30
0.0
 10
-17.53753149606299
 20
11.4454842519685
 30
0.0
 10
-17.53753149606299
 20
11.4454842519685
 30
0.0
 10
-17.53753149606299
 20
11.43179527559055
 30
0.0
 10
-17.54220472440945
 20
11.42061023622047
 30
0.0
 10
-17.55151574803149
 20
11.41195669291339
 30
0.0
 10
-17.55151574803149
 20
11.41195669291339
 30
0.0
 10
-17.56083070866142
 20
11.40326771653543
 30
0.0
 10
-17.57395669291338
 20
11.39892519685039
 30
0.0
 10
-17.59083858267716
 20
11.39892519685039
 30
0.0
 10
-17.59083858267716
 20
11.39892519685039
 30
0.0
 10
-17.59188976377953
 20
11.39892519685039
 30
0.0
 10
-17.59343700787402
 20
11.39895669291339
 30
0.0
 10
-17.59547637795276
 20
11.39902362204724
 30
0.0
 10
-17.59547637795276
 20
11.39902362204724
 30
0.0
 10
-17.59547637795276
 20
11.39902362204724
 30
0.0
 10
-17.59547637795276
 20
11.47536220472441
 30
0.0
 10
-17.59547637795276
 20
11.47536220472441
 30
0.0
 10
-17.59547637795276
 20
11.47536220472441
 30
0.0
 10
-17.60672834645669
 20
11.47473622047244
 30
0.0
 10
-17.61535039370079
 20
11.47154330708661
 30
0.0
 10
-17.62130708661417
 20
11.4658188976378
 30
0.0
 10
-17.62130708661417
 20
11.4658188976378
 30
0.0
 10
-17.62729527559055
 20
11.46009448818898
 30
0.0
 10
-17.6302874015748
 20
11.4529842519685
 30
0.0
 10
-17.6302874015748
 20
11.44442913385827
 30
0.0
 10
-17.6302874015748
 20
11.44442913385827
 30
0.0
 10
-17.6302874015748
 20
11.43807874015748
 30
0.0
 10
-17.62861023622047
 20
11.43264960629921
 30
0.0
 10
-17.62525590551181
 20
11.42814566929134
 30
0.0
 10
-17.62525590551181
 20
11.42814566929134
 30
0.0
 10
-17.62192913385827
 20
11.42363779527559
 30
0.0
 10
-17.61660236220472
 20
11.42008267716535
 30
0.0
 10
-17.60926377952756
 20
11.41744881889764
 30
0.0
  0
SPLINE
  5
A7
330
1F
100
AcDbEntity
  8
Layer 1
  6
New Line24
 62
     7
370
     9
100
AcDbSpline
210
0.0
220
0.0
230
1.0
 70
    11
 71
     3
 72
    24
 73
    20
 74
     0
 42
0.0000000001
 43
0.0000000001
 40
0.0
 40
0.0
 40
0.0
 40
0.0
 40
0.2
 40
0.2
 40
0.2
 40
0.2
 40
0.4
 40
0.4
 40
0.4
 40
0.4
 40
0.6000000000000001
 40
0.6000000000000001
 40
0.6000000000000001
 40
0.6000000000000001
 40
0.8
 40
0.8
 40
0.8
 40
0.8
 40
1.0
 40
1.0
 40
1.0
 40
1.0
 10
-17.5811968503937
 20
11.47440551181102
 30
0.0
 10
-17.5811968503937
 20
11.47440551181102
 30
0.0
 10
-17.5811968503937
 20
11.41725196850394
 30
0.0
 10
-17.5811968503937
 20
11.41725196850394
 30
0.0
 10
-17.5811968503937
 20
11.41725196850394
 30
0.0
 10
-17.57261023622047
 20
11.41800787401575
 30
0.0
 10
-17.56612598425197
 20
11.4202125984252
 30
0.0
 10
-17.56185039370079
 20
11.42379921259842
 30
0.0
 10
-17.56185039370079
 20
11.42379921259842
 30
0.0
 10
-17.55516929133858
 20
11.42932677165354
 30
0.0
 10
-17.55181496062992
 20
11.4365
 30
0.0
 10
-17.55181496062992
 20
11.4452874015748
 30
0.0
 10
-17.55181496062992
 20
11.4452874015748
 30
0.0
 10
-17.55181496062992
 20
11.45324803149606
 30
0.0
 10
-17.55448031496063
 20
11.45996062992126
 30
0.0
 10
-17.55980708661417
 20
11.46538976377953
 30
0.0
 10
-17.55980708661417
 20
11.46538976377953
 30
0.0
 10
-17.56513779527559
 20
11.47081889763779
 30
0.0
 10
-17.57227952755905
 20
11.47381496062992
 30
0.0
 10
-17.5811968503937
 20
11.47440551181102
 30
0.0
  0
SPLINE
  5
A9
330
1F
100
AcDbEntity
  8
Layer 1
  6
New Line25
 62
     7
370
     9
100
AcDbSpline
210
0.0
220
0.0
230
1.0
 70
    11
 71
     3
 72
    20
 73
    16
 74
     0
 42
0.0000000001
 43
0.0000000001
 40
0.0
 40
0.0
 40
0.0
 40
0.0
 40
0.25
 40
0.25
 40
0.25
 40
0.25
 40
0.5
 40
0.5
 40
0.5
 40
0.5
 40
0.75
 40
0.75
 40
0.75
 40
0.75
 40
1.0
 40
1.0
 40
1.0
 40
1.0
 10
-17.64223228346457
 20
11.37809842519685
 30
0.0
 10
-17.64223228346457
 20
11.37809842519685
 30
0.0
 10
-17.50091338582677
 20
11.37809842519685
 30
0.0
 10
-17.50091338582677
 20
11.37809842519685
 30
0.0
 10
-17.50091338582677
 20
11.37809842519685
 30
0.0
 10
-17.50091338582677
 20
11.37809842519685
 30
0.0
 10
-17.50091338582677
 20
11.36075590551181
 30
0.0
 10
-17.50091338582677
 20
11.36075590551181
 30
0.0
 10
-17.50091338582677
 20
11.36075590551181
 30
0.0
 10
-17.50091338582677
 20
11.36075590551181
 30
0.0
 10
-17.64223228346457
 20
11.36075590551181
 30
0.0
 10
-17.64223228346457
 20
11.36075590551181
 30
0.0
 10
-17.64223228346457
 20
11.36075590551181
 30
0.0
 10
-17.64223228346457
 20
11.36075590551181
 30
0.0
 10
-17.64223228346457
 20
11.37809842519685
 30
0.0
 10
-17.64223228346457
 20
11.37809842519685
 30
0.0
  0
SPLINE
  5
AB
330
1F
100
AcDbEntity
  8
Layer 1
  6
New Line26
 62
     7
370
     9
100
AcDbSpline
210
0.0
220
0.0
230
1.0
 70
    11
 71
     3
 72
    20
 73
    16
 74
     0
 42
0.0000000001
 43
0.0000000001
 40
0.0
 40
0.0
 40
0.0
 40
0.0
 40
0.25
 40
0.25
 40
0.25
 40
0.25
 40
0.5
 40
0.5
 40
0.5
 40
0.5
 40
0.75
 40
0.75
 40
0.75
 40
0.75
 40
1.0
 40
1.0
 40
1.0
 40
1.0
 10
-17.64223228346457
 20
11.33423622047244
 30
0.0
 10
-17.64223228346457
 20
11.33423622047244
 30
0.0
 10
-17.50091338582677
 20
11.33423622047244
 30
0.0
 10
-17.50091338582677
 20
11.33423622047244
 30
0.0
 10
-17.50091338582677
 20
11.33423622047244
 30
0.0
 10
-17.50091338582677
 20
11.33423622047244
 30
0.0
 10
-17.50091338582677
 20
11.3168937007874
 30
0.0
 10
-17.50091338582677
 20
11.3168937007874
 30
0.0
 10
-17.50091338582677
 20
11.3168937007874
 30
0.0
 10
-17.50091338582677
 20
11.3168937007874
 30
0.0
 10
-17.64223228346457
 20
11.3168937007874
 30
0.0
 10
-17.64223228346457
 20
11.3168937007874
 30
0.0
 10
-17.64223228346457
 20
11.3168937007874
 30
0.0
 10
-17.64223228346457
 20
11.3168937007874
 30
0.0
 10
-17.64223228346457
 20
11.33423622047244
 30
0.0
 10
-17.64223228346457
 20
11.33423622047244
 30
0.0
  0
SPLINE
  5
AD
330
1F
100
AcDbEntity
  8
Layer 1
  6
New Line27
 62
     7
370
     9
100
AcDbSpline
210
0.0
220
0.0
230
1.0
 70
    11
 71
     3
 72
    40
 73
    36
 74
     0
 42
0.0000000001
 43
0.0000000001
 40
0.0
 40
0.0
 40
0.0
 40
0.0
 40
0.1111111111111111
 40
0.1111111111111111
 40
0.1111111111111111
 40
0.1111111111111111
 40
0.2222222222222222
 40
0.2222222222222222
 40
0.2222222222222222
 40
0.2222222222222222
 40
0.3333333333333333
 40
0.3333333333333333
 40
0.3333333333333333
 40
0.3333333333333333
 40
0.4444444444444444
 40
0.4444444444444444
 40
0.4444444444444444
 40
0.4444444444444444
 40
0.5555555555555556
 40
0.5555555555555556
 40
0.5555555555555556
 40
0.5555555555555556
 40
0.6666666666666667
 40
0.6666666666666667
 40
0.6666666666666667
 40
0.6666666666666667
 40
0.7777777777777779
 40
0.7777777777777779
 40
0.7777777777777779
 40
0.7777777777777779
 40
0.8888888888888891
 40
0.8888888888888891
 40
0.8888888888888891
 40
0.8888888888888891
 40
1.0
 40
1.0
 40
1.0
 40
1.0
 10
-17.59103543307087
 20
11.29646062992126
 30
0.0
 10
-17.57208267716535
 20
11.29646062992126
 30
0.0
 10
-17.55803149606299
 20
11.2911968503937
 30
0.0
 10
-17.54891732283465
 20
11.28063385826772
 30
0.0
 10
-17.54891732283465
 20
11.28063385826772
 30
0.0
 10
-17.54135039370079
 20
11.27184645669291
 30
0.0
 10
-17.53753149606299
 20
11.2611220472441
 30
0.0
 10
-17.53753149606299
 20
11.24845275590551
 30
0.0
 10
-17.53753149606299
 20
11.24845275590551
 30
0.0
 10
-17.53753149606299
 20
11.23437007874016
 30
0.0
 10
-17.54213779527559
 20
11.22285433070866
 30
0.0
 10
-17.55138582677165
 20
11.21393700787402
 30
0.0
 10
-17.55138582677165
 20
11.21393700787402
 30
0.0
 10
-17.56059842519685
 20
11.20498818897638
 30
0.0
 10
-17.57333070866142
 20
11.20054724409449
 30
0.0
 10
-17.58958661417323
 20
11.20054724409449
 30
0.0
 10
-17.58958661417323
 20
11.20054724409449
 30
0.0
 10
-17.60277952755905
 20
11.20054724409449
 30
0.0
 10
-17.61314566929134
 20
11.20251968503937
 30
0.0
 10
-17.62068110236221
 20
11.20646850393701
 30
0.0
 10
-17.62068110236221
 20
11.20646850393701
 30
0.0
 10
-17.62824803149606
 20
11.21041732283465
 30
0.0
 10
-17.6341062992126
 20
11.21617716535433
 30
0.0
 10
-17.63828346456693
 20
11.22370866141732
 30
0.0
 10
-17.63828346456693
 20
11.22370866141732
 30
0.0
 10
-17.64246456692914
 20
11.23127952755905
 30
0.0
 10
-17.64453543307087
 20
11.23950393700787
 30
0.0
 10
-17.64453543307087
 20
11.24845275590551
 30
0.0
 10
-17.64453543307087
 20
11.24845275590551
 30
0.0
 10
-17.64453543307087
 20
11.26276771653543
 30
0.0
 10
-17.63996062992126
 20
11.27435039370079
 30
0.0
 10
-17.63074803149606
 20
11.28320078740157
 30
0.0
 10
-17.63074803149606
 20
11.28320078740157
 30
0.0
 10
-17.62156692913386
 20
11.29205118110236
 30
0.0
 10
-17.60834251968504
 20
11.29646062992126
 30
0.0
 10
-17.59103543307087
 20
11.29646062992126
 30
0.0
  0
SPLINE
  5
AF
330
1F
100
AcDbEntity
  8
Layer 1
  6
New Line28
 62
     7
370
     9
100
AcDbSpline
210
0.0
220
0.0
230
1.0
 70
    11
 71
     3
 72
    36
 73
    32
 74
     0
 42
0.0000000001
 43
0.0000000001
 40
0.0
 40
0.0
 40
0.0
 40
0.0
 40
0.125
 40
0.125
 40
0.125
 40
0.125
 40
0.25
 40
0.25
 40
0.25
 40
0.25
 40
0.375
 40
0.375
 40
0.375
 40
0.375
 40
0.5
 40
0.5
 40
0.5
 40
0.5
 40
0.625
 40
0.625
 40
0.625
 40
0.625
 40
0.75
 40
0.75
 40
0.75
 40
0.75
 40
0.875
 40
0.875
 40
0.875
 40
0.875
 40
1.0
 40
1.0
 40
1.0
 40
1.0
 10
-17.59103543307087
 20
11.27862598425197
 30
0.0
 10
-17.60416141732284
 20
11.27862598425197
 30
0.0
 10
-17.61396850393701
 20
11.27576377952756
 30
0.0
 10
-17.6204842519685
 20
11.27003937007874
 30
0.0
 10
-17.6204842519685
 20
11.27003937007874
 30
0.0
 10
-17.62703149606299
 20
11.26431496062992
 30
0.0
 10
-17.6302874015748
 20
11.2571062992126
 30
0.0
 10
-17.6302874015748
 20
11.24845275590551
 30
0.0
 10
-17.6302874015748
 20
11.24845275590551
 30
0.0
 10
-17.6302874015748
 20
11.23983464566929
 30
0.0
 10
-17.62699606299213
 20
11.23266141732283
 30
0.0
 10
-17.62044881889764
 20
11.22693307086614
 30
0.0
 10
-17.62044881889764
 20
11.22693307086614
 30
0.0
 10
-17.61390157480315
 20
11.22124409448819
 30
0.0
 10
-17.60390157480315
 20
11.21838188976378
 30
0.0
 10
-17.59047637795275
 20
11.21838188976378
 30
0.0
 10
-17.59047637795275
 20
11.21838188976378
 30
0.0
 10
-17.57780708661417
 20
11.21838188976378
 30
0.0
 10
-17.56820078740158
 20
11.22124409448819
 30
0.0
 10
-17.56168503937008
 20
11.227
 30
0.0
 10
-17.56168503937008
 20
11.227
 30
0.0
 10
-17.55516929133858
 20
11.23275984251969
 30
0.0
 10
-17.55191338582677
 20
11.23989763779528
 30
0.0
 10
-17.55191338582677
 20
11.24845275590551
 30
0.0
 10
-17.55191338582677
 20
11.24845275590551
 30
0.0
 10
-17.55191338582677
 20
11.2571062992126
 30
0.0
 10
-17.55516929133858
 20
11.26431496062992
 30
0.0
 10
-17.56164960629921
 20
11.27003937007874
 30
0.0
 10
-17.56164960629921
 20
11.27003937007874
 30
0.0
 10
-17.56813385826772
 20
11.27576377952756
 30
0.0
 10
-17.57793700787402
 20
11.27862598425197
 30
0.0
 10
-17.59103543307087
 20
11.27862598425197
 30
0.0
  0
SPLINE
  5
B1
330
1F
100
AcDbEntity
  8
Layer 1
  6
New Line29
 62
     7
370
     9
100
AcDbSpline
210
0.0
220
0.0
230
1.0
 70
    11
 71
     3
 72
    76
 73
    72
 74
     0
 42
0.0000000001
 43
0.0000000001
 40
0.0
 40
0.0
 40
0.0
 40
0.0
 40
0.0555555555555556
 40
0.0555555555555556
 40
0.0555555555555556
 40
0.0555555555555556
 40
0.1111111111111111
 40
0.1111111111111111
 40
0.1111111111111111
 40
0.1111111111111111
 40
0.1666666666666667
 40
0.1666666666666667
 40
0.1666666666666667
 40
0.1666666666666667
 40
0.2222222222222222
 40
0.2222222222222222
 40
0.2222222222222222
 40
0.2222222222222222
 40
0.2777777777777778
 40
0.2777777777777778
 40
0.2777777777777778
 40
0.2777777777777778
 40
0.3333333333333334
 40
0.3333333333333334
 40
0.3333333333333334
 40
0.3333333333333334
 40
0.388888888888889
 40
0.388888888888889
 40
0.388888888888889
 40
0.388888888888889
 40
0.4444444444444445
 40
0.4444444444444445
 40
0.4444444444444445
 40
0.4444444444444445
 40
0.5000000000000001
 40
0.5000000000000001
 40
0.5000000000000001
 40
0.5000000000000001
 40
0.5555555555555557
 40
0.5555555555555557
 40
0.5555555555555557
 40
0.5555555555555557
 40
0.6111111111111113
 40
0.6111111111111113
 40
0.6111111111111113
 40
0.6111111111111113
 40
0.6666666666666669
 40
0.6666666666666669
 40
0.6666666666666669
 40
0.6666666666666669
 40
0.7222222222222224
 40
0.7222222222222224
 40
0.7222222222222224
 40
0.7222222222222224
 40
0.777777777777778
 40
0.777777777777778
 40
0.777777777777778
 40
0.777777777777778
 40
0.8333333333333336
 40
0.8333333333333336
 40
0.8333333333333336
 40
0.8333333333333336
 40
0.8888888888888892
 40
0.8888888888888892
 40
0.8888888888888892
 40
0.8888888888888892
 40
0.9444444444444448
 40
0.9444444444444448
 40
0.9444444444444448
 40
0.9444444444444448
 40
1.0
 40
1.0
 40
1.0
 40
1.0
 10
-17.64223228346457
 20
11.16129133858268
 30
0.0
 10
-17.64223228346457
 20
11.16129133858268
 30
0.0
 10
-17.53987007874016
 20
11.19261811023622
 30
0.0
 10
-17.53987007874016
 20
11.19261811023622
 30
0.0
 10
-17.53987007874016
 20
11.19261811023622
 30
0.0
 10
-17.53987007874016
 20
11.19261811023622
 30
0.0
 10
-17.53987007874016
 20
11.17468503937008
 30
0.0
 10
-17.53987007874016
 20
11.17468503937008
 30
0.0
 10
-17.53987007874016
 20
11.17468503937008
 30
0.0
 10
-17.53987007874016
 20
11.17468503937008
 30
0.0
 10
-17.59896456692913
 20
11.15839763779528
 30
0.0
 10
-17.59896456692913
 20
11.15839763779528
 30
0.0
 10
-17.59896456692913
 20
11.15839763779528
 30
0.0
 10
-17.59896456692913
 20
11.15839763779528
 30
0.0
 10
-17.62094488188976
 20
11.15234251968504
 30
0.0
 10
-17.62094488188976
 20
11.15234251968504
 30
0.0
 10
-17.62094488188976
 20
11.15234251968504
 30
0.0
 10
-17.61982677165354
 20
11.15207874015748
 30
0.0
 10
-17.61278346456693
 20
11.1503031496063
 30
0.0
 10
-17.5998188976378
 20
11.14704330708661
 30
0.0
 10
-17.5998188976378
 20
11.14704330708661
 30
0.0
 10
-17.5998188976378
 20
11.14704330708661
 30
0.0
 10
-17.53987007874016
 20
11.13075590551181
 30
0.0
 10
-17.53987007874016
 20
11.13075590551181
 30
0.0
 10
-17.53987007874016
 20
11.13075590551181
 30
0.0
 10
-17.53987007874016
 20
11.13075590551181
 30
0.0
 10
-17.53987007874016
 20
11.11292519685039
 30
0.0
 10
-17.53987007874016
 20
11.11292519685039
 30
0.0
 10
-17.53987007874016
 20
11.11292519685039
 30
0.0
 10
-17.53987007874016
 20
11.11292519685039
 30
0.0
 10
-17.59922834645669
 20
11.0975905511811
 30
0.0
 10
-17.59922834645669
 20
11.0975905511811
 30
0.0
 10
-17.59922834645669
 20
11.0975905511811
 30
0.0
 10
-17.59922834645669
 20
11.0975905511811
 30
0.0
 10
-17.6188031496063
 20
11.09245669291339
 30
0.0
 10
-17.6188031496063
 20
11.09245669291339
 30
0.0
 10
-17.6188031496063
 20
11.09245669291339
 30
0.0
 10
-17.6188031496063
 20
11.09245669291339
 30
0.0
 10
-17.59903149606299
 20
11.08660236220472
 30
0.0
 10
-17.59903149606299
 20
11.08660236220472
 30
0.0
 10
-17.59903149606299
 20
11.08660236220472
 30
0.0
 10
-17.59903149606299
 20
11.08660236220472
 30
0.0
 10
-17.53987007874016
 20
11.06906299212598
 30
0.0
 10
-17.53987007874016
 20
11.06906299212598
 30
0.0
 10
-17.53987007874016
 20
11.06906299212598
 30
0.0
 10
-17.53987007874016
 20
11.06906299212598
 30
0.0
 10
-17.53987007874016
 20
11.05218503937008
 30
0.0
 10
-17.53987007874016
 20
11.05218503937008
 30
0.0
 10
-17.53987007874016
 20
11.05218503937008
 30
0.0
 10
-17.53987007874016
 20
11.05218503937008
 30
0.0
 10
-17.64223228346457
 20
11.08420078740157
 30
0.0
 10
-17.64223228346457
 20
11.08420078740157
 30
0.0
 10
-17.64223228346457
 20
11.08420078740157
 30
0.0
 10
-17.64223228346457
 20
11.08420078740157
 30
0.0
 10
-17.64223228346457
 20
11.1021968503937
 30
0.0
 10
-17.64223228346457
 20
11.1021968503937
 30
0.0
 10
-17.64223228346457
 20
11.1021968503937
 30
0.0
 10
-17.64223228346457
 20
11.1021968503937
 30
0.0
 10
-17.58093307086614
 20
11.1184842519685
 30
0.0
 10
-17.58093307086614
 20
11.1184842519685
 30
0.0
 10
-17.58093307086614
 20
11.1184842519685
 30
0.0
 10
-17.58093307086614
 20
11.1184842519685
 30
0.0
 10
-17.56346062992126
 20
11.12246456692913
 30
0.0
 10
-17.56346062992126
 20
11.12246456692913
 30
0.0
 10
-17.56346062992126
 20
11.12246456692913
 30
0.0
 10
-17.56346062992126
 20
11.12246456692913
 30
0.0
 10
-17.64223228346457
 20
11.14316141732284
 30
0.0
 10
-17.64223228346457
 20
11.14316141732284
 30
0.0
 10
-17.64223228346457
 20
11.14316141732284
 30
0.0
 10
-17.64223228346457
 20
11.14316141732284
 30
0.0
 10
-17.64223228346457
 20
11.16129133858268
 30
0.0
 10
-17.64223228346457
 20
11.16129133858268
 30
0.0
  0
SPLINE
  5
B3
330
1F
100
AcDbEntity
  8
Layer 1
  6
New Line30
 62
     7
370
     9
100
AcDbSpline
210
0.0
220
0.0
230
1.0
 70
    11
 71
     3
 72
    60
 73
    56
 74
     0
 42
0.0000000001
 43
0.0000000001
 40
0.0
 40
0.0
 40
0.0
 40
0.0
 40
0.0714285714285714
 40
0.0714285714285714
 40
0.0714285714285714
 40
0.0714285714285714
 40
0.1428571428571428
 40
0.1428571428571428
 40
0.1428571428571428
 40
0.1428571428571428
 40
0.2142857142857143
 40
0.2142857142857143
 40
0.2142857142857143
 40
0.2142857142857143
 40
0.2857142857142857
 40
0.2857142857142857
 40
0.2857142857142857
 40
0.2857142857142857
 40
0.3571428571428571
 40
0.3571428571428571
 40
0.3571428571428571
 40
0.3571428571428571
 40
0.4285714285714285
 40
0.4285714285714285
 40
0.4285714285714285
 40
0.4285714285714285
 40
0.4999999999999999
 40
0.4999999999999999
 40
0.4999999999999999
 40
0.4999999999999999
 40
0.5714285714285713
 40
0.5714285714285713
 40
0.5714285714285713
 40
0.5714285714285713
 40
0.6428571428571427
 40
0.6428571428571427
 40
0.6428571428571427
 40
0.6428571428571427
 40
0.7142857142857141
 40
0.7142857142857141
 40
0.7142857142857141
 40
0.7142857142857141
 40
0.7857142857142855
 40
0.7857142857142855
 40
0.7857142857142855
 40
0.7857142857142855
 40
0.8571428571428569
 40
0.8571428571428569
 40
0.8571428571428569
 40
0.8571428571428569
 40
0.9285714285714283
 40
0.9285714285714283
 40
0.9285714285714283
 40
0.9285714285714283
 40
1.0
 40
1.0
 40
1.0
 40
1.0
 10
-17.64223228346457
 20
10.85963779527559
 30
0.0
 10
-17.64223228346457
 20
10.85963779527559
 30
0.0
 10
-17.50091338582677
 20
10.85963779527559
 30
0.0
 10
-17.50091338582677
 20
10.85963779527559
 30
0.0
 10
-17.50091338582677
 20
10.85963779527559
 30
0.0
 10
-17.50091338582677
 20
10.85963779527559
 30
0.0
 10
-17.50091338582677
 20
10.80659842519685
 30
0.0
 10
-17.50091338582677
 20
10.80659842519685
 30
0.0
 10
-17.50091338582677
 20
10.80659842519685
 30
0.0
 10
-17.50091338582677
 20
10.79580708661417
 30
0.0
 10
-17.50235826771653
 20
10.78714960629921
 30
0.0
 10
-17.50518897637795
 20
10.78063779527559
 30
0.0
 10
-17.50518897637795
 20
10.78063779527559
 30
0.0
 10
-17.50805118110236
 20
10.7740905511811
 30
0.0
 10
-17.51246062992126
 20
10.76898818897638
 30
0.0
 10
-17.51841732283465
 20
10.7653031496063
 30
0.0
 10
-17.51841732283465
 20
10.7653031496063
 30
0.0
 10
-17.52433858267716
 20
10.76161811023622
 30
0.0
 10
-17.53055905511811
 20
10.75974409448819
 30
0.0
 10
-17.53707086614173
 20
10.75974409448819
 30
0.0
 10
-17.53707086614173
 20
10.75974409448819
 30
0.0
 10
-17.54309448818898
 20
10.75974409448819
 30
0.0
 10
-17.5487874015748
 20
10.76138976377953
 30
0.0
 10
-17.55411811023622
 20
10.76467716535433
 30
0.0
 10
-17.55411811023622
 20
10.76467716535433
 30
0.0
 10
-17.55944881889764
 20
10.76793700787402
 30
0.0
 10
-17.56375590551181
 20
10.77290551181102
 30
0.0
 10
-17.56704724409449
 20
10.77951968503937
 30
0.0
 10
-17.56704724409449
 20
10.77951968503937
 30
0.0
 10
-17.56954724409449
 20
10.77096456692913
 30
0.0
 10
-17.57382677165354
 20
10.76441338582677
 30
0.0
 10
-17.57984645669291
 20
10.75980708661417
 30
0.0
 10
-17.57984645669291
 20
10.75980708661417
 30
0.0
 10
-17.58590157480315
 20
10.75520078740158
 30
0.0
 10
-17.59304330708661
 20
10.75289763779528
 30
0.0
 10
-17.60126771653543
 20
10.75289763779528
 30
0.0
 10
-17.60126771653543
 20
10.75289763779528
 30
0.0
 10
-17.60788188976378
 20
10.75289763779528
 30
0.0
 10
-17.61403543307087
 20
10.75431496062992
 30
0.0
 10
-17.61972440944882
 20
10.75711023622047
 30
0.0
 10
-17.61972440944882
 20
10.75711023622047
 30
0.0
 10
-17.62541732283465
 20
10.75990551181102
 30
0.0
 10
-17.62979527559055
 20
10.76336220472441
 30
0.0
 10
-17.63288582677165
 20
10.76747637795276
 30
0.0
 10
-17.63288582677165
 20
10.76747637795276
 30
0.0
 10
-17.63598031496063
 20
10.77158661417323
 30
0.0
 10
-17.63828346456693
 20
10.77675590551181
 30
0.0
 10
-17.63986220472441
 20
10.78294094488189
 30
0.0
 10
-17.63986220472441
 20
10.78294094488189
 30
0.0
 10
-17.64144094488189
 20
10.78912598425197
 30
0.0
 10
-17.64223228346457
 20
10.79672834645669
 30
0.0
 10
-17.64223228346457
 20
10.80574015748032
 30
0.0
 10
-17.64223228346457
 20
10.80574015748032
 30
0.0
 10
-17.64223228346457
 20
10.80574015748032
 30
0.0
 10
-17.64223228346457
 20
10.85963779527559
 30
0.0
 10
-17.64223228346457
 20
10.85963779527559
 30
0.0
  0
SPLINE
  5
B5
330
1F
100
AcDbEntity
  8
Layer 1
  6
New Line31
 62
     7
370
     9
100
AcDbSpline
210
0.0
220
0.0
230
1.0
 70
    11
 71
     3
 72
    40
 73
    36
 74
     0
 42
0.0000000001
 43
0.0000000001
 40
0.0
 40
0.0
 40
0.0
 40
0.0
 40
0.1111111111111111
 40
0.1111111111111111
 40
0.1111111111111111
 40
0.1111111111111111
 40
0.2222222222222222
 40
0.2222222222222222
 40
0.2222222222222222
 40
0.2222222222222222
 40
0.3333333333333333
 40
0.3333333333333333
 40
0.3333333333333333
 40
0.3333333333333333
 40
0.4444444444444444
 40
0.4444444444444444
 40
0.4444444444444444
 40
0.4444444444444444
 40
0.5555555555555556
 40
0.5555555555555556
 40
0.5555555555555556
 40
0.5555555555555556
 40
0.6666666666666667
 40
0.6666666666666667
 40
0.6666666666666667
 40
0.6666666666666667
 40
0.7777777777777779
 40
0.7777777777777779
 40
0.7777777777777779
 40
0.7777777777777779
 40
0.8888888888888891
 40
0.8888888888888891
 40
0.8888888888888891
 40
0.8888888888888891
 40
1.0
 40
1.0
 40
1.0
 40
1.0
 10
-17.5603031496063
 20
10.84091732283465
 30
0.0
 10
-17.5603031496063
 20
10.84091732283465
 30
0.0
 10
-17.5603031496063
 20
10.81035039370079
 30
0.0
 10
-17.5603031496063
 20
10.81035039370079
 30
0.0
 10
-17.5603031496063
 20
10.81035039370079
 30
0.0
 10
-17.5603031496063
 20
10.8020905511811
 30
0.0
 10
-17.55974409448819
 20
10.79613385826772
 30
0.0
 10
-17.55865748031496
 20
10.7925157480315
 30
0.0
 10
-17.55865748031496
 20
10.7925157480315
 30
0.0
 10
-17.55724409448819
 20
10.78777559055118
 30
0.0
 10
-17.55490551181103
 20
10.78418897637795
 30
0.0
 10
-17.55161417322835
 20
10.7817874015748
 30
0.0
 10
-17.55161417322835
 20
10.7817874015748
 30
0.0
 10
-17.54832677165354
 20
10.77938582677165
 30
0.0
 10
-17.5442125984252
 20
10.77816929133858
 30
0.0
 10
-17.53927559055118
 20
10.77816929133858
 30
0.0
 10
-17.53927559055118
 20
10.77816929133858
 30
0.0
 10
-17.5346062992126
 20
10.77816929133858
 30
0.0
 10
-17.53046062992126
 20
10.7792874015748
 30
0.0
 10
-17.52690551181102
 20
10.78152362204724
 30
0.0
 10
-17.52690551181102
 20
10.78152362204724
 30
0.0
 10
-17.5233188976378
 20
10.78379527559055
 30
0.0
 10
-17.52088582677165
 20
10.78701968503937
 30
0.0
 10
-17.51956692913386
 20
10.79116535433071
 30
0.0
 10
-17.51956692913386
 20
10.79116535433071
 30
0.0
 10
-17.51825196850394
 20
10.79534645669291
 30
0.0
 10
-17.51759448818898
 20
10.8025157480315
 30
0.0
 10
-17.51759448818898
 20
10.81268503937008
 30
0.0
 10
-17.51759448818898
 20
10.81268503937008
 30
0.0
 10
-17.51759448818898
 20
10.81268503937008
 30
0.0
 10
-17.51759448818898
 20
10.84091732283465
 30
0.0
 10
-17.51759448818898
 20
10.84091732283465
 30
0.0
 10
-17.51759448818898
 20
10.84091732283465
 30
0.0
 10
-17.51759448818898
 20
10.84091732283465
 30
0.0
 10
-17.5603031496063
 20
10.84091732283465
 30
0.0
 10
-17.5603031496063
 20
10.84091732283465
 30
0.0
  0
SPLINE
  5
B7
330
1F
100
AcDbEntity
  8
Layer 1
  6
New Line32
 62
     7
370
     9
100
AcDbSpline
210
0.0
220
0.0
230
1.0
 70
    11
 71
     3
 72
    44
 73
    40
 74
     0
 42
0.0000000001
 43
0.0000000001
 40
0.0
 40
0.0
 40
0.0
 40
0.0
 40
0.1
 40
0.1
 40
0.1
 40
0.1
 40
0.2
 40
0.2
 40
0.2
 40
0.2
 40
0.3
 40
0.3
 40
0.3
 40
0.3
 40
0.4
 40
0.4
 40
0.4
 40
0.4
 40
0.5
 40
0.5
 40
0.5
 40
0.5
 40
0.6
 40
0.6
 40
0.6
 40
0.6
 40
0.7
 40
0.7
 40
0.7
 40
0.7
 40
0.7999999999999999
 40
0.7999999999999999
 40
0.7999999999999999
 40
0.7999999999999999
 40
0.8999999999999999
 40
0.8999999999999999
 40
0.8999999999999999
 40
0.8999999999999999
 40
1.0
 40
1.0
 40
1.0
 40
1.0
 10
-17.62555118110236
 20
10.84091732283465
 30
0.0
 10
-17.62555118110236
 20
10.84091732283465
 30
0.0
 10
-17.62555118110236
 20
10.80574015748032
 30
0.0
 10
-17.62555118110236
 20
10.80574015748032
 30
0.0
 10
-17.62555118110236
 20
10.80574015748032
 30
0.0
 10
-17.62555118110236
 20
10.79968897637795
 30
0.0
 10
-17.6253188976378
 20
10.79544488188976
 30
0.0
 10
-17.6248937007874
 20
10.79300787401575
 30
0.0
 10
-17.6248937007874
 20
10.79300787401575
 30
0.0
 10
-17.62410236220472
 20
10.7886968503937
 30
0.0
 10
-17.6228188976378
 20
10.78511023622047
 30
0.0
 10
-17.62100787401575
 20
10.78221653543307
 30
0.0
 10
-17.62100787401575
 20
10.78221653543307
 30
0.0
 10
-17.61923228346457
 20
10.7793188976378
 30
0.0
 10
-17.61660236220472
 20
10.77695275590551
 30
0.0
 10
-17.61317716535433
 20
10.77507480314961
 30
0.0
 10
-17.61317716535433
 20
10.77507480314961
 30
0.0
 10
-17.60972440944882
 20
10.77323228346457
 30
0.0
 10
-17.60577559055118
 20
10.77227952755906
 30
0.0
 10
-17.60126771653543
 20
10.77227952755906
 30
0.0
 10
-17.60126771653543
 20
10.77227952755906
 30
0.0
 10
-17.59600393700788
 20
10.77227952755906
 30
0.0
 10
-17.59142913385827
 20
10.77362992125984
 30
0.0
 10
-17.58751181102362
 20
10.77632677165354
 30
0.0
 10
-17.58751181102362
 20
10.77632677165354
 30
0.0
 10
-17.58362992125984
 20
10.77902362204724
 30
0.0
 10
-17.58090157480315
 20
10.78277559055118
 30
0.0
 10
-17.57931889763779
 20
10.78757874015748
 30
0.0
 10
-17.57931889763779
 20
10.78757874015748
 30
0.0
 10
-17.57777559055118
 20
10.79235039370079
 30
0.0
 10
-17.5769842519685
 20
10.79925984251969
 30
0.0
 10
-17.5769842519685
 20
10.80824409448819
 30
0.0
 10
-17.5769842519685
 20
10.80824409448819
 30
0.0
 10
-17.5769842519685
 20
10.80824409448819
 30
0.0
 10
-17.5769842519685
 20
10.84091732283465
 30
0.0
 10
-17.5769842519685
 20
10.84091732283465
 30
0.0
 10
-17.5769842519685
 20
10.84091732283465
 30
0.0
 10
-17.5769842519685
 20
10.84091732283465
 30
0.0
 10
-17.62555118110236
 20
10.84091732283465
 30
0.0
 10
-17.62555118110236
 20
10.84091732283465
 30
0.0
  0
SPLINE
  5
B9
330
1F
100
AcDbEntity
  8
Layer 1
  6
New Line33
 62
     7
370
     9
100
AcDbSpline
210
0.0
220
0.0
230
1.0
 70
    11
 71
     3
 72
    20
 73
    16
 74
     0
 42
0.0000000001
 43
0.0000000001
 40
0.0
 40
0.0
 40
0.0
 40
0.0
 40
0.25
 40
0.25
 40
0.25
 40
0.25
 40
0.5
 40
0.5
 40
0.5
 40
0.5
 40
0.75
 40
0.75
 40
0.75
 40
0.75
 40
1.0
 40
1.0
 40
1.0
 40
1.0
 10
-17.64223228346457
 20
10.72976771653543
 30
0.0
 10
-17.64223228346457
 20
10.72976771653543
 30
0.0
 10
-17.50091338582677
 20
10.72976771653543
 30
0.0
 10
-17.50091338582677
 20
10.72976771653543
 30
0.0
 10
-17.50091338582677
 20
10.72976771653543
 30
0.0
 10
-17.50091338582677
 20
10.72976771653543
 30
0.0
 10
-17.50091338582677
 20
10.71242519685039
 30
0.0
 10
-17.50091338582677
 20
10.71242519685039
 30
0.0
 10
-17.50091338582677
 20
10.71242519685039
 30
0.0
 10
-17.50091338582677
 20
10.71242519685039
 30
0.0
 10
-17.64223228346457
 20
10.71242519685039
 30
0.0
 10
-17.64223228346457
 20
10.71242519685039
 30
0.0
 10
-17.64223228346457
 20
10.71242519685039
 30
0.0
 10
-17.64223228346457
 20
10.71242519685039
 30
0.0
 10
-17.64223228346457
 20
10.72976771653543
 30
0.0
 10
-17.64223228346457
 20
10.72976771653543
 30
0.0
  0
SPLINE
  5
BB
330
1F
100
AcDbEntity
  8
Layer 1
  6
New Line34
 62
     7
370
     9
100
AcDbSpline
210
0.0
220
0.0
230
1.0
 70
    11
 71
     3
 72
   112
 73
   108
 74
     0
 42
0.0000000001
 43
0.0000000001
 40
0.0
 40
0.0
 40
0.0
 40
0.0
 40
0.037037037037037
 40
0.037037037037037
 40
0.037037037037037
 40
0.037037037037037
 40
0.0740740740740741
 40
0.0740740740740741
 40
0.0740740740740741
 40
0.0740740740740741
 40
0.1111111111111111
 40
0.1111111111111111
 40
0.1111111111111111
 40
0.1111111111111111
 40
0.1481481481481481
 40
0.1481481481481481
 40
0.1481481481481481
 40
0.1481481481481481
 40
0.1851851851851852
 40
0.1851851851851852
 40
0.1851851851851852
 40
0.1851851851851852
 40
0.2222222222222222
 40
0.2222222222222222
 40
0.2222222222222222
 40
0.2222222222222222
 40
0.2592592592592592
 40
0.2592592592592592
 40
0.2592592592592592
 40
0.2592592592592592
 40
0.2962962962962963
 40
0.2962962962962963
 40
0.2962962962962963
 40
0.2962962962962963
 40
0.3333333333333333
 40
0.3333333333333333
 40
0.3333333333333333
 40
0.3333333333333333
 40
0.3703703703703703
 40
0.3703703703703703
 40
0.3703703703703703
 40
0.3703703703703703
 40
0.4074074074074074
 40
0.4074074074074074
 40
0.4074074074074074
 40
0.4074074074074074
 40
0.4444444444444444
 40
0.4444444444444444
 40
0.4444444444444444
 40
0.4444444444444444
 40
0.4814814814814815
 40
0.4814814814814815
 40
0.4814814814814815
 40
0.4814814814814815
 40
0.5185185185185185
 40
0.5185185185185185
 40
0.5185185185185185
 40
0.5185185185185185
 40
0.5555555555555556
 40
0.5555555555555556
 40
0.5555555555555556
 40
0.5555555555555556
 40
0.5925925925925926
 40
0.5925925925925926
 40
0.5925925925925926
 40
0.5925925925925926
 40
0.6296296296296295
 40
0.6296296296296295
 40
0.6296296296296295
 40
0.6296296296296295
 40
0.6666666666666665
 40
0.6666666666666665
 40
0.6666666666666665
 40
0.6666666666666665
 40
0.7037037037037035
 40
0.7037037037037035
 40
0.7037037037037035
 40
0.7037037037037035
 40
0.7407407407407405
 40
0.7407407407407405
 40
0.7407407407407405
 40
0.7407407407407405
 40
0.7777777777777775
 40
0.7777777777777775
 40
0.7777777777777775
 40
0.7777777777777775
 40
0.8148148148148144
 40
0.8148148148148144
 40
0.8148148148148144
 40
0.8148148148148144
 40
0.8518518518518514
 40
0.8518518518518514
 40
0.8518518518518514
 40
0.8518518518518514
 40
0.8888888888888884
 40
0.8888888888888884
 40
0.8888888888888884
 40
0.8888888888888884
 40
0.9259259259259254
 40
0.9259259259259254
 40
0.9259259259259254
 40
0.9259259259259254
 40
0.9629629629629624
 40
0.9629629629629624
 40
0.9629629629629624
 40
0.9629629629629624
 40
1.0
 40
1.0
 40
1.0
 40
1.0
 10
-17.62959842519685
 20
10.61871653543307
 30
0.0
 10
-17.63505905511811
 20
10.62516535433071
 30
0.0
 10
-17.6389094488189
 20
10.63135039370079
 30
0.0
 10
-17.6411811023622
 20
10.63727165354331
 30
0.0
 10
-17.6411811023622
 20
10.63727165354331
 30
0.0
 10
-17.64341732283465
 20
10.64322834645669
 30
0.0
 10
-17.64453543307087
 20
10.64961023622047
 30
0.0
 10
-17.64453543307087
 20
10.65642125984252
 30
0.0
 10
-17.64453543307087
 20
10.65642125984252
 30
0.0
 10
-17.64453543307087
 20
10.66767716535433
 30
0.0
 10
-17.6418031496063
 20
10.67629527559055
 30
0.0
 10
-17.63631102362205
 20
10.68235039370079
 30
0.0
 10
-17.63631102362205
 20
10.68235039370079
 30
0.0
 10
-17.63081496062992
 20
10.68837401574803
 30
0.0
 10
-17.62377165354331
 20
10.69139763779528
 30
0.0
 10
-17.61525196850394
 20
10.69139763779528
 30
0.0
 10
-17.61525196850394
 20
10.69139763779528
 30
0.0
 10
-17.61021653543307
 20
10.69139763779528
 30
0.0
 10
-17.60564173228347
 20
10.69027952755905
 30
0.0
 10
-17.60149606299213
 20
10.68797637795276
 30
0.0
 10
-17.60149606299213
 20
10.68797637795276
 30
0.0
 10
-17.59735039370079
 20
10.68570866141732
 30
0.0
 10
-17.59402755905512
 20
10.6827125984252
 30
0.0
 10
-17.59152755905512
 20
10.67902755905512
 30
0.0
 10
-17.59152755905512
 20
10.67902755905512
 30
0.0
 10
-17.58902755905512
 20
10.67531102362205
 30
0.0
 10
-17.58711811023622
 20
10.67116535433071
 30
0.0
 10
-17.58583464566929
 20
10.66652362204724
 30
0.0
 10
-17.58583464566929
 20
10.66652362204724
 30
0.0
 10
-17.58494881889764
 20
10.66313385826772
 30
0.0
 10
-17.58405905511811
 20
10.65800393700787
 30
0.0
 10
-17.58323622047244
 20
10.65112598425197
 30
0.0
 10
-17.58323622047244
 20
10.65112598425197
 30
0.0
 10
-17.58155905511811
 20
10.63711023622047
 30
0.0
 10
-17.57958267716536
 20
10.62677559055118
 30
0.0
 10
-17.57724803149606
 20
10.62016141732284
 30
0.0
 10
-17.57724803149606
 20
10.62016141732284
 30
0.0
 10
-17.57487795275591
 20
10.62009842519685
 30
0.0
 10
-17.57336614173228
 20
10.62006299212598
 30
0.0
 10
-17.57274015748031
 20
10.62006299212598
 30
0.0
 10
-17.57274015748031
 20
10.62006299212598
 30
0.0
 10
-17.56566535433071
 20
10.62006299212598
 30
0.0
 10
-17.56066535433071
 20
10.62170866141732
 30
0.0
 10
-17.5578031496063
 20
10.625
 30
0.0
 10
-17.5578031496063
 20
10.625
 30
0.0
 10
-17.55385433070866
 20
10.6294094488189
 30
0.0
 10
-17.55191338582677
 20
10.63602362204724
 30
0.0
 10
-17.55191338582677
 20
10.64474015748032
 30
0.0
 10
-17.55191338582677
 20
10.64474015748032
 30
0.0
 10
-17.55191338582677
 20
10.65290157480315
 30
0.0
 10
-17.55332677165354
 20
10.65892519685039
 30
0.0
 10
-17.55618897637795
 20
10.66283858267717
 30
0.0
 10
-17.55618897637795
 20
10.66283858267717
 30
0.0
 10
-17.55905118110236
 20
10.66672047244094
 30
0.0
 10
-17.56411811023622
 20
10.66958267716536
 30
0.0
 10
-17.57138976377953
 20
10.67146062992126
 30
0.0
 10
-17.57138976377953
 20
10.67146062992126
 30
0.0
 10
-17.57138976377953
 20
10.67146062992126
 30
0.0
 10
-17.56905511811024
 20
10.68840551181102
 30
0.0
 10
-17.56905511811024
 20
10.68840551181102
 30
0.0
 10
-17.56905511811024
 20
10.68840551181102
 30
0.0
 10
-17.56181496062992
 20
10.68685826771654
 30
0.0
 10
-17.55592519685039
 20
10.68432677165354
 30
0.0
 10
-17.5514842519685
 20
10.6808031496063
 30
0.0
 10
-17.5514842519685
 20
10.6808031496063
 30
0.0
 10
-17.54700787401575
 20
10.67728346456693
 30
0.0
 10
-17.54355511811024
 20
10.67214960629921
 30
0.0
 10
-17.54115354330709
 20
10.66547244094488
 30
0.0
 10
-17.54115354330709
 20
10.66547244094488
 30
0.0
 10
-17.53875196850394
 20
10.65879133858268
 30
0.0
 10
-17.53753149606299
 20
10.65105905511811
 30
0.0
 10
-17.53753149606299
 20
10.64224015748031
 30
0.0
 10
-17.53753149606299
 20
10.64224015748031
 30
0.0
 10
-17.53753149606299
 20
10.63348818897638
 30
0.0
 10
-17.53858661417323
 20
10.62641338582677
 30
0.0
 10
-17.54062598425197
 20
10.62095275590551
 30
0.0
 10
-17.54062598425197
 20
10.62095275590551
 30
0.0
 10
-17.54270078740158
 20
10.61549212598425
 30
0.0
 10
-17.54526377952756
 20
10.61147637795276
 30
0.0
 10
-17.54838976377953
 20
10.60887795275591
 30
0.0
 10
-17.54838976377953
 20
10.60887795275591
 30
0.0
 10
-17.55151574803149
 20
10.60631102362205
 30
0.0
 10
-17.55543307086614
 20
10.60453543307087
 30
0.0
 10
-17.56020472440945
 20
10.60348031496063
 30
0.0
 10
-17.56020472440945
 20
10.60348031496063
 30
0.0
 10
-17.56316535433071
 20
10.60292125984252
 30
0.0
 10
-17.56849606299212
 20
10.60262598425197
 30
0.0
 10
-17.57619291338583
 20
10.60262598425197
 30
0.0
 10
-17.57619291338583
 20
10.60262598425197
 30
0.0
 10
-17.57619291338583
 20
10.60262598425197
 30
0.0
 10
-17.59932677165354
 20
10.60262598425197
 30
0.0
 10
-17.59932677165354
 20
10.60262598425197
 30
0.0
 10
-17.59932677165354
 20
10.60262598425197
 30
0.0
 10
-17.61548031496063
 20
10.60262598425197
 30
0.0
 10
-17.6256811023622
 20
10.60226377952756
 30
0.0
 10
-17.62992519685039
 20
10.60150787401575
 30
0.0
 10
-17.62992519685039
 20
10.60150787401575
 30
0.0
 10
-17.63420472440945
 20
10.60078346456693
 30
0.0
 10
-17.63831496062992
 20
10.5993031496063
 30
0.0
 10
-17.64223228346457
 20
10.59712992125984
 30
0.0
 10
-17.64223228346457
 20
10.59712992125984
 30
0.0
 10
-17.64223228346457
 20
10.59712992125984
 30
0.0
 10
-17.64223228346457
 20
10.61525984251968
 30
0.0
 10
-17.64223228346457
 20
10.61525984251968
 30
0.0
 10
-17.64223228346457
 20
10.61525984251968
 30
0.0
 10
-17.63864566929134
 20
10.61703543307087
 30
0.0
 10
-17.63443307086614
 20
10.61822047244094
 30
0.0
 10
-17.62959842519685
 20
10.61871653543307
 30
0.0
  0
SPLINE
  5
BD
330
1F
100
AcDbEntity
  8
Layer 1
  6
New Line35
 62
     7
370
     9
100
AcDbSpline
210
0.0
220
0.0
230
1.0
 70
    11
 71
     3
 72
    44
 73
    40
 74
     0
 42
0.0000000001
 43
0.0000000001
 40
0.0
 40
0.0
 40
0.0
 40
0.0
 40
0.1
 40
0.1
 40
0.1
 40
0.1
 40
0.2
 40
0.2
 40
0.2
 40
0.2
 40
0.3
 40
0.3
 40
0.3
 40
0.3
 40
0.4
 40
0.4
 40
0.4
 40
0.4
 40
0.5
 40
0.5
 40
0.5
 40
0.5
 40
0.6
 40
0.6
 40
0.6
 40
0.6
 40
0.7
 40
0.7
 40
0.7
 40
0.7
 40
0.7999999999999999
 40
0.7999999999999999
 40
0.7999999999999999
 40
0.7999999999999999
 40
0.8999999999999999
 40
0.8999999999999999
 40
0.8999999999999999
 40
0.8999999999999999
 40
1.0
 40
1.0
 40
1.0
 40
1.0
 10
-17.59083858267716
 20
10.62016141732284
 30
0.0
 10
-17.59343700787402
 20
10.62648031496063
 30
0.0
 10
-17.5956062992126
 20
10.63592519685039
 30
0.0
 10
-17.59741732283464
 20
10.64849212598425
 30
0.0
 10
-17.59741732283464
 20
10.64849212598425
 30
0.0
 10
-17.59843700787401
 20
10.65563385826772
 30
0.0
 10
-17.5995905511811
 20
10.66070078740158
 30
0.0
 10
-17.60087401574803
 20
10.66362992125984
 30
0.0
 10
-17.60087401574803
 20
10.66362992125984
 30
0.0
 10
-17.60215748031496
 20
10.6665905511811
 30
0.0
 10
-17.60403149606299
 20
10.6688937007874
 30
0.0
 10
-17.60653149606299
 20
10.67047244094488
 30
0.0
 10
-17.60653149606299
 20
10.67047244094488
 30
0.0
 10
-17.609
 20
10.67208661417323
 30
0.0
 10
-17.61173228346457
 20
10.6729094488189
 30
0.0
 10
-17.61475590551181
 20
10.6729094488189
 30
0.0
 10
-17.61475590551181
 20
10.6729094488189
 30
0.0
 10
-17.61939763779528
 20
10.6729094488189
 30
0.0
 10
-17.62324803149606
 20
10.67112992125984
 30
0.0
 10
-17.62633858267716
 20
10.66764173228346
 30
0.0
 10
-17.62633858267716
 20
10.66764173228346
 30
0.0
 10
-17.62940157480315
 20
10.66415354330709
 30
0.0
 10
-17.63094488188976
 20
10.65902362204724
 30
0.0
 10
-17.63094488188976
 20
10.65227559055118
 30
0.0
 10
-17.63094488188976
 20
10.65227559055118
 30
0.0
 10
-17.63094488188976
 20
10.64559842519685
 30
0.0
 10
-17.6295
 20
10.63964173228347
 30
0.0
 10
-17.62657086614173
 20
10.63444488188976
 30
0.0
 10
-17.62657086614173
 20
10.63444488188976
 30
0.0
 10
-17.62364173228346
 20
10.62924409448819
 30
0.0
 10
-17.61962598425197
 20
10.6253937007874
 30
0.0
 10
-17.61455905511811
 20
10.62296062992126
 30
0.0
 10
-17.61455905511811
 20
10.62296062992126
 30
0.0
 10
-17.61064566929134
 20
10.62108267716535
 30
0.0
 10
-17.60485433070866
 20
10.62016141732284
 30
0.0
 10
-17.59722047244095
 20
10.62016141732284
 30
0.0
 10
-17.59722047244095
 20
10.62016141732284
 30
0.0
 10
-17.59722047244095
 20
10.62016141732284
 30
0.0
 10
-17.59083858267716
 20
10.62016141732284
 30
0.0
 10
-17.59083858267716
 20
10.62016141732284
 30
0.0
  0
SPLINE
  5
BF
330
1F
100
AcDbEntity
  8
Layer 1
  6
New Line36
 62
     7
370
     9
100
AcDbSpline
210
0.0
220
0.0
230
1.0
 70
    11
 71
     3
 72
    80
 73
    76
 74
     0
 42
0.0000000001
 43
0.0000000001
 40
0.0
 40
0.0
 40
0.0
 40
0.0
 40
0.0526315789473684
 40
0.0526315789473684
 40
0.0526315789473684
 40
0.0526315789473684
 40
0.1052631578947368
 40
0.1052631578947368
 40
0.1052631578947368
 40
0.1052631578947368
 40
0.1578947368421053
 40
0.1578947368421053
 40
0.1578947368421053
 40
0.1578947368421053
 40
0.2105263157894737
 40
0.2105263157894737
 40
0.2105263157894737
 40
0.2105263157894737
 40
0.2631578947368421
 40
0.2631578947368421
 40
0.2631578947368421
 40
0.2631578947368421
 40
0.3157894736842105
 40
0.3157894736842105
 40
0.3157894736842105
 40
0.3157894736842105
 40
0.3684210526315789
 40
0.3684210526315789
 40
0.3684210526315789
 40
0.3684210526315789
 40
0.4210526315789473
 40
0.4210526315789473
 40
0.4210526315789473
 40
0.4210526315789473
 40
0.4736842105263158
 40
0.4736842105263158
 40
0.4736842105263158
 40
0.4736842105263158
 40
0.5263157894736842
 40
0.5263157894736842
 40
0.5263157894736842
 40
0.5263157894736842
 40
0.5789473684210527
 40
0.5789473684210527
 40
0.5789473684210527
 40
0.5789473684210527
 40
0.631578947368421
 40
0.631578947368421
 40
0.631578947368421
 40
0.631578947368421
 40
0.6842105263157894
 40
0.6842105263157894
 40
0.6842105263157894
 40
0.6842105263157894
 40
0.7368421052631577
 40
0.7368421052631577
 40
0.7368421052631577
 40
0.7368421052631577
 40
0.7894736842105261
 40
0.7894736842105261
 40
0.7894736842105261
 40
0.7894736842105261
 40
0.8421052631578945
 40
0.8421052631578945
 40
0.8421052631578945
 40
0.8421052631578945
 40
0.8947368421052628
 40
0.8947368421052628
 40
0.8947368421052628
 40
0.8947368421052628
 40
0.9473684210526312
 40
0.9473684210526312
 40
0.9473684210526312
 40
0.9473684210526312
 40
1.0
 40
1.0
 40
1.0
 40
1.0
 10
-17.60472047244095
 20
10.50891732283465
 30
0.0
 10
-17.60472047244095
 20
10.50891732283465
 30
0.0
 10
-17.60696062992126
 20
10.49187401574803
 30
0.0
 10
-17.60696062992126
 20
10.49187401574803
 30
0.0
 10
-17.60696062992126
 20
10.49187401574803
 30
0.0
 10
-17.61870472440945
 20
10.49371653543307
 30
0.0
 10
-17.62791732283464
 20
10.4984842519685
 30
0.0
 10
-17.63456692913386
 20
10.50618503937008
 30
0.0
 10
-17.63456692913386
 20
10.50618503937008
 30
0.0
 10
-17.6412125984252
 20
10.51385039370079
 30
0.0
 10
-17.64453543307087
 20
10.52329527559055
 30
0.0
 10
-17.64453543307087
 20
10.53448031496063
 30
0.0
 10
-17.64453543307087
 20
10.53448031496063
 30
0.0
 10
-17.64453543307087
 20
10.54846456692913
 30
0.0
 10
-17.63996062992126
 20
10.55975196850394
 30
0.0
 10
-17.63081496062992
 20
10.56824015748031
 30
0.0
 10
-17.63081496062992
 20
10.56824015748031
 30
0.0
 10
-17.62166929133858
 20
10.57676377952756
 30
0.0
 10
-17.60853937007874
 20
10.58103937007874
 30
0.0
 10
-17.59142913385827
 20
10.58103937007874
 30
0.0
 10
-17.59142913385827
 20
10.58103937007874
 30
0.0
 10
-17.58037401574803
 20
10.58103937007874
 30
0.0
 10
-17.57070078740157
 20
10.5791968503937
 30
0.0
 10
-17.5624094488189
 20
10.57554724409449
 30
0.0
 10
-17.5624094488189
 20
10.57554724409449
 30
0.0
 10
-17.55411811023622
 20
10.57186220472441
 30
0.0
 10
-17.54789763779528
 20
10.56629921259842
 30
0.0
 10
-17.54375196850394
 20
10.55879921259842
 30
0.0
 10
-17.54375196850394
 20
10.55879921259842
 30
0.0
 10
-17.5396062992126
 20
10.55133070866142
 30
0.0
 10
-17.53753149606299
 20
10.54316929133858
 30
0.0
 10
-17.53753149606299
 20
10.53438188976378
 30
0.0
 10
-17.53753149606299
 20
10.53438188976378
 30
0.0
 10
-17.53753149606299
 20
10.52326377952756
 30
0.0
 10
-17.54036220472441
 20
10.51414960629921
 30
0.0
 10
-17.54598818897638
 20
10.5071062992126
 30
0.0
 10
-17.54598818897638
 20
10.5071062992126
 30
0.0
 10
-17.55161417322835
 20
10.50003149606299
 30
0.0
 10
-17.55957874015748
 20
10.49549212598425
 30
0.0
 10
-17.56994488188976
 20
10.4934842519685
 30
0.0
 10
-17.56994488188976
 20
10.4934842519685
 30
0.0
 10
-17.56994488188976
 20
10.4934842519685
 30
0.0
 10
-17.57254330708662
 20
10.51036220472441
 30
0.0
 10
-17.57254330708662
 20
10.51036220472441
 30
0.0
 10
-17.57254330708662
 20
10.51036220472441
 30
0.0
 10
-17.56566535433071
 20
10.51197637795276
 30
0.0
 10
-17.5605
 20
10.51480708661417
 30
0.0
 10
-17.55701181102362
 20
10.51888582677165
 30
0.0
 10
-17.55701181102362
 20
10.51888582677165
 30
0.0
 10
-17.55355905511811
 20
10.52296456692913
 30
0.0
 10
-17.55181496062992
 20
10.52790157480315
 30
0.0
 10
-17.55181496062992
 20
10.53369291338583
 30
0.0
 10
-17.55181496062992
 20
10.53369291338583
 30
0.0
 10
-17.55181496062992
 20
10.54244488188976
 30
0.0
 10
-17.55494094488189
 20
10.54955118110236
 30
0.0
 10
-17.56122440944882
 20
10.5550157480315
 30
0.0
 10
-17.56122440944882
 20
10.5550157480315
 30
0.0
 10
-17.56747637795275
 20
10.56047637795276
 30
0.0
 10
-17.57737795275591
 20
10.56320866141732
 30
0.0
 10
-17.59093700787401
 20
10.56320866141732
 30
0.0
 10
-17.59093700787401
 20
10.56320866141732
 30
0.0
 10
-17.60468897637795
 20
10.56320866141732
 30
0.0
 10
-17.61469291338583
 20
10.56057480314961
 30
0.0
 10
-17.62094488188976
 20
10.55527559055118
 30
0.0
 10
-17.62094488188976
 20
10.55527559055118
 30
0.0
 10
-17.62716141732284
 20
10.55001181102362
 30
0.0
 10
-17.6302874015748
 20
10.54313779527559
 30
0.0
 10
-17.6302874015748
 20
10.53464566929134
 30
0.0
 10
-17.6302874015748
 20
10.53464566929134
 30
0.0
 10
-17.6302874015748
 20
10.52783464566929
 30
0.0
 10
-17.62818110236221
 20
10.52217716535433
 30
0.0
 10
-17.62400393700787
 20
10.51760236220472
 30
0.0
 10
-17.62400393700787
 20
10.51760236220472
 30
0.0
 10
-17.61982677165354
 20
10.51302755905512
 30
0.0
 10
-17.6134094488189
 20
10.51013385826772
 30
0.0
 10
-17.60472047244095
 20
10.50891732283465
 30
0.0
  0
SPLINE
  5
C1
330
1F
100
AcDbEntity
  8
Layer 1
  6
New Line37
 62
     7
370
     9
100
AcDbSpline
210
0.0
220
0.0
230
1.0
 70
    11
 71
     3
 72
    52
 73
    48
 74
     0
 42
0.0000000001
 43
0.0000000001
 40
0.0
 40
0.0
 40
0.0
 40
0.0
 40
0.0833333333333333
 40
0.0833333333333333
 40
0.0833333333333333
 40
0.0833333333333333
 40
0.1666666666666667
 40
0.1666666666666667
 40
0.1666666666666667
 40
0.1666666666666667
 40
0.25
 40
0.25
 40
0.25
 40
0.25
 40
0.3333333333333333
 40
0.3333333333333333
 40
0.3333333333333333
 40
0.3333333333333333
 40
0.4166666666666666
 40
0.4166666666666666
 40
0.4166666666666666
 40
0.4166666666666666
 40
0.4999999999999999
 40
0.4999999999999999
 40
0.4999999999999999
 40
0.4999999999999999
 40
0.5833333333333333
 40
0.5833333333333333
 40
0.5833333333333333
 40
0.5833333333333333
 40
0.6666666666666666
 40
0.6666666666666666
 40
0.6666666666666666
 40
0.6666666666666666
 40
0.75
 40
0.75
 40
0.75
 40
0.75
 40
0.8333333333333334
 40
0.8333333333333334
 40
0.8333333333333334
 40
0.8333333333333334
 40
0.9166666666666667
 40
0.9166666666666667
 40
0.9166666666666667
 40
0.9166666666666667
 40
1.0
 40
1.0
 40
1.0
 40
1.0
 10
-17.64223228346457
 20
10.47693700787402
 30
0.0
 10
-17.64223228346457
 20
10.47693700787402
 30
0.0
 10
-17.50091338582677
 20
10.47693700787402
 30
0.0
 10
-17.50091338582677
 20
10.47693700787402
 30
0.0
 10
-17.50091338582677
 20
10.47693700787402
 30
0.0
 10
-17.50091338582677
 20
10.47693700787402
 30
0.0
 10
-17.50091338582677
 20
10.45956299212598
 30
0.0
 10
-17.50091338582677
 20
10.45956299212598
 30
0.0
 10
-17.50091338582677
 20
10.45956299212598
 30
0.0
 10
-17.50091338582677
 20
10.45956299212598
 30
0.0
 10
-17.58149212598425
 20
10.45956299212598
 30
0.0
 10
-17.58149212598425
 20
10.45956299212598
 30
0.0
 10
-17.58149212598425
 20
10.45956299212598
 30
0.0
 10
-17.58149212598425
 20
10.45956299212598
 30
0.0
 10
-17.53987007874016
 20
10.4185
 30
0.0
 10
-17.53987007874016
 20
10.4185
 30
0.0
 10
-17.53987007874016
 20
10.4185
 30
0.0
 10
-17.53987007874016
 20
10.4185
 30
0.0
 10
-17.53987007874016
 20
10.39605905511811
 30
0.0
 10
-17.53987007874016
 20
10.39605905511811
 30
0.0
 10
-17.53987007874016
 20
10.39605905511811
 30
0.0
 10
-17.53987007874016
 20
10.39605905511811
 30
0.0
 10
-17.57783858267717
 20
10.4351811023622
 30
0.0
 10
-17.57783858267717
 20
10.4351811023622
 30
0.0
 10
-17.57783858267717
 20
10.4351811023622
 30
0.0
 10
-17.57783858267717
 20
10.4351811023622
 30
0.0
 10
-17.64223228346457
 20
10.39207874015748
 30
0.0
 10
-17.64223228346457
 20
10.39207874015748
 30
0.0
 10
-17.64223228346457
 20
10.39207874015748
 30
0.0
 10
-17.64223228346457
 20
10.39207874015748
 30
0.0
 10
-17.64223228346457
 20
10.41349606299213
 30
0.0
 10
-17.64223228346457
 20
10.41349606299213
 30
0.0
 10
-17.64223228346457
 20
10.41349606299213
 30
0.0
 10
-17.64223228346457
 20
10.41349606299213
 30
0.0
 10
-17.58988188976378
 20
10.44732283464567
 30
0.0
 10
-17.58988188976378
 20
10.44732283464567
 30
0.0
 10
-17.58988188976378
 20
10.44732283464567
 30
0.0
 10
-17.58988188976378
 20
10.44732283464567
 30
0.0
 10
-17.60166141732283
 20
10.45956299212598
 30
0.0
 10
-17.60166141732283
 20
10.45956299212598
 30
0.0
 10
-17.60166141732283
 20
10.45956299212598
 30
0.0
 10
-17.60166141732283
 20
10.45956299212598
 30
0.0
 10
-17.64223228346457
 20
10.45956299212598
 30
0.0
 10
-17.64223228346457
 20
10.45956299212598
 30
0.0
 10
-17.64223228346457
 20
10.45956299212598
 30
0.0
 10
-17.64223228346457
 20
10.45956299212598
 30
0.0
 10
-17.64223228346457
 20
10.47693700787402
 30
0.0
 10
-17.64223228346457
 20
10.47693700787402
 30
0.0
  0
SPLINE
  5
C3
330
1F
100
AcDbEntity
  8
Layer 1
  6
New Line38
 62
     7
370
     9
100
AcDbSpline
210
0.0
220
0.0
230
1.0
 70
    11
 71
     3
 72
    60
 73
    56
 74
     0
 42
0.0000000001
 43
0.0000000001
 40
0.0
 40
0.0
 40
0.0
 40
0.0
 40
0.0714285714285714
 40
0.0714285714285714
 40
0.0714285714285714
 40
0.0714285714285714
 40
0.1428571428571428
 40
0.1428571428571428
 40
0.1428571428571428
 40
0.1428571428571428
 40
0.2142857142857143
 40
0.2142857142857143
 40
0.2142857142857143
 40
0.2142857142857143
 40
0.2857142857142857
 40
0.2857142857142857
 40
0.2857142857142857
 40
0.2857142857142857
 40
0.3571428571428571
 40
0.3571428571428571
 40
0.3571428571428571
 40
0.3571428571428571
 40
0.4285714285714285
 40
0.4285714285714285
 40
0.4285714285714285
 40
0.4285714285714285
 40
0.4999999999999999
 40
0.4999999999999999
 40
0.4999999999999999
 40
0.4999999999999999
 40
0.5714285714285713
 40
0.5714285714285713
 40
0.5714285714285713
 40
0.5714285714285713
 40
0.6428571428571427
 40
0.6428571428571427
 40
0.6428571428571427
 40
0.6428571428571427
 40
0.7142857142857141
 40
0.7142857142857141
 40
0.7142857142857141
 40
0.7142857142857141
 40
0.7857142857142855
 40
0.7857142857142855
 40
0.7857142857142855
 40
0.7857142857142855
 40
0.8571428571428569
 40
0.8571428571428569
 40
0.8571428571428569
 40
0.8571428571428569
 40
0.9285714285714283
 40
0.9285714285714283
 40
0.9285714285714283
 40
0.9285714285714283
 40
1.0
 40
1.0
 40
1.0
 40
1.0
 10
-17.64223228346457
 20
9.94963779527559
 30
0.0
 10
-17.64223228346457
 20
9.94963779527559
 30
0.0
 10
-17.50091338582677
 20
9.94963779527559
 30
0.0
 10
-17.50091338582677
 20
9.94963779527559
 30
0.0
 10
-17.50091338582677
 20
9.94963779527559
 30
0.0
 10
-17.50091338582677
 20
9.94963779527559
 30
0.0
 10
-17.50091338582677
 20
9.896598425196851
 30
0.0
 10
-17.50091338582677
 20
9.896598425196851
 30
0.0
 10
-17.50091338582677
 20
9.896598425196851
 30
0.0
 10
-17.50091338582677
 20
9.885807086614173
 30
0.0
 10
-17.50235826771653
 20
9.877149606299213
 30
0.0
 10
-17.50518897637795
 20
9.87063779527559
 30
0.0
 10
-17.50518897637795
 20
9.87063779527559
 30
0.0
 10
-17.50805118110236
 20
9.864090551181102
 30
0.0
 10
-17.51246062992126
 20
9.858988188976378
 30
0.0
 10
-17.51841732283465
 20
9.8553031496063
 30
0.0
 10
-17.51841732283465
 20
9.8553031496063
 30
0.0
 10
-17.52433858267716
 20
9.85161811023622
 30
0.0
 10
-17.53055905511811
 20
9.849744094488189
 30
0.0
 10
-17.53707086614173
 20
9.849744094488189
 30
0.0
 10
-17.53707086614173
 20
9.849744094488189
 30
0.0
 10
-17.54309448818898
 20
9.849744094488189
 30
0.0
 10
-17.5487874015748
 20
9.851389763779528
 30
0.0
 10
-17.55411811023622
 20
9.85467716535433
 30
0.0
 10
-17.55411811023622
 20
9.85467716535433
 30
0.0
 10
-17.55944881889764
 20
9.857937007874016
 30
0.0
 10
-17.56375590551181
 20
9.862905511811023
 30
0.0
 10
-17.56704724409449
 20
9.86951968503937
 30
0.0
 10
-17.56704724409449
 20
9.86951968503937
 30
0.0
 10
-17.56954724409449
 20
9.860964566929134
 30
0.0
 10
-17.57382677165354
 20
9.854413385826772
 30
0.0
 10
-17.57984645669291
 20
9.849807086614174
 30
0.0
 10
-17.57984645669291
 20
9.849807086614174
 30
0.0
 10
-17.58590157480315
 20
9.845200787401575
 30
0.0
 10
-17.59304330708661
 20
9.842897637795275
 30
0.0
 10
-17.60126771653543
 20
9.842897637795275
 30
0.0
 10
-17.60126771653543
 20
9.842897637795275
 30
0.0
 10
-17.60788188976378
 20
9.842897637795275
 30
0.0
 10
-17.61403543307087
 20
9.844314960629921
 30
0.0
 10
-17.61972440944882
 20
9.847110236220473
 30
0.0
 10
-17.61972440944882
 20
9.847110236220473
 30
0.0
 10
-17.62541732283465
 20
9.849905511811023
 30
0.0
 10
-17.62979527559055
 20
9.853362204724409
 30
0.0
 10
-17.63288582677165
 20
9.857476377952755
 30
0.0
 10
-17.63288582677165
 20
9.857476377952755
 30
0.0
 10
-17.63598031496063
 20
9.861586614173229
 30
0.0
 10
-17.63828346456693
 20
9.86675590551181
 30
0.0
 10
-17.63986220472441
 20
9.87294094488189
 30
0.0
 10
-17.63986220472441
 20
9.87294094488189
 30
0.0
 10
-17.64144094488189
 20
9.879125984251969
 30
0.0
 10
-17.64223228346457
 20
9.886728346456692
 30
0.0
 10
-17.64223228346457
 20
9.895740157480315
 30
0.0
 10
-17.64223228346457
 20
9.895740157480315
 30
0.0
 10
-17.64223228346457
 20
9.895740157480315
 30
0.0
 10
-17.64223228346457
 20
9.94963779527559
 30
0.0
 10
-17.64223228346457
 20
9.94963779527559
 30
0.0
  0
SPLINE
  5
C5
330
1F
100
AcDbEntity
  8
Layer 1
  6
New Line39
 62
     7
370
     9
100
AcDbSpline
210
0.0
220
0.0
230
1.0
 70
    11
 71
     3
 72
    40
 73
    36
 74
     0
 42
0.0000000001
 43
0.0000000001
 40
0.0
 40
0.0
 40
0.0
 40
0.0
 40
0.1111111111111111
 40
0.1111111111111111
 40
0.1111111111111111
 40
0.1111111111111111
 40
0.2222222222222222
 40
0.2222222222222222
 40
0.2222222222222222
 40
0.2222222222222222
 40
0.3333333333333333
 40
0.3333333333333333
 40
0.3333333333333333
 40
0.3333333333333333
 40
0.4444444444444444
 40
0.4444444444444444
 40
0.4444444444444444
 40
0.4444444444444444
 40
0.5555555555555556
 40
0.5555555555555556
 40
0.5555555555555556
 40
0.5555555555555556
 40
0.6666666666666667
 40
0.6666666666666667
 40
0.6666666666666667
 40
0.6666666666666667
 40
0.7777777777777779
 40
0.7777777777777779
 40
0.7777777777777779
 40
0.7777777777777779
 40
0.8888888888888891
 40
0.8888888888888891
 40
0.8888888888888891
 40
0.8888888888888891
 40
1.0
 40
1.0
 40
1.0
 40
1.0
 10
-17.5603031496063
 20
9.930917322834645
 30
0.0
 10
-17.5603031496063
 20
9.930917322834645
 30
0.0
 10
-17.5603031496063
 20
9.900350393700787
 30
0.0
 10
-17.5603031496063
 20
9.900350393700787
 30
0.0
 10
-17.5603031496063
 20
9.900350393700787
 30
0.0
 10
-17.5603031496063
 20
9.892090551181102
 30
0.0
 10
-17.55974409448819
 20
9.886133858267717
 30
0.0
 10
-17.55865748031496
 20
9.882515748031496
 30
0.0
 10
-17.55865748031496
 20
9.882515748031496
 30
0.0
 10
-17.55724409448819
 20
9.877775590551181
 30
0.0
 10
-17.55490551181103
 20
9.874188976377953
 30
0.0
 10
-17.55161417322835
 20
9.871787401574803
 30
0.0
 10
-17.55161417322835
 20
9.871787401574803
 30
0.0
 10
-17.54832677165354
 20
9.869385826771653
 30
0.0
 10
-17.5442125984252
 20
9.868169291338583
 30
0.0
 10
-17.53927559055118
 20
9.868169291338583
 30
0.0
 10
-17.53927559055118
 20
9.868169291338583
 30
0.0
 10
-17.5346062992126
 20
9.868169291338583
 30
0.0
 10
-17.53046062992126
 20
9.869287401574804
 30
0.0
 10
-17.52690551181102
 20
9.871523622047244
 30
0.0
 10
-17.52690551181102
 20
9.871523622047244
 30
0.0
 10
-17.5233188976378
 20
9.87379527559055
 30
0.0
 10
-17.52088582677165
 20
9.87701968503937
 30
0.0
 10
-17.51956692913386
 20
9.881165354330708
 30
0.0
 10
-17.51956692913386
 20
9.881165354330708
 30
0.0
 10
-17.51825196850394
 20
9.885346456692913
 30
0.0
 10
-17.51759448818898
 20
9.892515748031496
 30
0.0
 10
-17.51759448818898
 20
9.902685039370079
 30
0.0
 10
-17.51759448818898
 20
9.902685039370079
 30
0.0
 10
-17.51759448818898
 20
9.902685039370079
 30
0.0
 10
-17.51759448818898
 20
9.930917322834645
 30
0.0
 10
-17.51759448818898
 20
9.930917322834645
 30
0.0
 10
-17.51759448818898
 20
9.930917322834645
 30
0.0
 10
-17.51759448818898
 20
9.930917322834645
 30
0.0
 10
-17.5603031496063
 20
9.930917322834645
 30
0.0
 10
-17.5603031496063
 20
9.930917322834645
 30
0.0
  0
SPLINE
  5
C7
330
1F
100
AcDbEntity
  8
Layer 1
  6
New Line40
 62
     7
370
     9
100
AcDbSpline
210
0.0
220
0.0
230
1.0
 70
    11
 71
     3
 72
    44
 73
    40
 74
     0
 42
0.0000000001
 43
0.0000000001
 40
0.0
 40
0.0
 40
0.0
 40
0.0
 40
0.1
 40
0.1
 40
0.1
 40
0.1
 40
0.2
 40
0.2
 40
0.2
 40
0.2
 40
0.3
 40
0.3
 40
0.3
 40
0.3
 40
0.4
 40
0.4
 40
0.4
 40
0.4
 40
0.5
 40
0.5
 40
0.5
 40
0.5
 40
0.6
 40
0.6
 40
0.6
 40
0.6
 40
0.7
 40
0.7
 40
0.7
 40
0.7
 40
0.7999999999999999
 40
0.7999999999999999
 40
0.7999999999999999
 40
0.7999999999999999
 40
0.8999999999999999
 40
0.8999999999999999
 40
0.8999999999999999
 40
0.8999999999999999
 40
1.0
 40
1.0
 40
1.0
 40
1.0
 10
-17.62555118110236
 20
9.930917322834645
 30
0.0
 10
-17.62555118110236
 20
9.930917322834645
 30
0.0
 10
-17.62555118110236
 20
9.895740157480315
 30
0.0
 10
-17.62555118110236
 20
9.895740157480315
 30
0.0
 10
-17.62555118110236
 20
9.895740157480315
 30
0.0
 10
-17.62555118110236
 20
9.889688976377952
 30
0.0
 10
-17.6253188976378
 20
9.885444881889764
 30
0.0
 10
-17.6248937007874
 20
9.883007874015748
 30
0.0
 10
-17.6248937007874
 20
9.883007874015748
 30
0.0
 10
-17.62410236220472
 20
9.8786968503937
 30
0.0
 10
-17.6228188976378
 20
9.875110236220472
 30
0.0
 10
-17.62100787401575
 20
9.87221653543307
 30
0.0
 10
-17.62100787401575
 20
9.87221653543307
 30
0.0
 10
-17.61923228346457
 20
9.869318897637795
 30
0.0
 10
-17.61660236220472
 20
9.866952755905512
 30
0.0
 10
-17.61317716535433
 20
9.865074803149607
 30
0.0
 10
-17.61317716535433
 20
9.865074803149607
 30
0.0
 10
-17.60972440944882
 20
9.863232283464567
 30
0.0
 10
-17.60577559055118
 20
9.862279527559055
 30
0.0
 10
-17.60126771653543
 20
9.862279527559055
 30
0.0
 10
-17.60126771653543
 20
9.862279527559055
 30
0.0
 10
-17.59600393700788
 20
9.862279527559055
 30
0.0
 10
-17.59142913385827
 20
9.863629921259843
 30
0.0
 10
-17.58751181102362
 20
9.866326771653544
 30
0.0
 10
-17.58751181102362
 20
9.866326771653544
 30
0.0
 10
-17.58362992125984
 20
9.869023622047244
 30
0.0
 10
-17.58090157480315
 20
9.87277559055118
 30
0.0
 10
-17.57931889763779
 20
9.87757874015748
 30
0.0
 10
-17.57931889763779
 20
9.87757874015748
 30
0.0
 10
-17.57777559055118
 20
9.882350393700788
 30
0.0
 10
-17.5769842519685
 20
9.889259842519685
 30
0.0
 10
-17.5769842519685
 20
9.89824409448819
 30
0.0
 10
-17.5769842519685
 20
9.89824409448819
 30
0.0
 10
-17.5769842519685
 20
9.89824409448819
 30
0.0
 10
-17.5769842519685
 20
9.930917322834645
 30
0.0
 10
-17.5769842519685
 20
9.930917322834645
 30
0.0
 10
-17.5769842519685
 20
9.930917322834645
 30
0.0
 10
-17.5769842519685
 20
9.930917322834645
 30
0.0
 10
-17.62555118110236
 20
9.930917322834645
 30
0.0
 10
-17.62555118110236
 20
9.930917322834645
 30
0.0
  0
SPLINE
  5
C9
330
1F
100
AcDbEntity
  8
Layer 1
  6
New Line41
 62
     7
370
     9
100
AcDbSpline
210
0.0
220
0.0
230
1.0
 70
    11
 71
     3
 72
    20
 73
    16
 74
     0
 42
0.0000000001
 43
0.0000000001
 40
0.0
 40
0.0
 40
0.0
 40
0.0
 40
0.25
 40
0.25
 40
0.25
 40
0.25
 40
0.5
 40
0.5
 40
0.5
 40
0.5
 40
0.75
 40
0.75
 40
0.75
 40
0.75
 40
1.0
 40
1.0
 40
1.0
 40
1.0
 10
-17.64223228346457
 20
9.819767716535432
 30
0.0
 10
-17.64223228346457
 20
9.819767716535432
 30
0.0
 10
-17.50091338582677
 20
9.819767716535432
 30
0.0
 10
-17.50091338582677
 20
9.819767716535432
 30
0.0
 10
-17.50091338582677
 20
9.819767716535432
 30
0.0
 10
-17.50091338582677
 20
9.819767716535432
 30
0.0
 10
-17.50091338582677
 20
9.802425196850393
 30
0.0
 10
-17.50091338582677
 20
9.802425196850393
 30
0.0
 10
-17.50091338582677
 20
9.802425196850393
 30
0.0
 10
-17.50091338582677
 20
9.802425196850393
 30
0.0
 10
-17.64223228346457
 20
9.802425196850393
 30
0.0
 10
-17.64223228346457
 20
9.802425196850393
 30
0.0
 10
-17.64223228346457
 20
9.802425196850393
 30
0.0
 10
-17.64223228346457
 20
9.802425196850393
 30
0.0
 10
-17.64223228346457
 20
9.819767716535432
 30
0.0
 10
-17.64223228346457
 20
9.819767716535432
 30
0.0
  0
SPLINE
  5
CB
330
1F
100
AcDbEntity
  8
Layer 1
  6
New Line42
 62
     7
370
     9
100
AcDbSpline
210
0.0
220
0.0
230
1.0
 70
    11
 71
     3
 72
   112
 73
   108
 74
     0
 42
0.0000000001
 43
0.0000000001
 40
0.0
 40
0.0
 40
0.0
 40
0.0
 40
0.037037037037037
 40
0.037037037037037
 40
0.037037037037037
 40
0.037037037037037
 40
0.0740740740740741
 40
0.0740740740740741
 40
0.0740740740740741
 40
0.0740740740740741
 40
0.1111111111111111
 40
0.1111111111111111
 40
0.1111111111111111
 40
0.1111111111111111
 40
0.1481481481481481
 40
0.1481481481481481
 40
0.1481481481481481
 40
0.1481481481481481
 40
0.1851851851851852
 40
0.1851851851851852
 40
0.1851851851851852
 40
0.1851851851851852
 40
0.2222222222222222
 40
0.2222222222222222
 40
0.2222222222222222
 40
0.2222222222222222
 40
0.2592592592592592
 40
0.2592592592592592
 40
0.2592592592592592
 40
0.2592592592592592
 40
0.2962962962962963
 40
0.2962962962962963
 40
0.2962962962962963
 40
0.2962962962962963
 40
0.3333333333333333
 40
0.3333333333333333
 40
0.3333333333333333
 40
0.3333333333333333
 40
0.3703703703703703
 40
0.3703703703703703
 40
0.3703703703703703
 40
0.3703703703703703
 40
0.4074074074074074
 40
0.4074074074074074
 40
0.4074074074074074
 40
0.4074074074074074
 40
0.4444444444444444
 40
0.4444444444444444
 40
0.4444444444444444
 40
0.4444444444444444
 40
0.4814814814814815
 40
0.4814814814814815
 40
0.4814814814814815
 40
0.4814814814814815
 40
0.5185185185185185
 40
0.5185185185185185
 40
0.5185185185185185
 40
0.5185185185185185
 40
0.5555555555555556
 40
0.5555555555555556
 40
0.5555555555555556
 40
0.5555555555555556
 40
0.5925925925925926
 40
0.5925925925925926
 40
0.5925925925925926
 40
0.5925925925925926
 40
0.6296296296296295
 40
0.6296296296296295
 40
0.6296296296296295
 40
0.6296296296296295
 40
0.6666666666666665
 40
0.6666666666666665
 40
0.6666666666666665
 40
0.6666666666666665
 40
0.7037037037037035
 40
0.7037037037037035
 40
0.7037037037037035
 40
0.7037037037037035
 40
0.7407407407407405
 40
0.7407407407407405
 40
0.7407407407407405
 40
0.7407407407407405
 40
0.7777777777777775
 40
0.7777777777777775
 40
0.7777777777777775
 40
0.7777777777777775
 40
0.8148148148148144
 40
0.8148148148148144
 40
0.8148148148148144
 40
0.8148148148148144
 40
0.8518518518518514
 40
0.8518518518518514
 40
0.8518518518518514
 40
0.8518518518518514
 40
0.8888888888888884
 40
0.8888888888888884
 40
0.8888888888888884
 40
0.8888888888888884
 40
0.9259259259259254
 40
0.9259259259259254
 40
0.9259259259259254
 40
0.9259259259259254
 40
0.9629629629629624
 40
0.9629629629629624
 40
0.9629629629629624
 40
0.9629629629629624
 40
1.0
 40
1.0
 40
1.0
 40
1.0
 10
-17.62959842519685
 20
9.708716535433071
 30
0.0
 10
-17.63505905511811
 20
9.71516535433071
 30
0.0
 10
-17.6389094488189
 20
9.721350393700787
 30
0.0
 10
-17.6411811023622
 20
9.727271653543307
 30
0.0
 10
-17.6411811023622
 20
9.727271653543307
 30
0.0
 10
-17.64341732283465
 20
9.733228346456693
 30
0.0
 10
-17.64453543307087
 20
9.739610236220473
 30
0.0
 10
-17.64453543307087
 20
9.746421259842519
 30
0.0
 10
-17.64453543307087
 20
9.746421259842519
 30
0.0
 10
-17.64453543307087
 20
9.75767716535433
 30
0.0
 10
-17.6418031496063
 20
9.76629527559055
 30
0.0
 10
-17.63631102362205
 20
9.772350393700787
 30
0.0
 10
-17.63631102362205
 20
9.772350393700787
 30
0.0
 10
-17.63081496062992
 20
9.778374015748032
 30
0.0
 10
-17.62377165354331
 20
9.781397637795276
 30
0.0
 10
-17.61525196850394
 20
9.781397637795276
 30
0.0
 10
-17.61525196850394
 20
9.781397637795276
 30
0.0
 10
-17.61021653543307
 20
9.781397637795276
 30
0.0
 10
-17.60564173228347
 20
9.780279527559054
 30
0.0
 10
-17.60149606299213
 20
9.777976377952756
 30
0.0
 10
-17.60149606299213
 20
9.777976377952756
 30
0.0
 10
-17.59735039370079
 20
9.775708661417323
 30
0.0
 10
-17.59402755905512
 20
9.772712598425198
 30
0.0
 10
-17.59152755905512
 20
9.769027559055118
 30
0.0
 10
-17.59152755905512
 20
9.769027559055118
 30
0.0
 10
-17.58902755905512
 20
9.765311023622047
 30
0.0
 10
-17.58711811023622
 20
9.761165354330709
 30
0.0
 10
-17.58583464566929
 20
9.756523622047244
 30
0.0
 10
-17.58583464566929
 20
9.756523622047244
 30
0.0
 10
-17.58494881889764
 20
9.753133858267717
 30
0.0
 10
-17.58405905511811
 20
9.748003937007875
 30
0.0
 10
-17.58323622047244
 20
9.741125984251969
 30
0.0
 10
-17.58323622047244
 20
9.741125984251969
 30
0.0
 10
-17.58155905511811
 20
9.727110236220472
 30
0.0
 10
-17.57958267716536
 20
9.716775590551181
 30
0.0
 10
-17.57724803149606
 20
9.710161417322835
 30
0.0
 10
-17.57724803149606
 20
9.710161417322835
 30
0.0
 10
-17.57487795275591
 20
9.71009842519685
 30
0.0
 10
-17.57336614173228
 20
9.710062992125984
 30
0.0
 10
-17.57274015748031
 20
9.710062992125984
 30
0.0
 10
-17.57274015748031
 20
9.710062992125984
 30
0.0
 10
-17.56566535433071
 20
9.710062992125984
 30
0.0
 10
-17.56066535433071
 20
9.711708661417322
 30
0.0
 10
-17.5578031496063
 20
9.715
 30
0.0
 10
-17.5578031496063
 20
9.715
 30
0.0
 10
-17.55385433070866
 20
9.719409448818897
 30
0.0
 10
-17.55191338582677
 20
9.726023622047244
 30
0.0
 10
-17.55191338582677
 20
9.734740157480315
 30
0.0
 10
-17.55191338582677
 20
9.734740157480315
 30
0.0
 10
-17.55191338582677
 20
9.742901574803149
 30
0.0
 10
-17.55332677165354
 20
9.748925196850394
 30
0.0
 10
-17.55618897637795
 20
9.752838582677166
 30
0.0
 10
-17.55618897637795
 20
9.752838582677166
 30
0.0
 10
-17.55905118110236
 20
9.756720472440945
 30
0.0
 10
-17.56411811023622
 20
9.759582677165355
 30
0.0
 10
-17.57138976377953
 20
9.76146062992126
 30
0.0
 10
-17.57138976377953
 20
9.76146062992126
 30
0.0
 10
-17.57138976377953
 20
9.76146062992126
 30
0.0
 10
-17.56905511811024
 20
9.778405511811023
 30
0.0
 10
-17.56905511811024
 20
9.778405511811023
 30
0.0
 10
-17.56905511811024
 20
9.778405511811023
 30
0.0
 10
-17.56181496062992
 20
9.776858267716536
 30
0.0
 10
-17.55592519685039
 20
9.774326771653543
 30
0.0
 10
-17.5514842519685
 20
9.7708031496063
 30
0.0
 10
-17.5514842519685
 20
9.7708031496063
 30
0.0
 10
-17.54700787401575
 20
9.76728346456693
 30
0.0
 10
-17.54355511811024
 20
9.762149606299213
 30
0.0
 10
-17.54115354330709
 20
9.755472440944882
 30
0.0
 10
-17.54115354330709
 20
9.755472440944882
 30
0.0
 10
-17.53875196850394
 20
9.748791338582677
 30
0.0
 10
-17.53753149606299
 20
9.74105905511811
 30
0.0
 10
-17.53753149606299
 20
9.732240157480314
 30
0.0
 10
-17.53753149606299
 20
9.732240157480314
 30
0.0
 10
-17.53753149606299
 20
9.723488188976377
 30
0.0
 10
-17.53858661417323
 20
9.716413385826772
 30
0.0
 10
-17.54062598425197
 20
9.710952755905511
 30
0.0
 10
-17.54062598425197
 20
9.710952755905511
 30
0.0
 10
-17.54270078740158
 20
9.705492125984252
 30
0.0
 10
-17.54526377952756
 20
9.701476377952757
 30
0.0
 10
-17.54838976377953
 20
9.698877952755906
 30
0.0
 10
-17.54838976377953
 20
9.698877952755906
 30
0.0
 10
-17.55151574803149
 20
9.696311023622048
 30
0.0
 10
-17.55543307086614
 20
9.694535433070866
 30
0.0
 10
-17.56020472440945
 20
9.69348031496063
 30
0.0
 10
-17.56020472440945
 20
9.69348031496063
 30
0.0
 10
-17.56316535433071
 20
9.69292125984252
 30
0.0
 10
-17.56849606299212
 20
9.692625984251968
 30
0.0
 10
-17.57619291338583
 20
9.692625984251968
 30
0.0
 10
-17.57619291338583
 20
9.692625984251968
 30
0.0
 10
-17.57619291338583
 20
9.692625984251968
 30
0.0
 10
-17.59932677165354
 20
9.692625984251968
 30
0.0
 10
-17.59932677165354
 20
9.692625984251968
 30
0.0
 10
-17.59932677165354
 20
9.692625984251968
 30
0.0
 10
-17.61548031496063
 20
9.692625984251968
 30
0.0
 10
-17.6256811023622
 20
9.69226377952756
 30
0.0
 10
-17.62992519685039
 20
9.691507874015748
 30
0.0
 10
-17.62992519685039
 20
9.691507874015748
 30
0.0
 10
-17.63420472440945
 20
9.690783464566929
 30
0.0
 10
-17.63831496062992
 20
9.6893031496063
 30
0.0
 10
-17.64223228346457
 20
9.687129921259842
 30
0.0
 10
-17.64223228346457
 20
9.687129921259842
 30
0.0
 10
-17.64223228346457
 20
9.687129921259842
 30
0.0
 10
-17.64223228346457
 20
9.705259842519686
 30
0.0
 10
-17.64223228346457
 20
9.705259842519686
 30
0.0
 10
-17.64223228346457
 20
9.705259842519686
 30
0.0
 10
-17.63864566929134
 20
9.707035433070866
 30
0.0
 10
-17.63443307086614
 20
9.708220472440946
 30
0.0
 10
-17.62959842519685
 20
9.708716535433071
 30
0.0
  0
SPLINE
  5
CD
330
1F
100
AcDbEntity
  8
Layer 1
  6
New Line43
 62
     7
370
     9
100
AcDbSpline
210
0.0
220
0.0
230
1.0
 70
    11
 71
     3
 72
    44
 73
    40
 74
     0
 42
0.0000000001
 43
0.0000000001
 40
0.0
 40
0.0
 40
0.0
 40
0.0
 40
0.1
 40
0.1
 40
0.1
 40
0.1
 40
0.2
 40
0.2
 40
0.2
 40
0.2
 40
0.3
 40
0.3
 40
0.3
 40
0.3
 40
0.4
 40
0.4
 40
0.4
 40
0.4
 40
0.5
 40
0.5
 40
0.5
 40
0.5
 40
0.6
 40
0.6
 40
0.6
 40
0.6
 40
0.7
 40
0.7
 40
0.7
 40
0.7
 40
0.7999999999999999
 40
0.7999999999999999
 40
0.7999999999999999
 40
0.7999999999999999
 40
0.8999999999999999
 40
0.8999999999999999
 40
0.8999999999999999
 40
0.8999999999999999
 40
1.0
 40
1.0
 40
1.0
 40
1.0
 10
-17.59083858267716
 20
9.710161417322835
 30
0.0
 10
-17.59343700787402
 20
9.71648031496063
 30
0.0
 10
-17.5956062992126
 20
9.725925196850394
 30
0.0
 10
-17.59741732283464
 20
9.738492125984251
 30
0.0
 10
-17.59741732283464
 20
9.738492125984251
 30
0.0
 10
-17.59843700787401
 20
9.745633858267716
 30
0.0
 10
-17.5995905511811
 20
9.750700787401575
 30
0.0
 10
-17.60087401574803
 20
9.753629921259842
 30
0.0
 10
-17.60087401574803
 20
9.753629921259842
 30
0.0
 10
-17.60215748031496
 20
9.756590551181102
 30
0.0
 10
-17.60403149606299
 20
9.758893700787402
 30
0.0
 10
-17.60653149606299
 20
9.760472440944882
 30
0.0
 10
-17.60653149606299
 20
9.760472440944882
 30
0.0
 10
-17.609
 20
9.762086614173228
 30
0.0
 10
-17.61173228346457
 20
9.762909448818897
 30
0.0
 10
-17.61475590551181
 20
9.762909448818897
 30
0.0
 10
-17.61475590551181
 20
9.762909448818897
 30
0.0
 10
-17.61939763779528
 20
9.762909448818897
 30
0.0
 10
-17.62324803149606
 20
9.761129921259842
 30
0.0
 10
-17.62633858267716
 20
9.757641732283465
 30
0.0
 10
-17.62633858267716
 20
9.757641732283465
 30
0.0
 10
-17.62940157480315
 20
9.754153543307087
 30
0.0
 10
-17.63094488188976
 20
9.749023622047243
 30
0.0
 10
-17.63094488188976
 20
9.74227559055118
 30
0.0
 10
-17.63094488188976
 20
9.74227559055118
 30
0.0
 10
-17.63094488188976
 20
9.73559842519685
 30
0.0
 10
-17.6295
 20
9.729641732283465
 30
0.0
 10
-17.62657086614173
 20
9.724444881889763
 30
0.0
 10
-17.62657086614173
 20
9.724444881889763
 30
0.0
 10
-17.62364173228346
 20
9.71924409448819
 30
0.0
 10
-17.61962598425197
 20
9.715393700787402
 30
0.0
 10
-17.61455905511811
 20
9.712960629921259
 30
0.0
 10
-17.61455905511811
 20
9.712960629921259
 30
0.0
 10
-17.61064566929134
 20
9.711082677165354
 30
0.0
 10
-17.60485433070866
 20
9.710161417322835
 30
0.0
 10
-17.59722047244095
 20
9.710161417322835
 30
0.0
 10
-17.59722047244095
 20
9.710161417322835
 30
0.0
 10
-17.59722047244095
 20
9.710161417322835
 30
0.0
 10
-17.59083858267716
 20
9.710161417322835
 30
0.0
 10
-17.59083858267716
 20
9.710161417322835
 30
0.0
  0
SPLINE
  5
CF
330
1F
100
AcDbEntity
  8
Layer 1
  6
New Line44
 62
     7
370
     9
100
AcDbSpline
210
0.0
220
0.0
230
1.0
 70
    11
 71
     3
 72
    80
 73
    76
 74
     0
 42
0.0000000001
 43
0.0000000001
 40
0.0
 40
0.0
 40
0.0
 40
0.0
 40
0.0526315789473684
 40
0.0526315789473684
 40
0.0526315789473684
 40
0.0526315789473684
 40
0.1052631578947368
 40
0.1052631578947368
 40
0.1052631578947368
 40
0.1052631578947368
 40
0.1578947368421053
 40
0.1578947368421053
 40
0.1578947368421053
 40
0.1578947368421053
 40
0.2105263157894737
 40
0.2105263157894737
 40
0.2105263157894737
 40
0.2105263157894737
 40
0.2631578947368421
 40
0.2631578947368421
 40
0.2631578947368421
 40
0.2631578947368421
 40
0.3157894736842105
 40
0.3157894736842105
 40
0.3157894736842105
 40
0.3157894736842105
 40
0.3684210526315789
 40
0.3684210526315789
 40
0.3684210526315789
 40
0.3684210526315789
 40
0.4210526315789473
 40
0.4210526315789473
 40
0.4210526315789473
 40
0.4210526315789473
 40
0.4736842105263158
 40
0.4736842105263158
 40
0.4736842105263158
 40
0.4736842105263158
 40
0.5263157894736842
 40
0.5263157894736842
 40
0.5263157894736842
 40
0.5263157894736842
 40
0.5789473684210527
 40
0.5789473684210527
 40
0.5789473684210527
 40
0.5789473684210527
 40
0.631578947368421
 40
0.631578947368421
 40
0.631578947368421
 40
0.631578947368421
 40
0.6842105263157894
 40
0.6842105263157894
 40
0.6842105263157894
 40
0.6842105263157894
 40
0.7368421052631577
 40
0.7368421052631577
 40
0.7368421052631577
 40
0.7368421052631577
 40
0.7894736842105261
 40
0.7894736842105261
 40
0.7894736842105261
 40
0.7894736842105261
 40
0.8421052631578945
 40
0.8421052631578945
 40
0.8421052631578945
 40
0.8421052631578945
 40
0.8947368421052628
 40
0.8947368421052628
 40
0.8947368421052628
 40
0.8947368421052628
 40
0.9473684210526312
 40
0.9473684210526312
 40
0.9473684210526312
 40
0.9473684210526312
 40
1.0
 40
1.0
 40
1.0
 40
1.0
 10
-17.60472047244095
 20
9.598917322834646
 30
0.0
 10
-17.60472047244095
 20
9.598917322834646
 30
0.0
 10
-17.60696062992126
 20
9.581874015748031
 30
0.0
 10
-17.60696062992126
 20
9.581874015748031
 30
0.0
 10
-17.60696062992126
 20
9.581874015748031
 30
0.0
 10
-17.61870472440945
 20
9.583716535433071
 30
0.0
 10
-17.62791732283464
 20
9.588484251968504
 30
0.0
 10
-17.63456692913386
 20
9.596185039370079
 30
0.0
 10
-17.63456692913386
 20
9.596185039370079
 30
0.0
 10
-17.6412125984252
 20
9.603850393700787
 30
0.0
 10
-17.64453543307087
 20
9.61329527559055
 30
0.0
 10
-17.64453543307087
 20
9.62448031496063
 30
0.0
 10
-17.64453543307087
 20
9.62448031496063
 30
0.0
 10
-17.64453543307087
 20
9.638464566929134
 30
0.0
 10
-17.63996062992126
 20
9.649751968503937
 30
0.0
 10
-17.63081496062992
 20
9.658240157480314
 30
0.0
 10
-17.63081496062992
 20
9.658240157480314
 30
0.0
 10
-17.62166929133858
 20
9.666763779527558
 30
0.0
 10
-17.60853937007874
 20
9.67103937007874
 30
0.0
 10
-17.59142913385827
 20
9.67103937007874
 30
0.0
 10
-17.59142913385827
 20
9.67103937007874
 30
0.0
 10
-17.58037401574803
 20
9.67103937007874
 30
0.0
 10
-17.57070078740157
 20
9.669196850393702
 30
0.0
 10
-17.5624094488189
 20
9.665547244094489
 30
0.0
 10
-17.5624094488189
 20
9.665547244094489
 30
0.0
 10
-17.55411811023622
 20
9.66186220472441
 30
0.0
 10
-17.54789763779528
 20
9.656299212598425
 30
0.0
 10
-17.54375196850394
 20
9.648799212598425
 30
0.0
 10
-17.54375196850394
 20
9.648799212598425
 30
0.0
 10
-17.5396062992126
 20
9.641330708661418
 30
0.0
 10
-17.53753149606299
 20
9.633169291338582
 30
0.0
 10
-17.53753149606299
 20
9.624381889763779
 30
0.0
 10
-17.53753149606299
 20
9.624381889763779
 30
0.0
 10
-17.53753149606299
 20
9.613263779527559
 30
0.0
 10
-17.54036220472441
 20
9.604149606299213
 30
0.0
 10
-17.54598818897638
 20
9.597106299212598
 30
0.0
 10
-17.54598818897638
 20
9.597106299212598
 30
0.0
 10
-17.55161417322835
 20
9.590031496062991
 30
0.0
 10
-17.55957874015748
 20
9.585492125984253
 30
0.0
 10
-17.56994488188976
 20
9.583484251968503
 30
0.0
 10
-17.56994488188976
 20
9.583484251968503
 30
0.0
 10
-17.56994488188976
 20
9.583484251968503
 30
0.0
 10
-17.57254330708662
 20
9.600362204724409
 30
0.0
 10
-17.57254330708662
 20
9.600362204724409
 30
0.0
 10
-17.57254330708662
 20
9.600362204724409
 30
0.0
 10
-17.56566535433071
 20
9.601976377952756
 30
0.0
 10
-17.5605
 20
9.604807086614173
 30
0.0
 10
-17.55701181102362
 20
9.608885826771653
 30
0.0
 10
-17.55701181102362
 20
9.608885826771653
 30
0.0
 10
-17.55355905511811
 20
9.612964566929135
 30
0.0
 10
-17.55181496062992
 20
9.617901574803149
 30
0.0
 10
-17.55181496062992
 20
9.623692913385828
 30
0.0
 10
-17.55181496062992
 20
9.623692913385828
 30
0.0
 10
-17.55181496062992
 20
9.632444881889764
 30
0.0
 10
-17.55494094488189
 20
9.639551181102362
 30
0.0
 10
-17.56122440944882
 20
9.645015748031495
 30
0.0
 10
-17.56122440944882
 20
9.645015748031495
 30
0.0
 10
-17.56747637795275
 20
9.650476377952756
 30
0.0
 10
-17.57737795275591
 20
9.653208661417322
 30
0.0
 10
-17.59093700787401
 20
9.653208661417322
 30
0.0
 10
-17.59093700787401
 20
9.653208661417322
 30
0.0
 10
-17.60468897637795
 20
9.653208661417322
 30
0.0
 10
-17.61469291338583
 20
9.650574803149606
 30
0.0
 10
-17.62094488188976
 20
9.645275590551181
 30
0.0
 10
-17.62094488188976
 20
9.645275590551181
 30
0.0
 10
-17.62716141732284
 20
9.640011811023623
 30
0.0
 10
-17.6302874015748
 20
9.63313779527559
 30
0.0
 10
-17.6302874015748
 20
9.624645669291338
 30
0.0
 10
-17.6302874015748
 20
9.624645669291338
 30
0.0
 10
-17.6302874015748
 20
9.61783464566929
 30
0.0
 10
-17.62818110236221
 20
9.61217716535433
 30
0.0
 10
-17.62400393700787
 20
9.607602362204725
 30
0.0
 10
-17.62400393700787
 20
9.607602362204725
 30
0.0
 10
-17.61982677165354
 20
9.603027559055118
 30
0.0
 10
-17.6134094488189
 20
9.600133858267716
 30
0.0
 10
-17.60472047244095
 20
9.598917322834646
 30
0.0
  0
SPLINE
  5
D1
330
1F
100
AcDbEntity
  8
Layer 1
  6
New Line45
 62
     7
370
     9
100
AcDbSpline
210
0.0
220
0.0
230
1.0
 70
    11
 71
     3
 72
    52
 73
    48
 74
     0
 42
0.0000000001
 43
0.0000000001
 40
0.0
 40
0.0
 40
0.0
 40
0.0
 40
0.0833333333333333
 40
0.0833333333333333
 40
0.0833333333333333
 40
0.0833333333333333
 40
0.1666666666666667
 40
0.1666666666666667
 40
0.1666666666666667
 40
0.1666666666666667
 40
0.25
 40
0.25
 40
0.25
 40
0.25
 40
0.3333333333333333
 40
0.3333333333333333
 40
0.3333333333333333
 40
0.3333333333333333
 40
0.4166666666666666
 40
0.4166666666666666
 40
0.4166666666666666
 40
0.4166666666666666
 40
0.4999999999999999
 40
0.4999999999999999
 40
0.4999999999999999
 40
0.4999999999999999
 40
0.5833333333333333
 40
0.5833333333333333
 40
0.5833333333333333
 40
0.5833333333333333
 40
0.6666666666666666
 40
0.6666666666666666
 40
0.6666666666666666
 40
0.6666666666666666
 40
0.75
 40
0.75
 40
0.75
 40
0.75
 40
0.8333333333333334
 40
0.8333333333333334
 40
0.8333333333333334
 40
0.8333333333333334
 40
0.9166666666666667
 40
0.9166666666666667
 40
0.9166666666666667
 40
0.9166666666666667
 40
1.0
 40
1.0
 40
1.0
 40
1.0
 10
-17.64223228346457
 20
9.566937007874015
 30
0.0
 10
-17.64223228346457
 20
9.566937007874015
 30
0.0
 10
-17.50091338582677
 20
9.566937007874015
 30
0.0
 10
-17.50091338582677
 20
9.566937007874015
 30
0.0
 10
-17.50091338582677
 20
9.566937007874015
 30
0.0
 10
-17.50091338582677
 20
9.566937007874015
 30
0.0
 10
-17.50091338582677
 20
9.549562992125985
 30
0.0
 10
-17.50091338582677
 20
9.549562992125985
 30
0.0
 10
-17.50091338582677
 20
9.549562992125985
 30
0.0
 10
-17.50091338582677
 20
9.549562992125985
 30
0.0
 10
-17.58149212598425
 20
9.549562992125985
 30
0.0
 10
-17.58149212598425
 20
9.549562992125985
 30
0.0
 10
-17.58149212598425
 20
9.549562992125985
 30
0.0
 10
-17.58149212598425
 20
9.549562992125985
 30
0.0
 10
-17.53987007874016
 20
9.5085
 30
0.0
 10
-17.53987007874016
 20
9.5085
 30
0.0
 10
-17.53987007874016
 20
9.5085
 30
0.0
 10
-17.53987007874016
 20
9.5085
 30
0.0
 10
-17.53987007874016
 20
9.48605905511811
 30
0.0
 10
-17.53987007874016
 20
9.48605905511811
 30
0.0
 10
-17.53987007874016
 20
9.48605905511811
 30
0.0
 10
-17.53987007874016
 20
9.48605905511811
 30
0.0
 10
-17.57783858267717
 20
9.525181102362204
 30
0.0
 10
-17.57783858267717
 20
9.525181102362204
 30
0.0
 10
-17.57783858267717
 20
9.525181102362204
 30
0.0
 10
-17.57783858267717
 20
9.525181102362204
 30
0.0
 10
-17.64223228346457
 20
9.48207874015748
 30
0.0
 10
-17.64223228346457
 20
9.48207874015748
 30
0.0
 10
-17.64223228346457
 20
9.48207874015748
 30
0.0
 10
-17.64223228346457
 20
9.48207874015748
 30
0.0
 10
-17.64223228346457
 20
9.503496062992125
 30
0.0
 10
-17.64223228346457
 20
9.503496062992125
 30
0.0
 10
-17.64223228346457
 20
9.503496062992125
 30
0.0
 10
-17.64223228346457
 20
9.503496062992125
 30
0.0
 10
-17.58988188976378
 20
9.53732283464567
 30
0.0
 10
-17.58988188976378
 20
9.53732283464567
 30
0.0
 10
-17.58988188976378
 20
9.53732283464567
 30
0.0
 10
-17.58988188976378
 20
9.53732283464567
 30
0.0
 10
-17.60166141732283
 20
9.549562992125985
 30
0.0
 10
-17.60166141732283
 20
9.549562992125985
 30
0.0
 10
-17.60166141732283
 20
9.549562992125985
 30
0.0
 10
-17.60166141732283
 20
9.549562992125985
 30
0.0
 10
-17.64223228346457
 20
9.549562992125985
 30
0.0
 10
-17.64223228346457
 20
9.549562992125985
 30
0.0
 10
-17.64223228346457
 20
9.549562992125985
 30
0.0
 10
-17.64223228346457
 20
9.549562992125985
 30
0.0
 10
-17.64223228346457
 20
9.566937007874015
 30
0.0
 10
-17.64223228346457
 20
9.566937007874015
 30
0.0
  0
SPLINE
  5
D3
330
1F
100
AcDbEntity
  8
Layer 1
 62
   250
370
     9
100
AcDbSpline
210
0.0
220
0.0
230
1.0
 70
     8
 71
     3
 72
    36
 73
    32
 74
     0
 42
0.0000000001
 43
0.0000000001
 40
0.0
 40
0.0
 40
0.0
 40
0.0
 40
0.125
 40
0.125
 40
0.125
 40
0.125
 40
0.25
 40
0.25
 40
0.25
 40
0.25
 40
0.375
 40
0.375
 40
0.375
 40
0.375
 40
0.5
 40
0.5
 40
0.5
 40
0.5
 40
0.625
 40
0.625
 40
0.625
 40
0.625
 40
0.75
 40
0.75
 40
0.75
 40
0.75
 40
0.875
 40
0.875
 40
0.875
 40
0.875
 40
1.0
 40
1.0
 40
1.0
 40
1.0
 10
-16.31706692913386
 20
10.89810236220472
 30
0.0
 10
-16.31706692913386
 20
10.89810236220472
 30
0.0
 10
-15.83527165354331
 20
10.89689763779528
 30
0.0
 10
-15.83527165354331
 20
10.89689763779528
 30
0.0
 10
-15.83527165354331
 20
10.89689763779528
 30
0.0
 10
-15.67691732283465
 20
10.88334645669291
 30
0.0
 10
-15.57305511811024
 20
10.70886614173228
 30
0.0
 10
-15.57330708661417
 20
10.56895669291339
 30
0.0
 10
-15.57330708661417
 20
10.56895669291339
 30
0.0
 10
-15.57357480314961
 20
10.42106692913386
 30
0.0
 10
-15.64835433070866
 20
10.23141338582677
 30
0.0
 10
-15.83651968503937
 20
10.21179921259843
 30
0.0
 10
-15.83651968503937
 20
10.21179921259843
 30
0.0
 10
-15.83651968503937
 20
10.21179921259843
 30
0.0
 10
-16.36149606299212
 20
10.21071653543307
 30
0.0
 10
-16.36149606299212
 20
10.21071653543307
 30
0.0
 10
-16.36149606299212
 20
10.21071653543307
 30
0.0
 10
-16.36149606299212
 20
10.21071653543307
 30
0.0
 10
-16.36305511811024
 20
10.23190551181102
 30
0.0
 10
-16.36305511811024
 20
10.23190551181102
 30
0.0
 10
-16.36305511811024
 20
10.23190551181102
 30
0.0
 10
-16.3408188976378
 20
10.24666141732284
 30
0.0
 10
-16.32874015748031
 20
10.26497637795276
 30
0.0
 10
-16.35295669291338
 20
10.29601968503937
 30
0.0
 10
-16.35295669291338
 20
10.29601968503937
 30
0.0
 10
-16.32860236220472
 20
10.29718897637795
 30
0.0
 10
-16.34344488188976
 20
10.3401062992126
 30
0.0
 10
-16.33226771653543
 20
10.35661811023622
 30
0.0
 10
-16.33226771653543
 20
10.35661811023622
 30
0.0
 10
-16.34030708661417
 20
10.37231102362205
 30
0.0
 10
-16.3311968503937
 20
10.3830905511811
 30
0.0
 10
-16.33066535433071
 20
10.39632283464567
 30
0.0
  0
SPLINE
  5
D4
330
1F
100
AcDbEntity
  8
Layer 1
 62
   250
370
     9
100
AcDbSpline
210
0.0
220
0.0
230
1.0
 70
     8
 71
     3
 72
    72
 73
    68
 74
     0
 42
0.0000000001
 43
0.0000000001
 40
0.0
 40
0.0
 40
0.0
 40
0.0
 40
0.0588235294117647
 40
0.0588235294117647
 40
0.0588235294117647
 40
0.0588235294117647
 40
0.1176470588235294
 40
0.1176470588235294
 40
0.1176470588235294
 40
0.1176470588235294
 40
0.1764705882352941
 40
0.1764705882352941
 40
0.1764705882352941
 40
0.1764705882352941
 40
0.2352941176470588
 40
0.2352941176470588
 40
0.2352941176470588
 40
0.2352941176470588
 40
0.2941176470588235
 40
0.2941176470588235
 40
0.2941176470588235
 40
0.2941176470588235
 40
0.3529411764705883
 40
0.3529411764705883
 40
0.3529411764705883
 40
0.3529411764705883
 40
0.411764705882353
 40
0.411764705882353
 40
0.411764705882353
 40
0.411764705882353
 40
0.4705882352941177
 40
0.4705882352941177
 40
0.4705882352941177
 40
0.4705882352941177
 40
0.5294117647058824
 40
0.5294117647058824
 40
0.5294117647058824
 40
0.5294117647058824
 40
0.5882352941176471
 40
0.5882352941176471
 40
0.5882352941176471
 40
0.5882352941176471
 40
0.6470588235294118
 40
0.6470588235294118
 40
0.6470588235294118
 40
0.6470588235294118
 40
0.7058823529411765
 40
0.7058823529411765
 40
0.7058823529411765
 40
0.7058823529411765
 40
0.7647058823529412
 40
0.7647058823529412
 40
0.7647058823529412
 40
0.7647058823529412
 40
0.823529411764706
 40
0.823529411764706
 40
0.823529411764706
 40
0.823529411764706
 40
0.8823529411764707
 40
0.8823529411764707
 40
0.8823529411764707
 40
0.8823529411764707
 40
0.9411764705882354
 40
0.9411764705882354
 40
0.9411764705882354
 40
0.9411764705882354
 40
1.0
 40
1.0
 40
1.0
 40
1.0
 10
-16.33066535433071
 20
10.39632283464567
 30
0.0
 10
-16.29613779527559
 20
10.3932874015748
 30
0.0
 10
-16.2601811023622
 20
10.39606299212598
 30
0.0
 10
-16.22293307086614
 20
10.40746456692913
 30
0.0
 10
-16.22293307086614
 20
10.40746456692913
 30
0.0
 10
-16.22231496062992
 20
10.43285039370079
 30
0.0
 10
-16.21802362204724
 20
10.45792913385827
 30
0.0
 10
-16.22107874015748
 20
10.4836220472441
 30
0.0
 10
-16.22107874015748
 20
10.4836220472441
 30
0.0
 10
-16.22137007874016
 20
10.48608267716535
 30
0.0
 10
-16.21557086614173
 20
10.48799606299213
 30
0.0
 10
-16.21364566929134
 20
10.48919291338583
 30
0.0
 10
-16.21364566929134
 20
10.48919291338583
 30
0.0
 10
-16.2105748031496
 20
10.49110236220472
 30
0.0
 10
-16.2096220472441
 20
10.48047244094488
 30
0.0
 10
-16.20621653543307
 20
10.4836220472441
 30
0.0
 10
-16.20621653543307
 20
10.4836220472441
 30
0.0
 10
-16.19931496062992
 20
10.49000393700787
 30
0.0
 10
-16.17464960629921
 20
10.48213385826772
 30
0.0
 10
-16.15977952755906
 20
10.49105118110236
 30
0.0
 10
-16.15977952755906
 20
10.49105118110236
 30
0.0
 10
-16.16692125984252
 20
10.53523228346457
 30
0.0
 10
-16.17882283464567
 20
10.57958661417323
 30
0.0
 10
-16.21364566929134
 20
10.6247874015748
 30
0.0
 10
-16.21364566929134
 20
10.6247874015748
 30
0.0
 10
-16.21798031496063
 20
10.62726377952756
 30
0.0
 10
-16.22448425196851
 20
10.62772440944882
 30
0.0
 10
-16.22664960629921
 20
10.63221653543307
 30
0.0
 10
-16.22664960629921
 20
10.63221653543307
 30
0.0
 10
-16.23238582677165
 20
10.64411811023622
 30
0.0
 10
-16.22545275590551
 20
10.64803543307087
 30
0.0
 10
-16.23036220472441
 20
10.66193700787402
 30
0.0
 10
-16.23036220472441
 20
10.66193700787402
 30
0.0
 10
-16.23449212598425
 20
10.68327559055118
 30
0.0
 10
-16.26801968503937
 20
10.70000787401575
 30
0.0
 10
-16.27122834645669
 20
10.71766141732284
 30
0.0
 10
-16.27122834645669
 20
10.71766141732284
 30
0.0
 10
-16.27602362204724
 20
10.73285039370079
 30
0.0
 10
-16.27755118110236
 20
10.75067716535433
 30
0.0
 10
-16.27429921259843
 20
10.77237007874016
 30
0.0
 10
-16.27429921259843
 20
10.77237007874016
 30
0.0
 10
-16.27429921259843
 20
10.77237007874016
 30
0.0
 10
-16.26751181102362
 20
10.79010236220472
 30
0.0
 10
-16.26751181102362
 20
10.79010236220472
 30
0.0
 10
-16.26751181102362
 20
10.79010236220472
 30
0.0
 10
-16.26751181102362
 20
10.79010236220472
 30
0.0
 10
-16.17556692913386
 20
10.79485433070866
 30
0.0
 10
-16.17556692913386
 20
10.79485433070866
 30
0.0
 10
-16.17556692913386
 20
10.79485433070866
 30
0.0
 10
-16.17556692913386
 20
10.79485433070866
 30
0.0
 10
-16.17464173228347
 20
10.80124409448819
 30
0.0
 10
-16.17464173228347
 20
10.80124409448819
 30
0.0
 10
-16.17464173228347
 20
10.80124409448819
 30
0.0
 10
-16.17464173228347
 20
10.80124409448819
 30
0.0
 10
-16.26751181102362
 20
10.79567322834646
 30
0.0
 10
-16.26751181102362
 20
10.79567322834646
 30
0.0
 10
-16.26751181102362
 20
10.79567322834646
 30
0.0
 10
-16.26751181102362
 20
10.79567322834646
 30
0.0
 10
-16.28273228346457
 20
10.82229921259843
 30
0.0
 10
-16.28273228346457
 20
10.82229921259843
 30
0.0
 10
-16.28273228346457
 20
10.82229921259843
 30
0.0
 10
-16.29238188976378
 20
10.84318897637795
 30
0.0
 10
-16.30053543307087
 20
10.86899212598425
 30
0.0
 10
-16.32275984251968
 20
10.87438188976378
 30
0.0
 10
-16.32275984251968
 20
10.87438188976378
 30
0.0
 10
-16.32275984251968
 20
10.87438188976378
 30
0.0
 10
-16.31706692913386
 20
10.89810236220472
 30
0.0
 10
-16.31706692913386
 20
10.89810236220472
 30
0.0
  0
SPLINE
  5
D5
330
1F
100
AcDbEntity
  8
Layer 1
 62
   250
370
     9
100
AcDbSpline
210
0.0
220
0.0
230
1.0
 70
     8
 71
     3
 72
    32
 73
    28
 74
     0
 42
0.0000000001
 43
0.0000000001
 40
0.0
 40
0.0
 40
0.0
 40
0.0
 40
0.1428571428571428
 40
0.1428571428571428
 40
0.1428571428571428
 40
0.1428571428571428
 40
0.2857142857142857
 40
0.2857142857142857
 40
0.2857142857142857
 40
0.2857142857142857
 40
0.4285714285714285
 40
0.4285714285714285
 40
0.4285714285714285
 40
0.4285714285714285
 40
0.5714285714285714
 40
0.5714285714285714
 40
0.5714285714285714
 40
0.5714285714285714
 40
0.7142857142857142
 40
0.7142857142857142
 40
0.7142857142857142
 40
0.7142857142857142
 40
0.857142857142857
 40
0.857142857142857
 40
0.857142857142857
 40
0.857142857142857
 40
1.0
 40
1.0
 40
1.0
 40
1.0
 10
-16.35206299212598
 20
10.87566929133858
 30
0.0
 10
-16.35206299212598
 20
10.87566929133858
 30
0.0
 10
-16.35629527559055
 20
10.89810236220472
 30
0.0
 10
-16.35629527559055
 20
10.89810236220472
 30
0.0
 10
-16.35629527559055
 20
10.89810236220472
 30
0.0
 10
-16.35629527559055
 20
10.89810236220472
 30
0.0
 10
-16.98162598425197
 20
10.89750393700787
 30
0.0
 10
-16.98162598425197
 20
10.89750393700787
 30
0.0
 10
-16.98162598425197
 20
10.89750393700787
 30
0.0
 10
-17.15153937007874
 20
10.88579133858268
 30
0.0
 10
-17.24535826771654
 20
10.70949606299213
 30
0.0
 10
-17.25070472440945
 20
10.56772047244094
 30
0.0
 10
-17.25070472440945
 20
10.56772047244094
 30
0.0
 10
-17.25631102362205
 20
10.41900393700787
 30
0.0
 10
-17.16115354330709
 20
10.22549212598425
 30
0.0
 10
-16.98777559055118
 20
10.21183070866142
 30
0.0
 10
-16.98777559055118
 20
10.21183070866142
 30
0.0
 10
-16.98777559055118
 20
10.21183070866142
 30
0.0
 10
-16.54833070866142
 20
10.21071653543307
 30
0.0
 10
-16.54833070866142
 20
10.21071653543307
 30
0.0
 10
-16.54833070866142
 20
10.21071653543307
 30
0.0
 10
-16.54833070866142
 20
10.21071653543307
 30
0.0
 10
-16.54833070866142
 20
10.25774409448819
 30
0.0
 10
-16.54833070866142
 20
10.25774409448819
 30
0.0
 10
-16.54833070866142
 20
10.25774409448819
 30
0.0
 10
-16.57893307086614
 20
10.26605511811024
 30
0.0
 10
-16.57927952755906
 20
10.31747637795276
 30
0.0
 10
-16.55541732283465
 20
10.32759448818898
 30
0.0
  0
SPLINE
  5
D6
330
1F
100
AcDbEntity
  8
Layer 1
 62
   250
370
     9
100
AcDbSpline
210
0.0
220
0.0
230
1.0
 70
     8
 71
     3
 72
    64
 73
    60
 74
     0
 42
0.0000000001
 43
0.0000000001
 40
0.0
 40
0.0
 40
0.0
 40
0.0
 40
0.0666666666666667
 40
0.0666666666666667
 40
0.0666666666666667
 40
0.0666666666666667
 40
0.1333333333333333
 40
0.1333333333333333
 40
0.1333333333333333
 40
0.1333333333333333
 40
0.2
 40
0.2
 40
0.2
 40
0.2
 40
0.2666666666666667
 40
0.2666666666666667
 40
0.2666666666666667
 40
0.2666666666666667
 40
0.3333333333333333
 40
0.3333333333333333
 40
0.3333333333333333
 40
0.3333333333333333
 40
0.4
 40
0.4
 40
0.4
 40
0.4
 40
0.4666666666666666
 40
0.4666666666666666
 40
0.4666666666666666
 40
0.4666666666666666
 40
0.5333333333333333
 40
0.5333333333333333
 40
0.5333333333333333
 40
0.5333333333333333
 40
0.6
 40
0.6
 40
0.6
 40
0.6
 40
0.6666666666666666
 40
0.6666666666666666
 40
0.6666666666666666
 40
0.6666666666666666
 40
0.7333333333333333
 40
0.7333333333333333
 40
0.7333333333333333
 40
0.7333333333333333
 40
0.7999999999999999
 40
0.7999999999999999
 40
0.7999999999999999
 40
0.7999999999999999
 40
0.8666666666666666
 40
0.8666666666666666
 40
0.8666666666666666
 40
0.8666666666666666
 40
0.9333333333333332
 40
0.9333333333333332
 40
0.9333333333333332
 40
0.9333333333333332
 40
1.0
 40
1.0
 40
1.0
 40
1.0
 10
-16.55541732283465
 20
10.32759448818898
 30
0.0
 10
-16.57499606299213
 20
10.34683464566929
 30
0.0
 10
-16.56153937007874
 20
10.38246062992126
 30
0.0
 10
-16.56842125984252
 20
10.41489763779528
 30
0.0
 10
-16.56842125984252
 20
10.41489763779528
 30
0.0
 10
-16.58608267716535
 20
10.4223031496063
 30
0.0
 10
-16.60787401574803
 20
10.41820472440945
 30
0.0
 10
-16.626
 20
10.42975590551181
 30
0.0
 10
-16.626
 20
10.42975590551181
 30
0.0
 10
-16.62526377952756
 20
10.45117716535433
 30
0.0
 10
-16.62167322834646
 20
10.47214960629921
 30
0.0
 10
-16.6167125984252
 20
10.4929094488189
 30
0.0
 10
-16.6167125984252
 20
10.4929094488189
 30
0.0
 10
-16.62672047244094
 20
10.49829133858268
 30
0.0
 10
-16.63623622047244
 20
10.50129921259843
 30
0.0
 10
-16.64457480314961
 20
10.49848031496063
 30
0.0
 10
-16.64457480314961
 20
10.49848031496063
 30
0.0
 10
-16.64870078740157
 20
10.49859448818898
 30
0.0
 10
-16.64839763779528
 20
10.50470866141732
 30
0.0
 10
-16.64850393700787
 20
10.50960236220472
 30
0.0
 10
-16.64850393700787
 20
10.50960236220472
 30
0.0
 10
-16.65034645669291
 20
10.5096220472441
 30
0.0
 10
-16.656
 20
10.50299606299213
 30
0.0
 10
-16.65943307086614
 20
10.5059094488189
 30
0.0
 10
-16.65943307086614
 20
10.5059094488189
 30
0.0
 10
-16.65798818897638
 20
10.52397637795276
 30
0.0
 10
-16.6499842519685
 20
10.54114566929134
 30
0.0
 10
-16.63900393700787
 20
10.55791732283465
 30
0.0
 10
-16.63900393700787
 20
10.55791732283465
 30
0.0
 10
-16.62273228346457
 20
10.58767322834646
 30
0.0
 10
-16.60216141732283
 20
10.61209448818898
 30
0.0
 10
-16.57213385826772
 20
10.6247874015748
 30
0.0
 10
-16.57213385826772
 20
10.6247874015748
 30
0.0
 10
-16.54056299212598
 20
10.67941338582677
 30
0.0
 10
-16.50456692913386
 20
10.71845275590551
 30
0.0
 10
-16.45883070866142
 20
10.72323228346457
 30
0.0
 10
-16.45883070866142
 20
10.72323228346457
 30
0.0
 10
-16.4568031496063
 20
10.73582677165354
 30
0.0
 10
-16.4575157480315
 20
10.74034645669291
 30
0.0
 10
-16.45697244094488
 20
10.75666535433071
 30
0.0
 10
-16.45697244094488
 20
10.75666535433071
 30
0.0
 10
-16.46662204724409
 20
10.76515354330709
 30
0.0
 10
-16.47157480314961
 20
10.77567716535433
 30
0.0
 10
-16.47183070866142
 20
10.78824409448819
 30
0.0
 10
-16.47183070866142
 20
10.78824409448819
 30
0.0
 10
-16.47183070866142
 20
10.78824409448819
 30
0.0
 10
-16.55170078740158
 20
10.78824409448819
 30
0.0
 10
-16.55170078740158
 20
10.78824409448819
 30
0.0
 10
-16.55170078740158
 20
10.78824409448819
 30
0.0
 10
-16.55170078740158
 20
10.78824409448819
 30
0.0
 10
-16.55177952755906
 20
10.79258661417323
 30
0.0
 10
-16.55177952755906
 20
10.79258661417323
 30
0.0
 10
-16.55177952755906
 20
10.79258661417323
 30
0.0
 10
-16.55177952755906
 20
10.79258661417323
 30
0.0
 10
-16.47368897637795
 20
10.79381496062992
 30
0.0
 10
-16.47368897637795
 20
10.79381496062992
 30
0.0
 10
-16.47368897637795
 20
10.79381496062992
 30
0.0
 10
-16.46832283464567
 20
10.80227559055118
 30
0.0
 10
-16.46724409448819
 20
10.82485433070866
 30
0.0
 10
-16.4575905511811
 20
10.81920078740158
 30
0.0
  0
SPLINE
  5
D7
330
1F
100
AcDbEntity
  8
Layer 1
 62
   250
370
     9
100
AcDbSpline
210
0.0
220
0.0
230
1.0
 70
     8
 71
     3
 72
    12
 73
     8
 74
     0
 42
0.0000000001
 43
0.0000000001
 40
0.0
 40
0.0
 40
0.0
 40
0.0
 40
0.5
 40
0.5
 40
0.5
 40
0.5
 40
1.0
 40
1.0
 40
1.0
 40
1.0
 10
-16.4575905511811
 20
10.81920078740158
 30
0.0
 10
-16.45168897637795
 20
10.82968503937008
 30
0.0
 10
-16.45393307086614
 20
10.83742913385827
 30
0.0
 10
-16.45511417322835
 20
10.85696850393701
 30
0.0
 10
-16.45511417322835
 20
10.85696850393701
 30
0.0
 10
-16.41976377952756
 20
10.86551181102362
 30
0.0
 10
-16.38541338582677
 20
10.87174409448819
 30
0.0
 10
-16.35206299212598
 20
10.87566929133858
 30
0.0
  0
ENDSEC
  0
SECTION
  2
OBJECTS
  0
DICTIONARY
  5
C
330
0
100
AcDbDictionary
281
     1
  3
ACAD_GROUP
350
D
  3
ACAD_LAYOUT
350
1A
  3
ACAD_MLEADERSTYLE
350
D9
  3
ACAD_MLINESTYLE
350
17
  3
ACAD_PLOTSETTINGS
350
19
  3
ACAD_PLOTSTYLENAME
350
E
  3
ACAD_SCALELIST
350
3B
  3
ACAD_TABLESTYLE
350
D8
  3
ACAD_VISUALSTYLE
350
2A
  0
DICTIONARY
  5
D
102
{ACAD_REACTORS
330
C
102
}
330
C
100
AcDbDictionary
281
     1
  0
DICTIONARY
  5
1A
102
{ACAD_REACTORS
330
C
102
}
330
C
100
AcDbDictionary
281
     1
  3
Layout1
350
1E
  3
Layout2
350
26
  3
Model
350
22
  0
DICTIONARY
  5
D9
102
{ACAD_REACTORS
330
C
102
}
330
C
100
AcDbDictionary
281
     1
  0
DICTIONARY
  5
17
102
{ACAD_REACTORS
330
C
102
}
330
C
100
AcDbDictionary
281
     1
  3
Standard
350
18
  0
DICTIONARY
  5
19
102
{ACAD_REACTORS
330
C
102
}
330
C
100
AcDbDictionary
281
     1
  0
ACDBDICTIONARYWDFLT
  5
E
102
{ACAD_REACTORS
330
C
102
}
330
C
100
AcDbDictionary
281
     1
  3
Normal
350
F
100
AcDbDictionaryWithDefault
340
F
  0
DICTIONARY
  5
3B
102
{ACAD_REACTORS
330
C
102
}
330
C
100
AcDbDictionary
281
     1
  3
A0
350
3C
  3
A1
350
3D
  3
A2
350
3E
  3
A3
350
3F
  3
A4
350
40
  3
A5
350
41
  3
A6
350
42
  3
A7
350
43
  3
A8
350
44
  3
A9
350
45
  3
B0
350
46
  3
B1
350
47
  3
B2
350
48
  3
B3
350
49
  3
B4
350
4A
  3
B5
350
4B
  3
B6
350
4C
  3
B7
350
4D
  3
B8
350
4E
  3
B9
350
4F
  3
C0
350
50
  3
C1
350
51
  3
C2
350
52
  3
C3
350
53
  3
C4
350
54
  3
C5
350
55
  3
C6
350
56
  3
C7
350
57
  3
C8
350
58
  3
C9
350
59
  3
D0
350
5A
  3
D1
350
5B
  3
D2
350
5C
  0
DICTIONARY
  5
D8
102
{ACAD_REACTORS
330
C
102
}
330
C
100
AcDbDictionary
281
     1
  0
DICTIONARY
  5
2A
102
{ACAD_REACTORS
330
C
102
}
330
C
100
AcDbDictionary
281
     1
  3
2dWireframe
350
2F
  3
3D Hidden
350
31
  3
3dWireframe
350
30
  3
Basic
350
32
  3
Brighten
350
36
  3
ColorChange
350
3A
  3
Conceptual
350
34
  3
Dim
350
35
  3
Facepattern
350
39
  3
Flat
350
2B
  3
FlatWithEdges
350
2C
  3
Gouraud
350
2D
  3
GouraudWithEdges
350
2E
  3
Linepattern
350
38
  3
Realistic
350
33
  3
Thicken
350
37
  0
LAYOUT
  5
1E
102
{ACAD_REACTORS
330
1A
102
}
330
1A
100
AcDbPlotSettings
  1

  2
none_device
  4

  6

 40
0.0
 41
0.0
 42
0.0
 43
0.0
 44
0.0
 45
0.0
 46
0.0
 47
0.0
 48
0.0
 49
0.0
140
0.0
141
0.0
142
1.0
143
1.0
 70
   688
 72
     0
 73
     0
 74
     5
  7

 75
    16
 76
     0
 77
     2
 78
   300
147
1.0
148
0.0
149
0.0
100
AcDbLayout
  1
Layout1
 70
     1
 71
     1
 10
0.0
 20
0.0
 11
12.0
 21
9.0
 12
0.0
 22
0.0
 32
0.0
 14
1.000000000000000E+20
 24
1.000000000000000E+20
 34
1.000000000000000E+20
 15
-1.000000000000000E+20
 25
-1.000000000000000E+20
 35
-1.000000000000000E+20
146
0.0
 13
0.0
 23
0.0
 33
0.0
 16
1.0
 26
0.0
 36
0.0
 17
0.0
 27
1.0
 37
0.0
 76
     0
330
1B
  0
LAYOUT
  5
26
102
{ACAD_REACTORS
330
1A
102
}
330
1A
100
AcDbPlotSettings
  1

  2
none_device
  4

  6

 40
0.0
 41
0.0
 42
0.0
 43
0.0
 44
0.0
 45
0.0
 46
0.0
 47
0.0
 48
0.0
 49
0.0
140
0.0
141
0.0
142
1.0
143
1.0
 70
   688
 72
     0
 73
     0
 74
     5
  7

 75
    16
 76
     0
 77
     2
 78
   300
147
1.0
148
0.0
149
0.0
100
AcDbLayout
  1
Layout2
 70
     1
 71
     2
 10
0.0
 20
0.0
 11
0.0
 21
0.0
 12
0.0
 22
0.0
 32
0.0
 14
0.0
 24
0.0
 34
0.0
 15
0.0
 25
0.0
 35
0.0
146
0.0
 13
0.0
 23
0.0
 33
0.0
 16
1.0
 26
0.0
 36
0.0
 17
0.0
 27
1.0
 37
0.0
 76
     0
330
23
  0
LAYOUT
  5
22
102
{ACAD_REACTORS
330
1A
102
}
330
1A
100
AcDbPlotSettings
  1

  2
none_device
  4

  6

 40
0.0
 41
0.0
 42
0.0
 43
0.0
 44
0.0
 45
0.0
 46
0.0
 47
0.0
 48
0.0
 49
0.0
140
0.0
141
0.0
142
1.0
143
1.0
 70
  1712
 72
     0
 73
     0
 74
     0
  7

 75
     0
 76
     0
 77
     2
 78
   300
147
1.0
148
0.0
149
0.0
100
AcDbLayout
  1
Model
 70
     1
 71
     0
 10
0.0
 20
0.0
 11
12.0
 21
9.0
 12
0.0
 22
0.0
 32
0.0
 14
-17.85201968503937
 24
9.119673228346457
 34
0.0
 15
-15.10579133858268
 25
11.8267125984252
 35
0.0
146
0.0
 13
0.0
 23
0.0
 33
0.0
 16
1.0
 26
0.0
 36
0.0
 17
0.0
 27
1.0
 37
0.0
 76
     0
330
1F
331
29
  0
MLINESTYLE
  5
18
102
{ACAD_REACTORS
330
17
102
}
330
17
100
AcDbMlineStyle
  2
Standard
 70
     0
  3

 62
   256
 51
90.0
 52
90.0
 71
     2
 49
0.5
 62
   256
  6
BYLAYER
 49
-0.5
 62
   256
  6
BYLAYER
  0
ACDBPLACEHOLDER
  5
F
102
{ACAD_REACTORS
330
E
102
}
330
E
  0
SCALE
  5
3C
102
{ACAD_REACTORS
330
3B
102
}
330
3B
100
AcDbScale
 70
     0
300
1:1
140
1.0
141
1.0
290
     1
  0
SCALE
  5
3D
102
{ACAD_REACTORS
330
3B
102
}
330
3B
100
AcDbScale
 70
     0
300
1:2
140
1.0
141
2.0
290
     0
  0
SCALE
  5
3E
102
{ACAD_REACTORS
330
3B
102
}
330
3B
100
AcDbScale
 70
     0
300
1:4
140
1.0
141
4.0
290
     0
  0
SCALE
  5
3F
102
{ACAD_REACTORS
330
3B
102
}
330
3B
100
AcDbScale
 70
     0
300
1:5
140
1.0
141
5.0
290
     0
  0
SCALE
  5
40
102
{ACAD_REACTORS
330
3B
102
}
330
3B
100
AcDbScale
 70
     0
300
1:8
140
1.0
141
8.0
290
     0
  0
SCALE
  5
41
102
{ACAD_REACTORS
330
3B
102
}
330
3B
100
AcDbScale
 70
     0
300
1:10
140
1.0
141
10.0
290
     0
  0
SCALE
  5
42
102
{ACAD_REACTORS
330
3B
102
}
330
3B
100
AcDbScale
 70
     0
300
1:16
140
1.0
141
16.0
290
     0
  0
SCALE
  5
43
102
{ACAD_REACTORS
330
3B
102
}
330
3B
100
AcDbScale
 70
     0
300
1:20
140
1.0
141
20.0
290
     0
  0
SCALE
  5
44
102
{ACAD_REACTORS
330
3B
102
}
330
3B
100
AcDbScale
 70
     0
300
1:30
140
1.0
141
30.0
290
     0
  0
SCALE
  5
45
102
{ACAD_REACTORS
330
3B
102
}
330
3B
100
AcDbScale
 70
     0
300
1:40
140
1.0
141
40.0
290
     0
  0
SCALE
  5
46
102
{ACAD_REACTORS
330
3B
102
}
330
3B
100
AcDbScale
 70
     0
300
1:50
140
1.0
141
50.0
290
     0
  0
SCALE
  5
47
102
{ACAD_REACTORS
330
3B
102
}
330
3B
100
AcDbScale
 70
     0
300
1:100
140
1.0
141
100.0
290
     0
  0
SCALE
  5
48
102
{ACAD_REACTORS
330
3B
102
}
330
3B
100
AcDbScale
 70
     0
300
2:1
140
2.0
141
1.0
290
     0
  0
SCALE
  5
49
102
{ACAD_REACTORS
330
3B
102
}
330
3B
100
AcDbScale
 70
     0
300
4:1
140
4.0
141
1.0
290
     0
  0
SCALE
  5
4A
102
{ACAD_REACTORS
330
3B
102
}
330
3B
100
AcDbScale
 70
     0
300
8:1
140
8.0
141
1.0
290
     0
  0
SCALE
  5
4B
102
{ACAD_REACTORS
330
3B
102
}
330
3B
100
AcDbScale
 70
     0
300
10:1
140
10.0
141
1.0
290
     0
  0
SCALE
  5
4C
102
{ACAD_REACTORS
330
3B
102
}
330
3B
100
AcDbScale
 70
     0
300
100:1
140
100.0
141
1.0
290
     0
  0
SCALE
  5
4D
102
{ACAD_REACTORS
330
3B
102
}
330
3B
100
AcDbScale
 70
     0
300
1/128" = 1'-0"
140
0.0078125
141
12.0
290
     0
  0
SCALE
  5
4E
102
{ACAD_REACTORS
330
3B
102
}
330
3B
100
AcDbScale
 70
     0
300
1/64" = 1'-0"
140
0.015625
141
12.0
290
     0
  0
SCALE
  5
4F
102
{ACAD_REACTORS
330
3B
102
}
330
3B
100
AcDbScale
 70
     0
300
1/32" = 1'-0"
140
0.03125
141
12.0
290
     0
  0
SCALE
  5
50
102
{ACAD_REACTORS
330
3B
102
}
330
3B
100
AcDbScale
 70
     0
300
1/16" = 1'-0"
140
0.0625
141
12.0
290
     0
  0
SCALE
  5
51
102
{ACAD_REACTORS
330
3B
102
}
330
3B
100
AcDbScale
 70
     0
300
3/32" = 1'-0"
140
0.09375
141
12.0
290
     0
  0
SCALE
  5
52
102
{ACAD_REACTORS
330
3B
102
}
330
3B
100
AcDbScale
 70
     0
300
1/8" = 1'-0"
140
0.125
141
12.0
290
     0
  0
SCALE
  5
53
102
{ACAD_REACTORS
330
3B
102
}
330
3B
100
AcDbScale
 70
     0
300
3/16" = 1'-0"
140
0.1875
141
12.0
290
     0
  0
SCALE
  5
54
102
{ACAD_REACTORS
330
3B
102
}
330
3B
100
AcDbScale
 70
     0
300
1/4" = 1'-0"
140
0.25
141
12.0
290
     0
  0
SCALE
  5
55
102
{ACAD_REACTORS
330
3B
102
}
330
3B
100
AcDbScale
 70
     0
300
3/8" = 1'-0"
140
0.375
141
12.0
290
     0
  0
SCALE
  5
56
102
{ACAD_REACTORS
330
3B
102
}
330
3B
100
AcDbScale
 70
     0
300
1/2" = 1'-0"
140
0.5
141
12.0
290
     0
  0
SCALE
  5
57
102
{ACAD_REACTORS
330
3B
102
}
330
3B
100
AcDbScale
 70
     0
300
3/4" = 1'-0"
140
0.75
141
12.0
290
     0
  0
SCALE
  5
58
102
{ACAD_REACTORS
330
3B
102
}
330
3B
100
AcDbScale
 70
     0
300
1" = 1'-0"
140
1.0
141
12.0
290
     0
  0
SCALE
  5
59
102
{ACAD_REACTORS
330
3B
102
}
330
3B
100
AcDbScale
 70
     0
300
1-1/2" = 1'-0"
140
1.5
141
12.0
290
     0
  0
SCALE
  5
5A
102
{ACAD_REACTORS
330
3B
102
}
330
3B
100
AcDbScale
 70
     0
300
3" = 1'-0"
140
3.0
141
12.0
290
     0
  0
SCALE
  5
5B
102
{ACAD_REACTORS
330
3B
102
}
330
3B
100
AcDbScale
 70
     0
300
6" = 1'-0"
140
6.0
141
12.0
290
     0
  0
SCALE
  5
5C
102
{ACAD_REACTORS
330
3B
102
}
330
3B
100
AcDbScale
 70
     0
300
1'-0" = 1'-0"
140
12.0
141
12.0
290
     0
  0
VISUALSTYLE
  5
2F
102
{ACAD_REACTORS
330
2A
102
}
330
2A
100
AcDbVisualStyle
  2
2dWireframe
 70
     4
 71
     0
 72
     2
 73
     0
 90
        0
 40
-0.6
 41
-30.0
 62
     5
 63
     7
421
 16777215
 74
     1
 91
        4
 64
     7
 65
   257
 75
     1
175
     1
 42
1.0
 92
        0
 66
   257
 43
1.0
 76
     1
 77
     6
 78
     2
 67
     7
 79
     5
170
     0
171
     0
290
     0
174
     0
 93
        1
 44
0.0
173
     0
291
     0
 45
0.0
  0
VISUALSTYLE
  5
31
102
{ACAD_REACTORS
330
2A
102
}
330
2A
100
AcDbVisualStyle
  2
3D Hidden
 70
     6
 71
     1
 72
     2
 73
     2
 90
        0
 40
-0.6
 41
-30.0
 62
     5
 63
     7
421
 16777215
 74
     2
 91
        2
 64
     7
 65
   257
 75
     2
175
     1
 42
40.0
 92
        0
 66
   257
 43
1.0
 76
     1
 77
     6
 78
     2
 67
     7
 79
     3
170
     0
171
     0
290
     0
174
     0
 93
        1
 44
0.0
173
     0
291
     0
 45
0.0
  0
VISUALSTYLE
  5
30
102
{ACAD_REACTORS
330
2A
102
}
330
2A
100
AcDbVisualStyle
  2
3dWireframe
 70
     5
 71
     0
 72
     2
 73
     0
 90
        0
 40
-0.6
 41
-30.0
 62
     5
 63
     7
421
 16777215
 74
     1
 91
        4
 64
     7
 65
   257
 75
     1
175
     1
 42
1.0
 92
        0
 66
   257
 43
1.0
 76
     1
 77
     6
 78
     2
 67
     7
 79
     5
170
     0
171
     0
290
     0
174
     0
 93
        1
 44
0.0
173
     0
291
     0
 45
0.0
  0
VISUALSTYLE
  5
32
102
{ACAD_REACTORS
330
2A
102
}
330
2A
100
AcDbVisualStyle
  2
Basic
 70
     7
 71
     1
 72
     0
 73
     1
 90
        0
 40
-0.6
 41
-30.0
 62
     5
 63
     7
421
 16777215
 74
     0
 91
        4
 64
     7
 65
   257
 75
     1
175
     1
 42
1.0
 92
        8
 66
     7
 43
1.0
 76
     1
 77
     6
 78
     2
 67
     7
 79
     5
170
     0
171
     0
290
     0
174
     0
 93
        1
 44
0.0
173
     0
291
     1
 45
0.0
  0
VISUALSTYLE
  5
36
102
{ACAD_REACTORS
330
2A
102
}
330
2A
100
AcDbVisualStyle
  2
Brighten
 70
    12
 71
     2
 72
     2
 73
     0
 90
        0
 40
-0.6
 41
-30.0
 62
     5
 63
     7
421
 16777215
 74
     1
 91
        4
 64
     7
 65
   257
 75
     1
175
     1
 42
1.0
 92
        8
 66
     7
 43
1.0
 76
     1
 77
     6
 78
     2
 67
     7
 79
     5
170
     0
171
     0
290
     0
174
     0
 93
        1
 44
50.0
173
     0
291
     1
 45
0.0
  0
VISUALSTYLE
  5
3A
102
{ACAD_REACTORS
330
2A
102
}
330
2A
100
AcDbVisualStyle
  2
ColorChange
 70
    16
 71
     2
 72
     2
 73
     3
 90
        0
 40
-0.6
 41
-30.0
 62
     5
 63
     8
421
  8421504
 74
     1
 91
        4
 64
     7
 65
   257
 75
     1
175
     1
 42
1.0
 92
        8
 66
     8
424
  8421504
 43
1.0
 76
     1
 77
     6
 78
     2
 67
     7
 79
     5
170
     0
171
     0
290
     0
174
     0
 93
        1
 44
0.0
173
     0
291
     1
 45
0.0
  0
VISUALSTYLE
  5
34
102
{ACAD_REACTORS
330
2A
102
}
330
2A
100
AcDbVisualStyle
  2
Conceptual
 70
     9
 71
     3
 72
     2
 73
     0
 90
        0
 40
-0.6
 41
-30.0
 62
     5
 63
     7
421
 16777215
 74
     2
 91
        2
 64
     7
 65
   257
 75
     1
175
     1
 42
40.0
 92
        8
 66
     7
 43
1.0
 76
     1
 77
     6
 78
     2
 67
     7
 79
     3
170
     0
171
     0
290
     0
174
     0
 93
        1
 44
0.0
173
     0
291
     0
 45
0.0
  0
VISUALSTYLE
  5
35
102
{ACAD_REACTORS
330
2A
102
}
330
2A
100
AcDbVisualStyle
  2
Dim
 70
    11
 71
     2
 72
     2
 73
     0
 90
        0
 40
-0.6
 41
-30.0
 62
     5
 63
     7
421
 16777215
 74
     1
 91
        4
 64
     7
 65
   257
 75
     1
175
     1
 42
1.0
 92
        8
 66
     7
 43
1.0
 76
     1
 77
     6
 78
     2
 67
     7
 79
     5
170
     0
171
     0
290
     0
174
     0
 93
        1
 44
-50.0
173
     0
291
     1
 45
0.0
  0
VISUALSTYLE
  5
39
102
{ACAD_REACTORS
330
2A
102
}
330
2A
100
AcDbVisualStyle
  2
Facepattern
 70
    15
 71
     2
 72
     2
 73
     0
 90
        0
 40
-0.6
 41
-30.0
 62
     5
 63
     7
421
 16777215
 74
     1
 91
        4
 64
     7
 65
   257
 75
     1
175
     1
 42
1.0
 92
        8
 66
     7
 43
1.0
 76
     1
 77
     6
 78
     2
 67
     7
 79
     5
170
     0
171
     0
290
     0
174
     0
 93
        1
 44
0.0
173
     0
291
     1
 45
0.0
  0
VISUALSTYLE
  5
2B
102
{ACAD_REACTORS
330
2A
102
}
330
2A
100
AcDbVisualStyle
  2
Flat
 70
     0
 71
     2
 72
     1
 73
     1
 90
        2
 40
-0.6
 41
30.0
 62
     5
 63
     7
421
 16777215
 74
     0
 91
        4
 64
     7
 65
   257
 75
     1
175
     1
 42
1.0
 92
        8
 66
     7
 43
1.0
 76
     1
 77
     6
 78
     2
 67
     7
 79
     5
170
     0
171
     0
290
     0
174
     0
 93
       13
 44
0.0
173
     0
291
     1
 45
0.0
  0
VISUALSTYLE
  5
2C
102
{ACAD_REACTORS
330
2A
102
}
330
2A
100
AcDbVisualStyle
  2
FlatWithEdges
 70
     1
 71
     2
 72
     1
 73
     1
 90
        2
 40
-0.6
 41
30.0
 62
     5
 63
     7
421
 16777215
 74
     1
 91
        4
 64
     7
 65
   257
 75
     1
175
     1
 42
1.0
 92
        0
 66
   257
 43
1.0
 76
     1
 77
     6
 78
     2
 67
     7
 79
     5
170
     0
171
     0
290
     0
174
     0
 93
       13
 44
0.0
173
     0
291
     1
 45
0.0
  0
VISUALSTYLE
  5
2D
102
{ACAD_REACTORS
330
2A
102
}
330
2A
100
AcDbVisualStyle
  2
Gouraud
 70
     2
 71
     2
 72
     2
 73
     1
 90
        2
 40
-0.6
 41
30.0
 62
     5
 63
     7
421
 16777215
 74
     0
 91
        4
 64
     7
 65
   257
 75
     1
175
     1
 42
1.0
 92
        0
 66
     7
 43
1.0
 76
     1
 77
     6
 78
     2
 67
     7
 79
     5
170
     0
171
     0
290
     0
174
     0
 93
       13
 44
0.0
173
     0
291
     1
 45
0.0
  0
VISUALSTYLE
  5
2E
102
{ACAD_REACTORS
330
2A
102
}
330
2A
100
AcDbVisualStyle
  2
GouraudWithEdges
 70
     3
 71
     2
 72
     2
 73
     1
 90
        2
 40
-0.6
 41
30.0
 62
     5
 63
     7
421
 16777215
 74
     1
 91
        4
 64
     7
 65
   257
 75
     1
175
     1
 42
1.0
 92
        0
 66
   257
 43
1.0
 76
     1
 77
     6
 78
     2
 67
     7
 79
     5
170
     0
171
     0
290
     0
174
     0
 93
       13
 44
0.0
173
     0
291
     1
 45
0.0
  0
VISUALSTYLE
  5
38
102
{ACAD_REACTORS
330
2A
102
}
330
2A
100
AcDbVisualStyle
  2
Linepattern
 70
    14
 71
     2
 72
     2
 73
     0
 90
        0
 40
-0.6
 41
-30.0
 62
     5
 63
     7
421
 16777215
 74
     1
 91
        4
 64
     7
 65
   257
 75
     7
175
     7
 42
1.0
 92
        8
 66
     7
 43
1.0
 76
     1
 77
     6
 78
     2
 67
     7
 79
     5
170
     0
171
     0
290
     0
174
     0
 93
        1
 44
0.0
173
     0
291
     1
 45
0.0
  0
VISUALSTYLE
  5
33
102
{ACAD_REACTORS
330
2A
102
}
330
2A
100
AcDbVisualStyle
  2
Realistic
 70
     8
 71
     2
 72
     2
 73
     0
 90
        0
 40
-0.6
 41
-30.0
 62
     5
 63
     7
421
 16777215
 74
     1
 91
        0
 64
     7
 65
   257
 75
     1
175
     1
 42
1.0
 92
        8
 66
     8
424
  7895160
 43
1.0
 76
     1
 77
     6
 78
     2
 67
     7
 79
     5
170
     0
171
     0
290
     0
174
     0
 93
       13
 44
0.0
173
     0
291
     0
 45
0.0
  0
VISUALSTYLE
  5
37
102
{ACAD_REACTORS
330
2A
102
}
330
2A
100
AcDbVisualStyle
  2
Thicken
 70
    13
 71
     2
 72
     2
 73
     0
 90
        0
 40
-0.6
 41
-30.0
 62
     5
 63
     7
421
 16777215
 74
     1
 91
        4
 64
     7
 65
   257
 75
     1
175
     1
 42
1.0
 92
       12
 66
     7
 43
1.0
 76
     1
 77
     6
 78
     2
 67
     7
 79
     5
170
     0
171
     0
290
     0
174
     0
 93
        1
 44
0.0
173
     0
291
     1
 45
0.0
  0
ENDSEC
  0
EOF
