0
SECTION
2
HEADER
9
$INSUNITS
70
4
9
$ACADVER
1
AC1014
9
$HANDSEED
5
FFFF
0
ENDSEC
0
SECTION
2
TABLES
0
TABLE
2
VPORT
5
8
100
AcDbSymbolTable
0
ENDTAB
0
TABLE
2
LTYPE
5
5
100
AcDbSymbolTable
0
LTYPE
5
14
100
AcDbSymbolTableRecord
100
AcDbLinetypeTableRecord
2
BYBLOCK
70
0
0
LTYPE
5
15
100
AcDbSymbolTableRecord
100
AcDbLinetypeTableRecord
2
BYLAYER
70
0
0
LTYPE
5
16
100
AcDbSymbolTableRecord
100
AcDbLinetypeTableRecord
2
DASHED
70
0
3
Dashed __ __ __ __ __ __ __ __ __ __ __ __ __ _
72
65
73
2
40
0.75
49
0.5
74
0
49
-0.25
74
0
0
ENDTAB
0
TABLE
2
LAYER
5
2
100
AcDbSymbolTable
70
2
0
LAYER
5
50
100
AcDbSymbolTableRecord
100
AcDbLayerTableRecord
2
0
70
0
62
7
6
CONTINUOUS
0
ENDTAB
0
TABLE
2
STYLE
5
3
100
AcDbSymbolTable
70
1
0
STYLE
5
11
100
AcDbSymbolTableRecord
100
AcDbTextStyleTableRecord
2
STANDARD
70
0
0
ENDTAB
0
TABLE
2
VIEW
5
6
100
AcDbSymbolTable
70
0
0
ENDTAB
0
TABLE
2
UCS
5
7
100
AcDbSymbolTable
70
0
0
ENDTAB
0
TABLE
2
APPID
5
9
100
AcDbSymbolTable
70
2
0
APPID
5
12
100
AcDbSymbolTableRecord
100
AcDbRegAppTableRecord
2
ACAD
70
0
0
ENDTAB
0
TABLE
2
DIMSTYLE
5
A
100
AcDbSymbolTable
70
1
0
ENDTAB
0
TABLE
2
BLOCK_RECORD
5
1
100
AcDbSymbolTable
70
1
0
BLOCK_RECORD
5
1F
100
AcDbSymbolTableRecord
100
AcDbBlockTableRecord
2
*MODEL_SPACE
0
BLOCK_RECORD
5
1B
100
AcDbSymbolTableRecord
100
AcDbBlockTableRecord
2
*PAPER_SPACE
0
ENDTAB
0
ENDSEC
0
SECTION
2
BLOCKS
0
BLOCK
5
20
100
AcDbEntity
100
AcDbBlockBegin
2
*MODEL_SPACE
0
ENDBLK
5
21
100
AcDbEntity
100
AcDbBlockEnd
0
BLOCK
5
1C
100
AcDbEntity
100
AcDbBlockBegin
2
*PAPER_SPACE
0
ENDBLK
5
1D
100
AcDbEntity
100
AcDbBlockEnd
0
ENDSEC
0
SECTION
2
ENTITIES
0
CIRCLE
5
100
100
AcDbEntity
8
0
100
AcDbCircle
10
-1635.2337186262907
20
307.16228341985402
30
0
40
2.0250000000000026
210
0
220
0
230
1
0
LINE
5
101
100
AcDbEntity
8
0
100
AcDbLine
10
-1312.7837061092691
20
15.000000167304812
30
0
11
-1180.5071340867012
21
15.000000167304828
31
0
0
CIRCLE
5
102
100
AcDbEntity
8
0
100
AcDbCircle
10
-1633.226081777048
20
284.17720966169287
30
0
40
2.0250000000000012
210
0
220
0
230
1
0
LINE
5
103
100
AcDbEntity
8
0
100
AcDbLine
10
-1596.9509270784715
20
297.73709104080899
30
0
11
-1586.8509430742859
21
297.75506620822119
31
0
0
LINE
5
104
100
AcDbEntity
8
0
100
AcDbLine
10
-1312.4499958421686
20
283.84334920292793
30
0
11
-1316.0291770091935
21
284.50047489692429
31
0
0
ARC
5
105
100
AcDbEntity
8
0
100
AcDbCircle
10
-1316.7290060800874
20
117.61846312017339
30
0
40
29.999999999997321
210
0
220
0
230
1
100
AcDbArc
50
279.99999999999989
51
335.07671388944334
0
LINE
5
106
100
AcDbEntity
8
0
100
AcDbLine
10
-1586.8509430742859
20
297.75506620822119
30
0
11
-1576.9009588316987
21
297.77277441770127
31
0
0
ARC
5
107
100
AcDbEntity
8
0
100
AcDbCircle
10
-1635.233718625444
20
307.16228341983299
30
0
40
11.99999999955827
210
0
220
0
230
1
100
AcDbArc
50
90.000024008143342
51
189.96465466494445
0
LINE
5
108
100
AcDbEntity
8
0
100
AcDbLine
10
-1643.0752281735001
20
282.44680350504035
30
0
11
-1647.0526948794679
21
305.08579592981101
31
0
0
LINE
5
109
100
AcDbEntity
8
0
100
AcDbLine
10
-1376.8650205306376
20
265.699101267353
30
0
11
-1312.4499958421686
21
254.40856160791597
31
0
0
LINE
5
110
100
AcDbEntity
8
0
100
AcDbLine
10
-1476.7507430058902
20
22.324159080172336
30
0
11
-1426.7457582404415
21
31.141387064659448
31
0
0
ARC
5
111
100
AcDbEntity
8
0
100
AcDbCircle
10
-1316.7648624710914
20
188.09870633515314
30
0
40
44.68889606617811
210
0
220
-0
230
1
100
AcDbArc
50
24.981711960516432
51
80.077319279833745
0
LINE
5
112
100
AcDbEntity
8
0
100
AcDbLine
10
-1576.9009588316987
20
297.77277441770127
30
0
11
-1576.8905989743664
21
291.9517219098218
31
0
0
CIRCLE
5
113
100
AcDbEntity
8
0
100
AcDbCircle
10
-1640.0000009579858
20
20.00000016730478
30
0
40
2.0250000000000012
210
0
220
0
230
1
0
LINE
5
114
100
AcDbEntity
8
0
100
AcDbLine
10
-1650.0000009579858
20
20.000000167304776
30
0
11
-1650.0000009579858
21
5.0000001673047709
31
0
0
LINE
5
115
100
AcDbEntity
8
0
100
AcDbLine
10
-1308.9986269582253
20
73.603253587037472
30
0
11
-1312.7837061092691
21
72.938481178723592
31
0
0
ARC
5
116
100
AcDbEntity
8
0
100
AcDbCircle
10
-1640.0000009579858
20
20.00000016730478
30
0
40
9.9999997214852954
210
0
220
0
230
1
100
AcDbArc
50
100.00000028137748
51
180
0
ARC
5
117
100
AcDbEntity
8
0
100
AcDbCircle
10
-1645.0000009579858
20
5.0000001673047727
30
0
40
5
210
0
220
0
230
1
100
AcDbArc
50
180
51
270
0
LINE
5
118
100
AcDbEntity
8
0
100
AcDbLine
10
-1476.7507430058902
20
15.000000167304774
30
0
11
-1476.7507430058902
21
7.6797665941685018
31
0
0
LINE
5
119
100
AcDbEntity
8
0
100
AcDbLine
10
-1596.9509270784715
20
297.73709104080899
30
0
11
-1596.9621097443303
21
304.02046764064585
31
0
0
LINE
5
120
100
AcDbEntity
8
0
100
AcDbLine
10
-1312.4499958421686
20
232.7114218243417
30
0
11
-1312.4499958421686
21
254.40856160791597
31
0
0
ARC
5
121
100
AcDbEntity
8
0
100
AcDbCircle
10
-1633.226081777048
20
284.17720966169287
30
0
40
9.9999995102863224
210
0
220
0
230
1
100
AcDbArc
50
189.96465466287464
51
260.05829774705626
0
LINE
5
122
100
AcDbEntity
8
0
100
AcDbLine
10
-1309.0641145555921
20
232.11910970855385
30
0
11
-1312.4499958421686
21
232.7114218243417
31
0
0
LINE
5
123
100
AcDbEntity
8
0
100
AcDbLine
10
-1576.7533757950691
20
7.6797665941684912
30
0
11
-1576.7489387910136
21
13.50082662986037
31
0
0
LINE
5
124
100
AcDbEntity
8
0
100
AcDbLine
10
-1376.7501756008455
20
39.956957200082933
30
0
11
-1312.7837061092691
21
51.764768110727594
31
0
0
LINE
5
125
100
AcDbEntity
8
0
100
AcDbLine
10
-1576.7489387910136
20
13.50082662986037
30
0
11
-1526.7903467780311
21
13.500826629866584
31
0
0
LINE
5
126
100
AcDbEntity
8
0
100
AcDbLine
10
-1312.7837061092691
20
72.938481178723592
30
0
11
-1312.7837061092691
21
51.764768110727594
31
0
0
LINE
5
127
100
AcDbEntity
8
0
100
AcDbLine
10
-1641.7364827346551
20
29.848077414615609
30
0
11
-1311.51956075008
21
88.074230529809782
31
0
0
LINE
5
128
100
AcDbEntity
8
0
100
AcDbLine
10
-1645.0000009579858
20
1.6730477165811495e-07
30
0
11
-1312.7725524778407
21
1.673048108628655e-07
31
0
0
SPLINE
5
129
100
AcDbEntity
8
0
100
AcDbSpline
70
0
71
3
72
38
73
34
74
0
42
0.000000001
43
0.0000000001
44
0.0000000001
40
0.070879342909326085
40
0.070879342909326085
40
0.070879342909326085
40
0.070879342909326085
40
0.092299905184374351
40
0.092299905184374351
40
0.092299905184374351
40
0.11720677141901242
40
0.11720677141901242
40
0.11720677141901242
40
0.14893458551552508
40
0.14893458551552508
40
0.14893458551552508
40
0.19046375207589955
40
0.19046375207589955
40
0.19046375207589955
40
0.24419701101216817
40
0.24419701101216817
40
0.24419701101216817
40
0.31218557343163222
40
0.31218557343163222
40
0.31218557343163222
40
0.39375630253479327
40
0.39375630253479327
40
0.39375630253479327
40
0.47862467090113614
40
0.47862467090113614
40
0.47862467090113614
40
0.56158918685013381
40
0.56158918685013381
40
0.56158918685013381
40
0.66752641991999595
40
0.66752641991999595
40
0.66752641991999595
40
0.72928945169350579
40
0.72928945169350579
40
0.72928945169350579
40
0.72928945169350579
10
-1180.5071340867007
20
15.000000000000036
30
0
10
-1182.9892250057774
20
17.845360836423428
30
0
10
-1185.0363323923357
20
21.037427250409024
30
0
10
-1186.5165334927251
20
24.396749137879851
30
0
10
-1188.2376447471531
20
28.302817513488783
30
0
10
-1189.1729131378188
20
32.382323384667366
30
0
10
-1189.5220891477911
20
36.287976892764739
30
0
10
-1189.9668898476057
20
41.263225374967305
30
0
10
-1189.5309220867805
20
45.958635560039561
30
0
10
-1188.7587137872351
20
50.46091330964466
30
0
10
-1187.7479549939073
20
56.354034152941892
30
0
10
-1186.150820695013
20
61.990243734682366
30
0
10
-1184.4508901197755
20
67.746342951226012
30
0
10
-1182.2514043766628
20
75.193975429372358
30
0
10
-1179.8523570115767
20
82.848429622417456
30
0
10
-1177.7624141208232
20
90.909543736180595
30
0
10
-1175.1180144418529
20
101.1092519047108
30
0
10
-1172.9687902073911
20
111.93256076436157
30
0
10
-1171.917657975453
20
123.11972752365655
30
0
10
-1170.6565396418425
20
136.54176965368828
30
0
10
-1170.9808423906463
20
150.46775258434718
30
0
10
-1173.3029383804533
20
164.08692568430422
30
0
10
-1175.7189091583496
20
178.25667765538651
30
0
10
-1180.2644490853768
20
192.04783504593192
30
0
10
-1186.9990239247618
20
204.68610562927412
30
0
10
-1193.582522022193
20
217.0408618424886
30
0
10
-1202.2243798443706
20
228.30197717301544
30
0
10
-1213.2047306979712
20
238.31208637993771
30
0
10
-1227.2255198782743
20
251.09397584169744
30
0
10
-1245.1322728134098
20
261.87839203808841
30
0
10
-1267.8202768655801
20
270.61372771409015
30
0
10
-1281.0477312227049
20
275.70656239812769
30
0
10
-1295.8911344884368
20
280.10133765263498
30
0
10
-1312.4499958421686
20
283.84334920292793
30
0
0
ARC
5
130
100
AcDbEntity
8
0
100
AcDbCircle
10
-1142
20
5.0000001673047709
30
0
40
4.9999999999999396
210
-0
220
0
230
1
100
AcDbArc
50
-90
51
73.732987404919996
0
SPLINE
5
131
100
AcDbEntity
8
0
100
AcDbSpline
70
4
71
5
72
16
73
10
74
0
42
0.000000001
43
0.0000000001
44
0.0000000001
40
0
40
0
40
0
40
0
40
0
40
0
40
0.20000000000000001
40
0.40000000000000002
40
0.60000000000000009
40
0.80000000000000004
40
1
40
1
40
1
40
1
40
1
40
1
41
1
41
1
41
1
41
1
41
1
41
1
41
1
41
1
41
1
41
1
10
-1312.8386966031883
20
299.15724243887888
30
0
10
-1321.8292724365585
20
301.11430807104966
30
0
10
-1340.669642381597
20
304.71310797329323
30
0
10
-1371.5058002946205
20
309.16614351471861
30
0
10
-1417.2923601389255
20
313.45558883068736
30
0
10
-1481.3436762401629
20
316.85911989858448
30
0
10
-1538.3358127471838
20
318.42965799074352
30
0
10
-1585.0542755803588
20
319.02903076425065
30
0
10
-1618.1773893482684
20
319.16228341938159
30
0
10
-1635.2337236536978
20
319.16228341939023
30
0
0
ARC
5
132
100
AcDbEntity
8
0
100
AcDbCircle
10
-1248.8335198200225
20
152.86769806728353
30
0
40
7.4999999999999822
210
0
220
0
230
1
100
AcDbArc
50
-90
51
90
0
LINE
5
133
100
AcDbEntity
8
0
100
AcDbLine
10
-1312.7837061092691
20
15.000000167304812
30
0
11
-1476.7507430058902
21
15.000000167304774
31
0
0
ARC
5
134
100
AcDbEntity
8
0
100
AcDbCircle
10
-1392.4837080889235
20
152.82005410902207
30
0
40
113.53398640429634
210
0
220
0
230
1
100
AcDbArc
50
-24.9232861105518
51
24.981583857580546
0
CIRCLE
5
135
100
AcDbEntity
8
0
100
AcDbCircle
10
-1248.8335198200225
20
152.86769806728353
30
0
40
2.0250000000000052
210
0
220
0
230
1
0
LINE
5
136
100
AcDbEntity
8
0
100
AcDbLine
10
-1634.9525422749657
20
274.32737086308526
30
0
11
-1311.5854807237879
21
217.64822417754266
31
0
0
CIRCLE
5
137
100
AcDbEntity
8
0
100
AcDbCircle
10
-1142
20
5.0000001673047709
30
0
40
2.025000000000019
210
0
220
0
230
1
0
ARC
5
138
100
AcDbEntity
8
0
100
AcDbCircle
10
-1392.483708088947
20
152.82005410904284
30
0
40
128.22288247050625
210
0
220
0
230
1
100
AcDbArc
50
335.07671388944362
51
356.66807281862827
0
LINE
5
139
100
AcDbEntity
8
0
100
AcDbLine
10
-1264.4831586381108
20
160.36769806728356
30
0
11
-1248.8335198200225
21
160.36769806728353
31
0
0
SPLINE
5
140
100
AcDbEntity
8
0
100
AcDbSpline
70
4
71
5
72
26
73
20
74
0
42
0.000000001
43
0.0000000001
44
0.0000000001
40
0
40
0
40
0
40
0
40
0
40
0
40
0.066666666666666666
40
0.13333333333333333
40
0.20000000000000001
40
0.26666666666666666
40
0.33333333333333331
40
0.39999999999999997
40
0.46666666666666662
40
0.53333333333333333
40
0.59999999999999998
40
0.66666666666666663
40
0.73333333333333328
40
0.79999999999999993
40
0.86666666666666659
40
0.93333333333333324
40
1
40
1
40
1
40
1
40
1
40
1
41
1
41
1
41
1
41
1
41
1
41
1
41
1
41
1
41
1
41
1
41
1
41
1
41
1
41
1
41
1
41
1
41
1
41
1
41
1
41
1
10
-1140.5994297186842
20
9.7998336311892089
30
0
10
-1147.0138256942296
20
11.671526147927068
30
0
10
-1158.183695371762
20
15.654112246084003
30
0
10
-1169.961105235994
20
22.345274880135339
30
0
10
-1176.6165086701974
20
32.893553428069289
30
0
10
-1174.6875083567838
20
49.63713272618115
30
0
10
-1168.2146865804098
20
70.643041192101379
30
0
10
-1161.7568041748286
20
95.78710554491326
30
0
10
-1157.9247142180855
20
123.94484104270529
30
0
10
-1158.0975001502597
20
153.47735261456248
30
0
10
-1162.7103396472244
20
182.5202286888684
30
0
10
-1171.6789246615592
20
209.34751340520862
30
0
10
-1184.7164009204375
20
232.67905915959693
30
0
10
-1201.7090250371361
20
252.0950920169943
30
0
10
-1222.7162757653768
20
267.83630274232377
30
0
10
-1247.9035812938273
20
280.51104577555066
30
0
10
-1271.5713143706394
20
288.79012629838559
30
0
10
-1291.3896200520339
20
294.23656803887826
30
0
10
-1305.5336923216421
20
297.56709147555136
30
0
10
-1312.8386966031883
20
299.15724243887888
30
0
0
SPLINE
5
141
100
AcDbEntity
8
0
100
AcDbSpline
70
0
71
3
72
14
73
10
74
0
42
0.000000001
43
0.0000000001
44
0.0000000001
40
0
40
0
40
0
40
0
40
0.2558779595961107
40
0.2558779595961107
40
0.2558779595961107
40
0.50491233608051656
40
0.50491233608051656
40
0.50491233608051656
40
0.76436205402537216
40
0.76436205402537216
40
0.76436205402537216
40
0.76436205402537216
10
-1316.0291770091935
20
284.50047489692429
30
0
10
-1334.5330049104014
20
288.52838215450436
30
0
10
-1355.5734598989584
20
291.74840963098637
30
0
10
-1378.8183729519503
20
294.29218971697327
30
0
10
-1401.4415892607067
20
296.76793514118697
30
0
10
-1426.091190316909
20
298.62316123623964
30
0
10
-1452.5794843356175
20
300.05228454282081
30
0
10
-1480.175595800272
20
301.54117793993032
30
0
10
-1509.7659825114329
20
302.57392012760954
30
0
10
-1541.7399176174108
20
303.2453918503607
30
0
0
LINE
5
142
100
AcDbEntity
8
0
100
AcDbLine
10
-1264.4775755074797
20
145.36769806728356
30
0
11
-1248.8335198200225
21
145.36769806728353
31
0
0
LINE
5
143
100
AcDbEntity
8
0
100
AcDbLine
10
-1426.8695470225359
20
274.46379696123228
30
0
11
-1376.8650205306376
21
265.699101267353
31
0
0
LINE
5
144
100
AcDbEntity
8
0
100
AcDbLine
10
-1426.7457582404415
20
31.141387064659448
30
0
11
-1376.7501756008455
21
39.956957200082933
31
0
0
ARC
5
145
100
AcDbEntity
8
0
100
AcDbCircle
10
-1392.4837080889235
20
152.82005410902207
30
0
40
128.22288247044935
210
0
220
-0
230
1
100
AcDbArc
50
3.3745791555999136
51
24.981628504666798
0
LINE
5
146
100
AcDbEntity
8
0
100
AcDbLine
10
-1526.9320328219742
20
292.00255415056512
30
0
11
-1476.8834773222602
21
283.23014093677187
31
0
0
ARC
5
147
100
AcDbEntity
8
0
100
AcDbCircle
10
-1316.7290060800872
20
117.618463120173
30
0
40
44.688896066176724
210
0
220
0
230
1
100
AcDbArc
50
279.96125017964874
51
335.07671388944362
0
LINE
5
148
100
AcDbEntity
8
0
100
AcDbLine
10
-1526.7903467780311
20
13.500826629866584
30
0
11
-1476.7507430058902
21
22.324159080172336
31
0
0
LINE
5
149
100
AcDbEntity
8
0
100
AcDbLine
10
-1476.8834773222602
20
283.23014093677187
30
0
11
-1426.8695470225359
21
274.46379696123228
31
0
0
ARC
5
150
100
AcDbEntity
8
0
100
AcDbCircle
10
-1316.7648624710914
20
188.0987063351532
30
0
40
30.000000000029555
210
0
220
-0
230
1
100
AcDbArc
50
24.981583857603589
51
80.058297747058262
0
LINE
5
151
100
AcDbEntity
8
0
100
AcDbLine
10
-1541.7399176174108
20
303.2453918503607
30
0
11
-1596.9621097443303
21
304.02046764064585
31
0
0
LINE
5
152
100
AcDbEntity
8
0
100
AcDbLine
10
-1576.8905989743664
20
291.9517219098218
30
0
11
-1526.9320328219742
21
292.00255415056512
31
0
0
LINE
5
153
100
AcDbEntity
8
0
100
AcDbLine
10
-1312.7725524778407
20
1.673048108628655e-07
30
0
11
-1142
21
1.673048310150091e-07
31
0
0
LINE
5
154
100
AcDbEntity
8
0
100
AcDbLine
10
-1576.7533757950691
20
7.6797665941684912
30
0
11
-1476.7507430058902
21
7.6797665941685018
31
0
0
ENDSEC
0
SECTION
2
OBJECTS
0
DICTIONARY
5
C
100
AcDbDictionary
3
ACAD_GROUP
350
D
3
ACAD_MLINESTYLE
350
17
0
DICTIONARY
5
D
100
AcDbDictionary
0
DICTIONARY
5
1A
330
C
100
AcDbDictionary
0
DICTIONARY
5
17
100
AcDbDictionary
0
ENDSEC
0
EOF
