ISO-10303-21;
HEADER;
/* Generated by software containing ST-Developer
 * from STEP Tools, Inc. (www.steptools.com) 
 */

FILE_DESCRIPTION(
/* description */ (''),
/* implementation_level */ '2;1');

FILE_NAME(
/* name */ '3.10 Top mold.step',
/* time_stamp */ '2024-08-15T22:13:59+02:00',
/* author */ (''),
/* organization */ (''),
/* preprocessor_version */ 'ST-DEVELOPER v20',
/* originating_system */ 'Autodesk Translation Framework v13.14.0.145',

/* authorisation */ '');

FILE_SCHEMA (('AUTOMOTIVE_DESIGN { 1 0 10303 214 3 1 1 }'));
ENDSEC;

DATA;
#10=MECHANICAL_DESIGN_GEOMETRIC_PRESENTATION_REPRESENTATION('',(#17),#532);
#11=ITEM_DEFINED_TRANSFORMATION($,$,#316,#350);
#12=(
REPRESENTATION_RELATIONSHIP($,$,#543,#542)
REPRESENTATION_RELATIONSHIP_WITH_TRANSFORMATION(#11)
SHAPE_REPRESENTATION_RELATIONSHIP()
);
#13=CONTEXT_DEPENDENT_SHAPE_REPRESENTATION(#12,#541);
#14=NEXT_ASSEMBLY_USAGE_OCCURRENCE('Top mould:1','Top mould:1',
'Top mould:1',#545,#546,'Top mould:1');
#15=SHAPE_REPRESENTATION_RELATIONSHIP('SRR','None',#543,#16);
#16=ADVANCED_BREP_SHAPE_REPRESENTATION('',(#18),#531);
#17=STYLED_ITEM('',(#557),#18);
#18=MANIFOLD_SOLID_BREP('Top mould',#302);
#19=FACE_BOUND('',#53,.T.);
#20=FACE_BOUND('',#54,.T.);
#21=FACE_BOUND('',#55,.T.);
#22=FACE_BOUND('',#56,.T.);
#23=FACE_BOUND('',#57,.T.);
#24=FACE_BOUND('',#70,.T.);
#25=FACE_BOUND('',#71,.T.);
#26=FACE_BOUND('',#72,.T.);
#27=FACE_BOUND('',#73,.T.);
#28=FACE_BOUND('',#74,.T.);
#29=PLANE('',#320);
#30=PLANE('',#321);
#31=PLANE('',#332);
#32=PLANE('',#335);
#33=PLANE('',#348);
#34=PLANE('',#349);
#35=FACE_OUTER_BOUND('',#50,.T.);
#36=FACE_OUTER_BOUND('',#51,.T.);
#37=FACE_OUTER_BOUND('',#52,.T.);
#38=FACE_OUTER_BOUND('',#58,.T.);
#39=FACE_OUTER_BOUND('',#59,.T.);
#40=FACE_OUTER_BOUND('',#60,.T.);
#41=FACE_OUTER_BOUND('',#61,.T.);
#42=FACE_OUTER_BOUND('',#62,.T.);
#43=FACE_OUTER_BOUND('',#63,.T.);
#44=FACE_OUTER_BOUND('',#64,.T.);
#45=FACE_OUTER_BOUND('',#65,.T.);
#46=FACE_OUTER_BOUND('',#66,.T.);
#47=FACE_OUTER_BOUND('',#67,.T.);
#48=FACE_OUTER_BOUND('',#68,.T.);
#49=FACE_OUTER_BOUND('',#69,.T.);
#50=EDGE_LOOP('',(#200,#201,#202,#203));
#51=EDGE_LOOP('',(#204,#205,#206,#207));
#52=EDGE_LOOP('',(#208,#209,#210,#211,#212,#213,#214,#215));
#53=EDGE_LOOP('',(#216));
#54=EDGE_LOOP('',(#217));
#55=EDGE_LOOP('',(#218));
#56=EDGE_LOOP('',(#219));
#57=EDGE_LOOP('',(#220));
#58=EDGE_LOOP('',(#221,#222,#223,#224));
#59=EDGE_LOOP('',(#225,#226,#227,#228));
#60=EDGE_LOOP('',(#229,#230,#231,#232));
#61=EDGE_LOOP('',(#233,#234,#235,#236));
#62=EDGE_LOOP('',(#237,#238,#239,#240));
#63=EDGE_LOOP('',(#241,#242,#243,#244));
#64=EDGE_LOOP('',(#245,#246,#247,#248));
#65=EDGE_LOOP('',(#249,#250,#251,#252));
#66=EDGE_LOOP('',(#253,#254,#255,#256));
#67=EDGE_LOOP('',(#257,#258,#259,#260));
#68=EDGE_LOOP('',(#261,#262,#263,#264));
#69=EDGE_LOOP('',(#265,#266,#267,#268,#269,#270,#271,#272));
#70=EDGE_LOOP('',(#273));
#71=EDGE_LOOP('',(#274));
#72=EDGE_LOOP('',(#275));
#73=EDGE_LOOP('',(#276));
#74=EDGE_LOOP('',(#277));
#75=LINE('',#451,#96);
#76=LINE('',#454,#97);
#77=LINE('',#457,#98);
#78=LINE('',#459,#99);
#79=LINE('',#460,#100);
#80=LINE('',#463,#101);
#81=LINE('',#467,#102);
#82=LINE('',#471,#103);
#83=LINE('',#486,#104);
#84=LINE('',#489,#105);
#85=LINE('',#490,#106);
#86=LINE('',#494,#107);
#87=LINE('',#497,#108);
#88=LINE('',#498,#109);
#89=LINE('',#502,#110);
#90=LINE('',#506,#111);
#91=LINE('',#510,#112);
#92=LINE('',#514,#113);
#93=LINE('',#518,#114);
#94=LINE('',#522,#115);
#95=LINE('',#524,#116);
#96=VECTOR('',#359,10.);
#97=VECTOR('',#362,10.);
#98=VECTOR('',#365,10.);
#99=VECTOR('',#366,10.);
#100=VECTOR('',#367,10.);
#101=VECTOR('',#370,10.);
#102=VECTOR('',#373,10.);
#103=VECTOR('',#376,10.);
#104=VECTOR('',#393,10.);
#105=VECTOR('',#396,10.);
#106=VECTOR('',#397,10.);
#107=VECTOR('',#402,10.);
#108=VECTOR('',#405,10.);
#109=VECTOR('',#406,10.);
#110=VECTOR('',#411,10.);
#111=VECTOR('',#416,2.5);
#112=VECTOR('',#421,2.5);
#113=VECTOR('',#426,2.5);
#114=VECTOR('',#431,2.);
#115=VECTOR('',#436,2.5);
#116=VECTOR('',#439,10.);
#117=CIRCLE('',#318,3.5);
#118=CIRCLE('',#319,3.5);
#119=CIRCLE('',#322,3.5);
#120=CIRCLE('',#323,3.5);
#121=CIRCLE('',#324,3.5);
#122=CIRCLE('',#325,2.5);
#123=CIRCLE('',#326,2.);
#124=CIRCLE('',#327,2.5);
#125=CIRCLE('',#328,2.5);
#126=CIRCLE('',#329,2.5);
#127=CIRCLE('',#331,3.5);
#128=CIRCLE('',#334,3.5);
#129=CIRCLE('',#337,3.5);
#130=CIRCLE('',#339,2.5);
#131=CIRCLE('',#341,2.5);
#132=CIRCLE('',#343,2.5);
#133=CIRCLE('',#345,2.);
#134=CIRCLE('',#347,2.5);
#135=VERTEX_POINT('',#447);
#136=VERTEX_POINT('',#448);
#137=VERTEX_POINT('',#450);
#138=VERTEX_POINT('',#452);
#139=VERTEX_POINT('',#456);
#140=VERTEX_POINT('',#458);
#141=VERTEX_POINT('',#462);
#142=VERTEX_POINT('',#464);
#143=VERTEX_POINT('',#466);
#144=VERTEX_POINT('',#468);
#145=VERTEX_POINT('',#470);
#146=VERTEX_POINT('',#473);
#147=VERTEX_POINT('',#475);
#148=VERTEX_POINT('',#477);
#149=VERTEX_POINT('',#479);
#150=VERTEX_POINT('',#481);
#151=VERTEX_POINT('',#484);
#152=VERTEX_POINT('',#488);
#153=VERTEX_POINT('',#492);
#154=VERTEX_POINT('',#496);
#155=VERTEX_POINT('',#500);
#156=VERTEX_POINT('',#504);
#157=VERTEX_POINT('',#508);
#158=VERTEX_POINT('',#512);
#159=VERTEX_POINT('',#516);
#160=VERTEX_POINT('',#520);
#161=EDGE_CURVE('',#135,#136,#117,.T.);
#162=EDGE_CURVE('',#136,#137,#75,.T.);
#163=EDGE_CURVE('',#137,#138,#118,.T.);
#164=EDGE_CURVE('',#138,#135,#76,.T.);
#165=EDGE_CURVE('',#138,#139,#77,.T.);
#166=EDGE_CURVE('',#140,#139,#78,.T.);
#167=EDGE_CURVE('',#135,#140,#79,.T.);
#168=EDGE_CURVE('',#141,#137,#80,.T.);
#169=EDGE_CURVE('',#142,#141,#119,.T.);
#170=EDGE_CURVE('',#143,#142,#81,.T.);
#171=EDGE_CURVE('',#144,#143,#120,.T.);
#172=EDGE_CURVE('',#145,#144,#82,.T.);
#173=EDGE_CURVE('',#139,#145,#121,.T.);
#174=EDGE_CURVE('',#146,#146,#122,.T.);
#175=EDGE_CURVE('',#147,#147,#123,.T.);
#176=EDGE_CURVE('',#148,#148,#124,.T.);
#177=EDGE_CURVE('',#149,#149,#125,.T.);
#178=EDGE_CURVE('',#150,#150,#126,.T.);
#179=EDGE_CURVE('',#151,#140,#127,.T.);
#180=EDGE_CURVE('',#145,#151,#83,.T.);
#181=EDGE_CURVE('',#152,#144,#84,.T.);
#182=EDGE_CURVE('',#151,#152,#85,.T.);
#183=EDGE_CURVE('',#153,#152,#128,.T.);
#184=EDGE_CURVE('',#143,#153,#86,.T.);
#185=EDGE_CURVE('',#154,#142,#87,.T.);
#186=EDGE_CURVE('',#153,#154,#88,.T.);
#187=EDGE_CURVE('',#155,#154,#129,.T.);
#188=EDGE_CURVE('',#141,#155,#89,.T.);
#189=EDGE_CURVE('',#156,#156,#130,.T.);
#190=EDGE_CURVE('',#156,#150,#90,.T.);
#191=EDGE_CURVE('',#157,#157,#131,.T.);
#192=EDGE_CURVE('',#157,#149,#91,.T.);
#193=EDGE_CURVE('',#158,#158,#132,.T.);
#194=EDGE_CURVE('',#158,#148,#92,.T.);
#195=EDGE_CURVE('',#159,#159,#133,.T.);
#196=EDGE_CURVE('',#159,#147,#93,.T.);
#197=EDGE_CURVE('',#160,#160,#134,.T.);
#198=EDGE_CURVE('',#160,#146,#94,.T.);
#199=EDGE_CURVE('',#155,#136,#95,.T.);
#200=ORIENTED_EDGE('',*,*,#161,.T.);
#201=ORIENTED_EDGE('',*,*,#162,.T.);
#202=ORIENTED_EDGE('',*,*,#163,.T.);
#203=ORIENTED_EDGE('',*,*,#164,.T.);
#204=ORIENTED_EDGE('',*,*,#164,.F.);
#205=ORIENTED_EDGE('',*,*,#165,.T.);
#206=ORIENTED_EDGE('',*,*,#166,.F.);
#207=ORIENTED_EDGE('',*,*,#167,.F.);
#208=ORIENTED_EDGE('',*,*,#163,.F.);
#209=ORIENTED_EDGE('',*,*,#168,.F.);
#210=ORIENTED_EDGE('',*,*,#169,.F.);
#211=ORIENTED_EDGE('',*,*,#170,.F.);
#212=ORIENTED_EDGE('',*,*,#171,.F.);
#213=ORIENTED_EDGE('',*,*,#172,.F.);
#214=ORIENTED_EDGE('',*,*,#173,.F.);
#215=ORIENTED_EDGE('',*,*,#165,.F.);
#216=ORIENTED_EDGE('',*,*,#174,.F.);
#217=ORIENTED_EDGE('',*,*,#175,.F.);
#218=ORIENTED_EDGE('',*,*,#176,.F.);
#219=ORIENTED_EDGE('',*,*,#177,.F.);
#220=ORIENTED_EDGE('',*,*,#178,.F.);
#221=ORIENTED_EDGE('',*,*,#179,.T.);
#222=ORIENTED_EDGE('',*,*,#166,.T.);
#223=ORIENTED_EDGE('',*,*,#173,.T.);
#224=ORIENTED_EDGE('',*,*,#180,.T.);
#225=ORIENTED_EDGE('',*,*,#180,.F.);
#226=ORIENTED_EDGE('',*,*,#172,.T.);
#227=ORIENTED_EDGE('',*,*,#181,.F.);
#228=ORIENTED_EDGE('',*,*,#182,.F.);
#229=ORIENTED_EDGE('',*,*,#183,.T.);
#230=ORIENTED_EDGE('',*,*,#181,.T.);
#231=ORIENTED_EDGE('',*,*,#171,.T.);
#232=ORIENTED_EDGE('',*,*,#184,.T.);
#233=ORIENTED_EDGE('',*,*,#184,.F.);
#234=ORIENTED_EDGE('',*,*,#170,.T.);
#235=ORIENTED_EDGE('',*,*,#185,.F.);
#236=ORIENTED_EDGE('',*,*,#186,.F.);
#237=ORIENTED_EDGE('',*,*,#187,.T.);
#238=ORIENTED_EDGE('',*,*,#185,.T.);
#239=ORIENTED_EDGE('',*,*,#169,.T.);
#240=ORIENTED_EDGE('',*,*,#188,.T.);
#241=ORIENTED_EDGE('',*,*,#189,.F.);
#242=ORIENTED_EDGE('',*,*,#190,.T.);
#243=ORIENTED_EDGE('',*,*,#178,.T.);
#244=ORIENTED_EDGE('',*,*,#190,.F.);
#245=ORIENTED_EDGE('',*,*,#191,.F.);
#246=ORIENTED_EDGE('',*,*,#192,.T.);
#247=ORIENTED_EDGE('',*,*,#177,.T.);
#248=ORIENTED_EDGE('',*,*,#192,.F.);
#249=ORIENTED_EDGE('',*,*,#193,.F.);
#250=ORIENTED_EDGE('',*,*,#194,.T.);
#251=ORIENTED_EDGE('',*,*,#176,.T.);
#252=ORIENTED_EDGE('',*,*,#194,.F.);
#253=ORIENTED_EDGE('',*,*,#195,.F.);
#254=ORIENTED_EDGE('',*,*,#196,.T.);
#255=ORIENTED_EDGE('',*,*,#175,.T.);
#256=ORIENTED_EDGE('',*,*,#196,.F.);
#257=ORIENTED_EDGE('',*,*,#197,.F.);
#258=ORIENTED_EDGE('',*,*,#198,.T.);
#259=ORIENTED_EDGE('',*,*,#174,.T.);
#260=ORIENTED_EDGE('',*,*,#198,.F.);
#261=ORIENTED_EDGE('',*,*,#162,.F.);
#262=ORIENTED_EDGE('',*,*,#199,.F.);
#263=ORIENTED_EDGE('',*,*,#188,.F.);
#264=ORIENTED_EDGE('',*,*,#168,.T.);
#265=ORIENTED_EDGE('',*,*,#161,.F.);
#266=ORIENTED_EDGE('',*,*,#167,.T.);
#267=ORIENTED_EDGE('',*,*,#179,.F.);
#268=ORIENTED_EDGE('',*,*,#182,.T.);
#269=ORIENTED_EDGE('',*,*,#183,.F.);
#270=ORIENTED_EDGE('',*,*,#186,.T.);
#271=ORIENTED_EDGE('',*,*,#187,.F.);
#272=ORIENTED_EDGE('',*,*,#199,.T.);
#273=ORIENTED_EDGE('',*,*,#197,.T.);
#274=ORIENTED_EDGE('',*,*,#195,.T.);
#275=ORIENTED_EDGE('',*,*,#193,.T.);
#276=ORIENTED_EDGE('',*,*,#191,.T.);
#277=ORIENTED_EDGE('',*,*,#189,.T.);
#278=CYLINDRICAL_SURFACE('',#317,3.5);
#279=CYLINDRICAL_SURFACE('',#330,3.5);
#280=CYLINDRICAL_SURFACE('',#333,3.5);
#281=CYLINDRICAL_SURFACE('',#336,3.5);
#282=CYLINDRICAL_SURFACE('',#338,2.5);
#283=CYLINDRICAL_SURFACE('',#340,2.5);
#284=CYLINDRICAL_SURFACE('',#342,2.5);
#285=CYLINDRICAL_SURFACE('',#344,2.);
#286=CYLINDRICAL_SURFACE('',#346,2.5);
#287=ADVANCED_FACE('',(#35),#278,.T.);
#288=ADVANCED_FACE('',(#36),#29,.T.);
#289=ADVANCED_FACE('',(#37,#19,#20,#21,#22,#23),#30,.F.);
#290=ADVANCED_FACE('',(#38),#279,.T.);
#291=ADVANCED_FACE('',(#39),#31,.T.);
#292=ADVANCED_FACE('',(#40),#280,.T.);
#293=ADVANCED_FACE('',(#41),#32,.T.);
#294=ADVANCED_FACE('',(#42),#281,.T.);
#295=ADVANCED_FACE('',(#43),#282,.F.);
#296=ADVANCED_FACE('',(#44),#283,.F.);
#297=ADVANCED_FACE('',(#45),#284,.F.);
#298=ADVANCED_FACE('',(#46),#285,.F.);
#299=ADVANCED_FACE('',(#47),#286,.F.);
#300=ADVANCED_FACE('',(#48),#33,.T.);
#301=ADVANCED_FACE('',(#49,#24,#25,#26,#27,#28),#34,.T.);
#302=CLOSED_SHELL('',(#287,#288,#289,#290,#291,#292,#293,#294,#295,#296,
#297,#298,#299,#300,#301));
#303=DERIVED_UNIT_ELEMENT(#305,1.);
#304=DERIVED_UNIT_ELEMENT(#534,-3.);
#305=(
MASS_UNIT()
NAMED_UNIT(*)
SI_UNIT(.KILO.,.GRAM.)
);
#306=DERIVED_UNIT((#303,#304));
#307=MEASURE_REPRESENTATION_ITEM('density measure',
POSITIVE_RATIO_MEASURE(7850.),#306);
#308=PROPERTY_DEFINITION_REPRESENTATION(#313,#310);
#309=PROPERTY_DEFINITION_REPRESENTATION(#314,#311);
#310=REPRESENTATION('material name',(#312),#531);
#311=REPRESENTATION('density',(#307),#531);
#312=DESCRIPTIVE_REPRESENTATION_ITEM('Steel','Steel');
#313=PROPERTY_DEFINITION('material property','material name',#546);
#314=PROPERTY_DEFINITION('material property','density of part',#546);
#315=AXIS2_PLACEMENT_3D('',#444,#351,#352);
#316=AXIS2_PLACEMENT_3D('',#445,#353,#354);
#317=AXIS2_PLACEMENT_3D('',#446,#355,#356);
#318=AXIS2_PLACEMENT_3D('',#449,#357,#358);
#319=AXIS2_PLACEMENT_3D('',#453,#360,#361);
#320=AXIS2_PLACEMENT_3D('',#455,#363,#364);
#321=AXIS2_PLACEMENT_3D('',#461,#368,#369);
#322=AXIS2_PLACEMENT_3D('',#465,#371,#372);
#323=AXIS2_PLACEMENT_3D('',#469,#374,#375);
#324=AXIS2_PLACEMENT_3D('',#472,#377,#378);
#325=AXIS2_PLACEMENT_3D('',#474,#379,#380);
#326=AXIS2_PLACEMENT_3D('',#476,#381,#382);
#327=AXIS2_PLACEMENT_3D('',#478,#383,#384);
#328=AXIS2_PLACEMENT_3D('',#480,#385,#386);
#329=AXIS2_PLACEMENT_3D('',#482,#387,#388);
#330=AXIS2_PLACEMENT_3D('',#483,#389,#390);
#331=AXIS2_PLACEMENT_3D('',#485,#391,#392);
#332=AXIS2_PLACEMENT_3D('',#487,#394,#395);
#333=AXIS2_PLACEMENT_3D('',#491,#398,#399);
#334=AXIS2_PLACEMENT_3D('',#493,#400,#401);
#335=AXIS2_PLACEMENT_3D('',#495,#403,#404);
#336=AXIS2_PLACEMENT_3D('',#499,#407,#408);
#337=AXIS2_PLACEMENT_3D('',#501,#409,#410);
#338=AXIS2_PLACEMENT_3D('',#503,#412,#413);
#339=AXIS2_PLACEMENT_3D('',#505,#414,#415);
#340=AXIS2_PLACEMENT_3D('',#507,#417,#418);
#341=AXIS2_PLACEMENT_3D('',#509,#419,#420);
#342=AXIS2_PLACEMENT_3D('',#511,#422,#423);
#343=AXIS2_PLACEMENT_3D('',#513,#424,#425);
#344=AXIS2_PLACEMENT_3D('',#515,#427,#428);
#345=AXIS2_PLACEMENT_3D('',#517,#429,#430);
#346=AXIS2_PLACEMENT_3D('',#519,#432,#433);
#347=AXIS2_PLACEMENT_3D('',#521,#434,#435);
#348=AXIS2_PLACEMENT_3D('',#523,#437,#438);
#349=AXIS2_PLACEMENT_3D('',#525,#440,#441);
#350=AXIS2_PLACEMENT_3D('',#526,#442,#443);
#351=DIRECTION('axis',(0.,0.,1.));
#352=DIRECTION('refdir',(1.,0.,0.));
#353=DIRECTION('axis',(0.,0.,1.));
#354=DIRECTION('refdir',(1.,0.,0.));
#355=DIRECTION('center_axis',(0.,0.,1.));
#356=DIRECTION('ref_axis',(-0.707106781186547,0.707106781186548,0.));
#357=DIRECTION('center_axis',(-1.2013198408832E-17,5.97518053742629E-18,
-1.));
#358=DIRECTION('ref_axis',(-0.707106781186547,0.707106781186548,0.));
#359=DIRECTION('',(0.,0.,-1.));
#360=DIRECTION('center_axis',(1.2013198408832E-17,-5.97518053742629E-18,
1.));
#361=DIRECTION('ref_axis',(-0.707106781186547,0.707106781186548,0.));
#362=DIRECTION('',(0.,0.,1.));
#363=DIRECTION('center_axis',(-1.,7.21644966006352E-16,0.));
#364=DIRECTION('ref_axis',(-7.21644966006352E-16,-1.,-5.97518053742628E-18));
#365=DIRECTION('',(-7.21644966006352E-16,-1.,-5.97518053742628E-18));
#366=DIRECTION('',(0.,0.,-1.));
#367=DIRECTION('',(-7.21644966006352E-16,-1.,-5.97518053742628E-18));
#368=DIRECTION('center_axis',(1.2013198408832E-17,-5.97518053742629E-18,
1.));
#369=DIRECTION('ref_axis',(-1.,0.,1.2013198408832E-17));
#370=DIRECTION('',(-1.,0.,1.2013198408832E-17));
#371=DIRECTION('center_axis',(1.2013198408832E-17,-5.97518053742629E-18,
1.));
#372=DIRECTION('ref_axis',(0.707106781186548,0.707106781186547,0.));
#373=DIRECTION('',(7.17810293246932E-35,1.,5.97518053742629E-18));
#374=DIRECTION('center_axis',(1.2013198408832E-17,-5.97518053742629E-18,
1.));
#375=DIRECTION('ref_axis',(0.707106781186548,-0.707106781186547,0.));
#376=DIRECTION('',(1.,0.,-1.2013198408832E-17));
#377=DIRECTION('center_axis',(1.2013198408832E-17,-5.97518053742629E-18,
1.));
#378=DIRECTION('ref_axis',(-0.707106781186548,-0.707106781186547,0.));
#379=DIRECTION('center_axis',(-1.2013198408832E-17,5.97518053742629E-18,
-1.));
#380=DIRECTION('ref_axis',(-1.,0.,1.2013198408832E-17));
#381=DIRECTION('center_axis',(-1.2013198408832E-17,5.97518053742629E-18,
-1.));
#382=DIRECTION('ref_axis',(-1.,0.,1.2013198408832E-17));
#383=DIRECTION('center_axis',(-1.2013198408832E-17,5.97518053742629E-18,
-1.));
#384=DIRECTION('ref_axis',(-1.,0.,1.2013198408832E-17));
#385=DIRECTION('center_axis',(-1.2013198408832E-17,5.97518053742629E-18,
-1.));
#386=DIRECTION('ref_axis',(-1.,0.,1.2013198408832E-17));
#387=DIRECTION('center_axis',(-1.2013198408832E-17,5.97518053742629E-18,
-1.));
#388=DIRECTION('ref_axis',(-1.,0.,1.2013198408832E-17));
#389=DIRECTION('center_axis',(0.,0.,1.));
#390=DIRECTION('ref_axis',(-0.707106781186548,-0.707106781186547,0.));
#391=DIRECTION('center_axis',(-1.2013198408832E-17,5.97518053742629E-18,
-1.));
#392=DIRECTION('ref_axis',(-0.707106781186548,-0.707106781186547,0.));
#393=DIRECTION('',(0.,0.,1.));
#394=DIRECTION('center_axis',(0.,-1.,0.));
#395=DIRECTION('ref_axis',(1.,0.,-1.2013198408832E-17));
#396=DIRECTION('',(0.,0.,-1.));
#397=DIRECTION('',(1.,0.,-1.2013198408832E-17));
#398=DIRECTION('center_axis',(0.,0.,1.));
#399=DIRECTION('ref_axis',(0.707106781186548,-0.707106781186547,0.));
#400=DIRECTION('center_axis',(-1.2013198408832E-17,5.97518053742629E-18,
-1.));
#401=DIRECTION('ref_axis',(0.707106781186548,-0.707106781186547,0.));
#402=DIRECTION('',(0.,0.,1.));
#403=DIRECTION('center_axis',(1.,-7.17810293246932E-35,0.));
#404=DIRECTION('ref_axis',(7.17810293246932E-35,1.,5.97518053742629E-18));
#405=DIRECTION('',(0.,0.,-1.));
#406=DIRECTION('',(7.17810293246932E-35,1.,5.97518053742629E-18));
#407=DIRECTION('center_axis',(0.,0.,1.));
#408=DIRECTION('ref_axis',(0.707106781186548,0.707106781186547,0.));
#409=DIRECTION('center_axis',(-1.2013198408832E-17,5.97518053742629E-18,
-1.));
#410=DIRECTION('ref_axis',(0.707106781186548,0.707106781186547,0.));
#411=DIRECTION('',(0.,0.,1.));
#412=DIRECTION('center_axis',(0.,0.,1.));
#413=DIRECTION('ref_axis',(-1.,0.,0.));
#414=DIRECTION('center_axis',(-1.2013198408832E-17,5.97518053742629E-18,
-1.));
#415=DIRECTION('ref_axis',(-1.,0.,1.2013198408832E-17));
#416=DIRECTION('',(0.,0.,-1.));
#417=DIRECTION('center_axis',(0.,0.,1.));
#418=DIRECTION('ref_axis',(-1.,0.,0.));
#419=DIRECTION('center_axis',(-1.2013198408832E-17,5.97518053742629E-18,
-1.));
#420=DIRECTION('ref_axis',(-1.,0.,1.2013198408832E-17));
#421=DIRECTION('',(0.,0.,-1.));
#422=DIRECTION('center_axis',(0.,0.,1.));
#423=DIRECTION('ref_axis',(-1.,0.,0.));
#424=DIRECTION('center_axis',(-1.2013198408832E-17,5.97518053742629E-18,
-1.));
#425=DIRECTION('ref_axis',(-1.,0.,1.2013198408832E-17));
#426=DIRECTION('',(0.,0.,-1.));
#427=DIRECTION('center_axis',(0.,0.,1.));
#428=DIRECTION('ref_axis',(-1.,0.,0.));
#429=DIRECTION('center_axis',(-1.2013198408832E-17,5.97518053742629E-18,
-1.));
#430=DIRECTION('ref_axis',(-1.,0.,1.2013198408832E-17));
#431=DIRECTION('',(0.,0.,-1.));
#432=DIRECTION('center_axis',(0.,0.,1.));
#433=DIRECTION('ref_axis',(-1.,0.,0.));
#434=DIRECTION('center_axis',(-1.2013198408832E-17,5.97518053742629E-18,
-1.));
#435=DIRECTION('ref_axis',(-1.,0.,1.2013198408832E-17));
#436=DIRECTION('',(0.,0.,-1.));
#437=DIRECTION('center_axis',(0.,1.,0.));
#438=DIRECTION('ref_axis',(-1.,0.,1.2013198408832E-17));
#439=DIRECTION('',(-1.,0.,1.2013198408832E-17));
#440=DIRECTION('center_axis',(1.2013198408832E-17,-5.97518053742629E-18,
1.));
#441=DIRECTION('ref_axis',(-1.,0.,1.2013198408832E-17));
#442=DIRECTION('',(0.,0.,1.));
#443=DIRECTION('',(1.,0.,0.));
#444=CARTESIAN_POINT('',(0.,0.,0.));
#445=CARTESIAN_POINT('',(0.,0.,0.));
#446=CARTESIAN_POINT('Origin',(-34.5,21.5,3.34678943193556E-16));
#447=CARTESIAN_POINT('',(-38.,21.5,6.));
#448=CARTESIAN_POINT('',(-34.5,25.,6.));
#449=CARTESIAN_POINT('Origin',(-34.5,21.5,6.));
#450=CARTESIAN_POINT('',(-34.5,25.,6.53028701027603E-16));
#451=CARTESIAN_POINT('',(-34.5,25.,3.34678943193556E-16));
#452=CARTESIAN_POINT('',(-38.,21.5,6.74161763577523E-16));
#453=CARTESIAN_POINT('Origin',(-34.5,21.5,9.5671721696505E-17));
#454=CARTESIAN_POINT('',(-38.,21.5,3.34678943193556E-16));
#455=CARTESIAN_POINT('Origin',(-38.,25.,6.95074895458515E-16));
#456=CARTESIAN_POINT('',(-38.,-51.5,2.37973584345405E-16));
#457=CARTESIAN_POINT('',(-38.,25.,6.95074895458515E-16));
#458=CARTESIAN_POINT('',(-38.,-51.5,6.));
#459=CARTESIAN_POINT('',(-38.,-51.5,4.56067673961464E-16));
#460=CARTESIAN_POINT('',(-38.,25.,6.));
#461=CARTESIAN_POINT('Origin',(-8.00000000000003,-15.,9.5671721696505E-17));
#462=CARTESIAN_POINT('',(18.5,25.,1.63291853595091E-17));
#463=CARTESIAN_POINT('',(22.,25.,-2.57170090714029E-17));
#464=CARTESIAN_POINT('',(22.,21.5,-4.66301409523948E-17));
#465=CARTESIAN_POINT('Origin',(18.5,21.5,9.5671721696505E-17));
#466=CARTESIAN_POINT('',(22.,-51.5,-4.82818320184514E-16));
#467=CARTESIAN_POINT('',(22.,-55.,-5.03731452065506E-16));
#468=CARTESIAN_POINT('',(18.5,-55.,-4.61685257634594E-16));
#469=CARTESIAN_POINT('Origin',(18.5,-51.5,9.5671721696505E-17));
#470=CARTESIAN_POINT('',(-34.5,-55.,1.75014258033501E-16));
#471=CARTESIAN_POINT('',(-38.,-55.,2.17060452464413E-16));
#472=CARTESIAN_POINT('Origin',(-34.5,-51.5,9.5671721696505E-17));
#473=CARTESIAN_POINT('',(-25.5,-45.,1.26647277728276E-16));
#474=CARTESIAN_POINT('Origin',(-28.,-45.,1.56680273750356E-16));
#475=CARTESIAN_POINT('',(-6.00000000000001,-15.,7.16453248788409E-17));
#476=CARTESIAN_POINT('Origin',(-8.00000000000001,-15.,9.56717216965049E-17));
#477=CARTESIAN_POINT('',(-25.5000000000001,15.,4.85158109973854E-16));
#478=CARTESIAN_POINT('Origin',(-28.0000000000001,15.,5.15191105995934E-16));
#479=CARTESIAN_POINT('',(14.5,-45.,-3.53880658625003E-16));
#480=CARTESIAN_POINT('Origin',(12.,-45.,-3.23847662602923E-16));
#481=CARTESIAN_POINT('',(14.4999999999999,15.0000000000001,4.63017362057511E-18));
#482=CARTESIAN_POINT('Origin',(11.9999999999999,15.0000000000001,3.4663169642655E-17));
#483=CARTESIAN_POINT('Origin',(-34.5,-51.5,4.56067673961464E-16));
#484=CARTESIAN_POINT('',(-34.5,-55.,6.));
#485=CARTESIAN_POINT('Origin',(-34.5,-51.5,6.));
#486=CARTESIAN_POINT('',(-34.5,-55.,4.56067673961464E-16));
#487=CARTESIAN_POINT('Origin',(-38.,-55.,2.17060452464413E-16));
#488=CARTESIAN_POINT('',(18.5,-55.,6.));
#489=CARTESIAN_POINT('',(18.5,-55.,-1.43335499800546E-16));
#490=CARTESIAN_POINT('',(-38.,-55.,6.));
#491=CARTESIAN_POINT('Origin',(18.5,-51.5,-1.43335499800546E-16));
#492=CARTESIAN_POINT('',(22.,-51.5,6.));
#493=CARTESIAN_POINT('Origin',(18.5,-51.5,6.));
#494=CARTESIAN_POINT('',(22.,-51.5,-1.43335499800546E-16));
#495=CARTESIAN_POINT('Origin',(22.,-55.,-5.03731452065506E-16));
#496=CARTESIAN_POINT('',(22.,21.5,6.));
#497=CARTESIAN_POINT('',(22.,21.5,-2.64724230568454E-16));
#498=CARTESIAN_POINT('',(22.,-55.,6.));
#499=CARTESIAN_POINT('Origin',(18.5,21.5,-2.64724230568454E-16));
#500=CARTESIAN_POINT('',(18.5,25.,6.));
#501=CARTESIAN_POINT('Origin',(18.5,21.5,6.));
#502=CARTESIAN_POINT('',(18.5,25.,-2.64724230568454E-16));
#503=CARTESIAN_POINT('Origin',(11.9999999999999,15.0000000000001,3.4663169642655E-17));
#504=CARTESIAN_POINT('',(14.4999999999999,15.0000000000001,6.));
#505=CARTESIAN_POINT('Origin',(11.9999999999999,15.0000000000001,6.));
#506=CARTESIAN_POINT('',(14.4999999999999,15.0000000000001,3.4663169642655E-17));
#507=CARTESIAN_POINT('Origin',(12.,-45.,-3.23847662602923E-16));
#508=CARTESIAN_POINT('',(14.5,-45.,6.));
#509=CARTESIAN_POINT('Origin',(12.,-45.,6.));
#510=CARTESIAN_POINT('',(14.5,-45.,-3.23847662602923E-16));
#511=CARTESIAN_POINT('Origin',(-28.0000000000001,15.,5.15191105995934E-16));
#512=CARTESIAN_POINT('',(-25.5000000000001,15.,6.));
#513=CARTESIAN_POINT('Origin',(-28.0000000000001,15.,6.));
#514=CARTESIAN_POINT('',(-25.5000000000001,15.,5.15191105995934E-16));
#515=CARTESIAN_POINT('Origin',(-8.00000000000001,-15.,9.56717216965049E-17));
#516=CARTESIAN_POINT('',(-6.00000000000001,-15.,6.));
#517=CARTESIAN_POINT('Origin',(-8.00000000000001,-15.,6.));
#518=CARTESIAN_POINT('',(-6.00000000000001,-15.,9.56717216965049E-17));
#519=CARTESIAN_POINT('Origin',(-28.,-45.,1.56680273750356E-16));
#520=CARTESIAN_POINT('',(-25.5,-45.,6.));
#521=CARTESIAN_POINT('Origin',(-28.,-45.,6.));
#522=CARTESIAN_POINT('',(-25.5,-45.,1.56680273750356E-16));
#523=CARTESIAN_POINT('Origin',(22.,25.,-2.57170090714029E-17));
#524=CARTESIAN_POINT('',(22.,25.,6.));
#525=CARTESIAN_POINT('Origin',(-8.00000000000003,-15.,6.));
#526=CARTESIAN_POINT('',(0.,0.,0.));
#527=UNCERTAINTY_MEASURE_WITH_UNIT(LENGTH_MEASURE(0.01),#533,
'DISTANCE_ACCURACY_VALUE',
'Maximum model space distance between geometric entities at asserted c
onnectivities');
#528=UNCERTAINTY_MEASURE_WITH_UNIT(LENGTH_MEASURE(0.01),#533,
'DISTANCE_ACCURACY_VALUE',
'Maximum model space distance between geometric entities at asserted c
onnectivities');
#529=UNCERTAINTY_MEASURE_WITH_UNIT(LENGTH_MEASURE(0.01),#533,
'DISTANCE_ACCURACY_VALUE',
'Maximum model space distance between geometric entities at asserted c
onnectivities');
#530=(
GEOMETRIC_REPRESENTATION_CONTEXT(3)
GLOBAL_UNCERTAINTY_ASSIGNED_CONTEXT((#527))
GLOBAL_UNIT_ASSIGNED_CONTEXT((#533,#535,#536))
REPRESENTATION_CONTEXT('','3D')
);
#531=(
GEOMETRIC_REPRESENTATION_CONTEXT(3)
GLOBAL_UNCERTAINTY_ASSIGNED_CONTEXT((#528))
GLOBAL_UNIT_ASSIGNED_CONTEXT((#533,#535,#536))
REPRESENTATION_CONTEXT('','3D')
);
#532=(
GEOMETRIC_REPRESENTATION_CONTEXT(3)
GLOBAL_UNCERTAINTY_ASSIGNED_CONTEXT((#529))
GLOBAL_UNIT_ASSIGNED_CONTEXT((#533,#535,#536))
REPRESENTATION_CONTEXT('','3D')
);
#533=(
LENGTH_UNIT()
NAMED_UNIT(*)
SI_UNIT(.MILLI.,.METRE.)
);
#534=(
LENGTH_UNIT()
NAMED_UNIT(*)
SI_UNIT($,.METRE.)
);
#535=(
NAMED_UNIT(*)
PLANE_ANGLE_UNIT()
SI_UNIT($,.RADIAN.)
);
#536=(
NAMED_UNIT(*)
SI_UNIT($,.STERADIAN.)
SOLID_ANGLE_UNIT()
);
#537=SHAPE_DEFINITION_REPRESENTATION(#539,#542);
#538=SHAPE_DEFINITION_REPRESENTATION(#540,#543);
#539=PRODUCT_DEFINITION_SHAPE('',$,#545);
#540=PRODUCT_DEFINITION_SHAPE('',$,#546);
#541=PRODUCT_DEFINITION_SHAPE($,$,#14);
#542=SHAPE_REPRESENTATION('',(#315,#350),#530);
#543=SHAPE_REPRESENTATION('',(#316),#531);
#544=PRODUCT_DEFINITION_CONTEXT('part definition',#552,'design');
#545=PRODUCT_DEFINITION('Carabiner','Carabiner v15',#547,#544);
#546=PRODUCT_DEFINITION('Top mould','Top mould',#548,#544);
#547=PRODUCT_DEFINITION_FORMATION('',$,#554);
#548=PRODUCT_DEFINITION_FORMATION('',$,#555);
#549=PRODUCT_RELATED_PRODUCT_CATEGORY('Carabiner v15','Carabiner v15',(#554));
#550=PRODUCT_RELATED_PRODUCT_CATEGORY('Top mould','Top mould',(#555));
#551=APPLICATION_PROTOCOL_DEFINITION('international standard',
'automotive_design',2009,#552);
#552=APPLICATION_CONTEXT(
'Core Data for Automotive Mechanical Design Process');
#553=PRODUCT_CONTEXT('part definition',#552,'mechanical');
#554=PRODUCT('Carabiner','Carabiner v15',$,(#553));
#555=PRODUCT('Top mould','Top mould',$,(#553));
#556=PRESENTATION_STYLE_ASSIGNMENT((#558));
#557=PRESENTATION_STYLE_ASSIGNMENT((#559));
#558=SURFACE_STYLE_USAGE(.BOTH.,#560);
#559=SURFACE_STYLE_USAGE(.BOTH.,#561);
#560=SURFACE_SIDE_STYLE('',(#562));
#561=SURFACE_SIDE_STYLE('',(#563));
#562=SURFACE_STYLE_FILL_AREA(#564);
#563=SURFACE_STYLE_FILL_AREA(#565);
#564=FILL_AREA_STYLE('Steel - Satin',(#566));
#565=FILL_AREA_STYLE('Acrylic (Clear)',(#567));
#566=FILL_AREA_STYLE_COLOUR('Steel - Satin',#568);
#567=FILL_AREA_STYLE_COLOUR('Acrylic (Clear)',#569);
#568=COLOUR_RGB('Steel - Satin',0.627450980392157,0.627450980392157,0.627450980392157);
#569=COLOUR_RGB('Acrylic (Clear)',0.964705882352941,0.964705882352941,0.952941176470588);
ENDSEC;
END-ISO-10303-21;
