ISO-10303-21;
HEADER;
/* Generated by software containing ST-Developer
 * from STEP Tools, Inc. (www.steptools.com) 
 */

FILE_DESCRIPTION(
/* description */ (''),
/* implementation_level */ '2;1');

FILE_NAME(
/* name */ 'minutes.step',
/* time_stamp */ '2025-12-01T17:40:38-08:00',
/* author */ (''),
/* organization */ (''),
/* preprocessor_version */ 'ST-DEVELOPER v20.1',
/* originating_system */ 'Autodesk Translation Framework v14.21.0.0',
/* authorisation */ '');

FILE_SCHEMA (('AUTOMOTIVE_DESIGN { 1 0 10303 214 3 1 1 }'));
ENDSEC;

DATA;
#10=MECHANICAL_DESIGN_GEOMETRIC_PRESENTATION_REPRESENTATION('',(#13),#437);
#11=SHAPE_REPRESENTATION_RELATIONSHIP('SRR','None',#444,#12);
#12=ADVANCED_BREP_SHAPE_REPRESENTATION('',(#14),#436);
#13=STYLED_ITEM('',(#453),#14);
#14=MANIFOLD_SOLID_BREP('Body1',#189);
#15=(
BOUNDED_CURVE()
B_SPLINE_CURVE(5,(#327,#328,#329,#330,#331,#332,#333,#334,#335,#336,#337,
#338,#339,#340,#341),.UNSPECIFIED.,.F.,.F.)
B_SPLINE_CURVE_WITH_KNOTS((6,1,1,1,1,1,1,1,1,1,6),(0.,0.1,0.2,0.3,0.4,0.5,
0.6,0.7,0.8,0.9,1.),.UNSPECIFIED.)
CURVE()
GEOMETRIC_REPRESENTATION_ITEM()
RATIONAL_B_SPLINE_CURVE((1.,1.,1.,1.,1.,1.,1.,1.,1.,1.,1.,1.,1.,1.,1.))
REPRESENTATION_ITEM('')
);
#16=(
BOUNDED_CURVE()
B_SPLINE_CURVE(5,(#343,#344,#345,#346,#347,#348,#349,#350,#351,#352,#353,
#354,#355,#356,#357),.UNSPECIFIED.,.F.,.F.)
B_SPLINE_CURVE_WITH_KNOTS((6,1,1,1,1,1,1,1,1,1,6),(0.,0.1,0.2,0.3,0.4,0.5,
0.6,0.7,0.8,0.9,1.),.UNSPECIFIED.)
CURVE()
GEOMETRIC_REPRESENTATION_ITEM()
RATIONAL_B_SPLINE_CURVE((1.,1.,1.,1.,1.,1.,1.,1.,1.,1.,1.,1.,1.,1.,1.))
REPRESENTATION_ITEM('')
);
#17=(
BOUNDED_CURVE()
B_SPLINE_CURVE(5,(#390,#391,#392,#393,#394,#395,#396,#397,#398,#399,#400,
#401,#402,#403,#404),.UNSPECIFIED.,.F.,.F.)
B_SPLINE_CURVE_WITH_KNOTS((6,1,1,1,1,1,1,1,1,1,6),(0.,0.1,0.2,0.3,0.4,0.5,
0.6,0.7,0.8,0.9,1.),.UNSPECIFIED.)
CURVE()
GEOMETRIC_REPRESENTATION_ITEM()
RATIONAL_B_SPLINE_CURVE((1.,1.,1.,1.,1.,1.,1.,1.,1.,1.,1.,1.,1.,1.,1.))
REPRESENTATION_ITEM('')
);
#18=(
BOUNDED_CURVE()
B_SPLINE_CURVE(5,(#407,#408,#409,#410,#411,#412,#413,#414,#415,#416,#417,
#418,#419,#420,#421),.UNSPECIFIED.,.F.,.F.)
B_SPLINE_CURVE_WITH_KNOTS((6,1,1,1,1,1,1,1,1,1,6),(-1.,-0.9,-0.8,-0.7,-0.6,
-0.5,-0.4,-0.3,-0.2,-0.1,0.),.UNSPECIFIED.)
CURVE()
GEOMETRIC_REPRESENTATION_ITEM()
RATIONAL_B_SPLINE_CURVE((1.,1.,1.,1.,1.,1.,1.,1.,1.,1.,1.,1.,1.,1.,1.))
REPRESENTATION_ITEM('')
);
#19=(
BOUNDED_SURFACE()
B_SPLINE_SURFACE(5,1,((#296,#297),(#298,#299),(#300,#301),(#302,#303),(#304,
#305),(#306,#307),(#308,#309),(#310,#311),(#312,#313),(#314,#315),(#316,
#317),(#318,#319),(#320,#321),(#322,#323),(#324,#325)),.UNSPECIFIED.,.F.,
 .F.,.F.)
B_SPLINE_SURFACE_WITH_KNOTS((6,1,1,1,1,1,1,1,1,1,6),(2,2),(0.,0.1,0.2,0.3,
0.4,0.5,0.6,0.7,0.8,0.9,1.),(0.,0.2),.UNSPECIFIED.)
GEOMETRIC_REPRESENTATION_ITEM()
RATIONAL_B_SPLINE_SURFACE(((1.,1.),(1.,1.),(1.,1.),(1.,1.),(1.,1.),(1.,
1.),(1.,1.),(1.,1.),(1.,1.),(1.,1.),(1.,1.),(1.,1.),(1.,1.),(1.,1.),(1.,
1.)))
REPRESENTATION_ITEM('')
SURFACE()
);
#20=(
BOUNDED_SURFACE()
B_SPLINE_SURFACE(5,1,((#359,#360),(#361,#362),(#363,#364),(#365,#366),(#367,
#368),(#369,#370),(#371,#372),(#373,#374),(#375,#376),(#377,#378),(#379,
#380),(#381,#382),(#383,#384),(#385,#386),(#387,#388)),.UNSPECIFIED.,.F.,
 .F.,.F.)
B_SPLINE_SURFACE_WITH_KNOTS((6,1,1,1,1,1,1,1,1,1,6),(2,2),(-1.,-0.9,-0.8,
-0.7,-0.6,-0.5,-0.4,-0.3,-0.2,-0.1,0.),(0.,0.2),.UNSPECIFIED.)
GEOMETRIC_REPRESENTATION_ITEM()
RATIONAL_B_SPLINE_SURFACE(((1.,1.),(1.,1.),(1.,1.),(1.,1.),(1.,1.),(1.,
1.),(1.,1.),(1.,1.),(1.,1.),(1.,1.),(1.,1.),(1.,1.),(1.,1.),(1.,1.),(1.,
1.)))
REPRESENTATION_ITEM('')
SURFACE()
);
#21=LINE('',#277,#33);
#22=LINE('',#284,#34);
#23=LINE('',#286,#35);
#24=LINE('',#288,#36);
#25=LINE('',#289,#37);
#26=LINE('',#292,#38);
#27=LINE('',#294,#39);
#28=LINE('',#295,#40);
#29=LINE('',#358,#41);
#30=LINE('',#406,#42);
#31=LINE('',#426,#43);
#32=LINE('',#430,#44);
#33=VECTOR('',#232,6.64999999999999);
#34=VECTOR('',#239,10.);
#35=VECTOR('',#240,10.);
#36=VECTOR('',#241,10.);
#37=VECTOR('',#242,10.);
#38=VECTOR('',#245,10.);
#39=VECTOR('',#246,10.);
#40=VECTOR('',#247,10.);
#41=VECTOR('',#248,10.);
#42=VECTOR('',#249,10.);
#43=VECTOR('',#256,2.65000000000001);
#44=VECTOR('',#261,4.65);
#45=CYLINDRICAL_SURFACE('',#206,6.64999999999999);
#46=CYLINDRICAL_SURFACE('',#214,2.65000000000001);
#47=CYLINDRICAL_SURFACE('',#216,4.65);
#48=FACE_BOUND('',#63,.T.);
#49=FACE_BOUND('',#66,.T.);
#50=FACE_BOUND('',#75,.T.);
#51=FACE_OUTER_BOUND('',#62,.T.);
#52=FACE_OUTER_BOUND('',#64,.T.);
#53=FACE_OUTER_BOUND('',#65,.T.);
#54=FACE_OUTER_BOUND('',#67,.T.);
#55=FACE_OUTER_BOUND('',#68,.T.);
#56=FACE_OUTER_BOUND('',#69,.T.);
#57=FACE_OUTER_BOUND('',#70,.T.);
#58=FACE_OUTER_BOUND('',#71,.T.);
#59=FACE_OUTER_BOUND('',#72,.T.);
#60=FACE_OUTER_BOUND('',#73,.T.);
#61=FACE_OUTER_BOUND('',#74,.T.);
#62=EDGE_LOOP('',(#124));
#63=EDGE_LOOP('',(#125));
#64=EDGE_LOOP('',(#126,#127,#128,#129));
#65=EDGE_LOOP('',(#130));
#66=EDGE_LOOP('',(#131));
#67=EDGE_LOOP('',(#132,#133,#134,#135));
#68=EDGE_LOOP('',(#136,#137,#138,#139));
#69=EDGE_LOOP('',(#140,#141,#142,#143));
#70=EDGE_LOOP('',(#144,#145,#146,#147));
#71=EDGE_LOOP('',(#148,#149,#150,#151,#152));
#72=EDGE_LOOP('',(#153,#154,#155,#156));
#73=EDGE_LOOP('',(#157,#158,#159,#160,#161,#162,#163,#164));
#74=EDGE_LOOP('',(#165,#166,#167,#168,#169,#170));
#75=EDGE_LOOP('',(#171));
#76=CIRCLE('',#204,6.64999999999999);
#77=CIRCLE('',#205,4.65);
#78=CIRCLE('',#207,6.64999999999999);
#79=CIRCLE('',#209,2.65000000000001);
#80=CIRCLE('',#213,4.65);
#81=CIRCLE('',#215,2.65000000000001);
#82=CIRCLE('',#217,4.65);
#83=CIRCLE('',#218,4.65);
#84=VERTEX_POINT('',#270);
#85=VERTEX_POINT('',#272);
#86=VERTEX_POINT('',#275);
#87=VERTEX_POINT('',#279);
#88=VERTEX_POINT('',#282);
#89=VERTEX_POINT('',#283);
#90=VERTEX_POINT('',#285);
#91=VERTEX_POINT('',#287);
#92=VERTEX_POINT('',#291);
#93=VERTEX_POINT('',#293);
#94=VERTEX_POINT('',#326);
#95=VERTEX_POINT('',#342);
#96=VERTEX_POINT('',#389);
#97=VERTEX_POINT('',#405);
#98=VERTEX_POINT('',#425);
#99=VERTEX_POINT('',#429);
#100=EDGE_CURVE('',#84,#84,#76,.T.);
#101=EDGE_CURVE('',#85,#85,#77,.T.);
#102=EDGE_CURVE('',#86,#86,#78,.T.);
#103=EDGE_CURVE('',#86,#84,#21,.T.);
#104=EDGE_CURVE('',#87,#87,#79,.T.);
#105=EDGE_CURVE('',#88,#89,#22,.T.);
#106=EDGE_CURVE('',#88,#90,#23,.T.);
#107=EDGE_CURVE('',#91,#90,#24,.T.);
#108=EDGE_CURVE('',#89,#91,#25,.T.);
#109=EDGE_CURVE('',#92,#89,#26,.T.);
#110=EDGE_CURVE('',#93,#91,#27,.T.);
#111=EDGE_CURVE('',#92,#93,#28,.T.);
#112=EDGE_CURVE('',#94,#92,#15,.T.);
#113=EDGE_CURVE('',#95,#93,#16,.T.);
#114=EDGE_CURVE('',#94,#95,#29,.T.);
#115=EDGE_CURVE('',#96,#88,#17,.T.);
#116=EDGE_CURVE('',#97,#96,#30,.T.);
#117=EDGE_CURVE('',#90,#97,#18,.T.);
#118=EDGE_CURVE('',#95,#97,#80,.T.);
#119=EDGE_CURVE('',#87,#98,#31,.T.);
#120=EDGE_CURVE('',#98,#98,#81,.T.);
#121=EDGE_CURVE('',#85,#99,#32,.T.);
#122=EDGE_CURVE('',#94,#99,#82,.T.);
#123=EDGE_CURVE('',#99,#96,#83,.T.);
#124=ORIENTED_EDGE('',*,*,#100,.F.);
#125=ORIENTED_EDGE('',*,*,#101,.T.);
#126=ORIENTED_EDGE('',*,*,#102,.F.);
#127=ORIENTED_EDGE('',*,*,#103,.T.);
#128=ORIENTED_EDGE('',*,*,#100,.T.);
#129=ORIENTED_EDGE('',*,*,#103,.F.);
#130=ORIENTED_EDGE('',*,*,#102,.T.);
#131=ORIENTED_EDGE('',*,*,#104,.T.);
#132=ORIENTED_EDGE('',*,*,#105,.F.);
#133=ORIENTED_EDGE('',*,*,#106,.T.);
#134=ORIENTED_EDGE('',*,*,#107,.F.);
#135=ORIENTED_EDGE('',*,*,#108,.F.);
#136=ORIENTED_EDGE('',*,*,#109,.T.);
#137=ORIENTED_EDGE('',*,*,#108,.T.);
#138=ORIENTED_EDGE('',*,*,#110,.F.);
#139=ORIENTED_EDGE('',*,*,#111,.F.);
#140=ORIENTED_EDGE('',*,*,#112,.T.);
#141=ORIENTED_EDGE('',*,*,#111,.T.);
#142=ORIENTED_EDGE('',*,*,#113,.F.);
#143=ORIENTED_EDGE('',*,*,#114,.F.);
#144=ORIENTED_EDGE('',*,*,#115,.F.);
#145=ORIENTED_EDGE('',*,*,#116,.F.);
#146=ORIENTED_EDGE('',*,*,#117,.F.);
#147=ORIENTED_EDGE('',*,*,#106,.F.);
#148=ORIENTED_EDGE('',*,*,#117,.T.);
#149=ORIENTED_EDGE('',*,*,#118,.F.);
#150=ORIENTED_EDGE('',*,*,#113,.T.);
#151=ORIENTED_EDGE('',*,*,#110,.T.);
#152=ORIENTED_EDGE('',*,*,#107,.T.);
#153=ORIENTED_EDGE('',*,*,#104,.F.);
#154=ORIENTED_EDGE('',*,*,#119,.T.);
#155=ORIENTED_EDGE('',*,*,#120,.F.);
#156=ORIENTED_EDGE('',*,*,#119,.F.);
#157=ORIENTED_EDGE('',*,*,#101,.F.);
#158=ORIENTED_EDGE('',*,*,#121,.T.);
#159=ORIENTED_EDGE('',*,*,#122,.F.);
#160=ORIENTED_EDGE('',*,*,#114,.T.);
#161=ORIENTED_EDGE('',*,*,#118,.T.);
#162=ORIENTED_EDGE('',*,*,#116,.T.);
#163=ORIENTED_EDGE('',*,*,#123,.F.);
#164=ORIENTED_EDGE('',*,*,#121,.F.);
#165=ORIENTED_EDGE('',*,*,#122,.T.);
#166=ORIENTED_EDGE('',*,*,#123,.T.);
#167=ORIENTED_EDGE('',*,*,#115,.T.);
#168=ORIENTED_EDGE('',*,*,#105,.T.);
#169=ORIENTED_EDGE('',*,*,#109,.F.);
#170=ORIENTED_EDGE('',*,*,#112,.F.);
#171=ORIENTED_EDGE('',*,*,#120,.T.);
#172=PLANE('',#203);
#173=PLANE('',#208);
#174=PLANE('',#210);
#175=PLANE('',#211);
#176=PLANE('',#212);
#177=PLANE('',#219);
#178=ADVANCED_FACE('',(#51,#48),#172,.F.);
#179=ADVANCED_FACE('',(#52),#45,.T.);
#180=ADVANCED_FACE('',(#53,#49),#173,.T.);
#181=ADVANCED_FACE('',(#54),#174,.T.);
#182=ADVANCED_FACE('',(#55),#175,.T.);
#183=ADVANCED_FACE('',(#56),#19,.T.);
#184=ADVANCED_FACE('',(#57),#20,.T.);
#185=ADVANCED_FACE('',(#58),#176,.F.);
#186=ADVANCED_FACE('',(#59),#46,.F.);
#187=ADVANCED_FACE('',(#60),#47,.T.);
#188=ADVANCED_FACE('',(#61,#50),#177,.T.);
#189=CLOSED_SHELL('',(#178,#179,#180,#181,#182,#183,#184,#185,#186,#187,
#188));
#190=DERIVED_UNIT_ELEMENT(#192,1.);
#191=DERIVED_UNIT_ELEMENT(#439,-3.);
#192=(
MASS_UNIT()
NAMED_UNIT(*)
SI_UNIT(.KILO.,.GRAM.)
);
#193=DERIVED_UNIT((#190,#191));
#194=MEASURE_REPRESENTATION_ITEM('density measure',
POSITIVE_RATIO_MEASURE(7850.),#193);
#195=PROPERTY_DEFINITION_REPRESENTATION(#200,#197);
#196=PROPERTY_DEFINITION_REPRESENTATION(#201,#198);
#197=REPRESENTATION('material name',(#199),#436);
#198=REPRESENTATION('density',(#194),#436);
#199=DESCRIPTIVE_REPRESENTATION_ITEM('Steel','Steel');
#200=PROPERTY_DEFINITION('material property','material name',#446);
#201=PROPERTY_DEFINITION('material property','density of part',#446);
#202=AXIS2_PLACEMENT_3D('',#268,#220,#221);
#203=AXIS2_PLACEMENT_3D('',#269,#222,#223);
#204=AXIS2_PLACEMENT_3D('',#271,#224,#225);
#205=AXIS2_PLACEMENT_3D('',#273,#226,#227);
#206=AXIS2_PLACEMENT_3D('',#274,#228,#229);
#207=AXIS2_PLACEMENT_3D('',#276,#230,#231);
#208=AXIS2_PLACEMENT_3D('',#278,#233,#234);
#209=AXIS2_PLACEMENT_3D('',#280,#235,#236);
#210=AXIS2_PLACEMENT_3D('',#281,#237,#238);
#211=AXIS2_PLACEMENT_3D('',#290,#243,#244);
#212=AXIS2_PLACEMENT_3D('',#422,#250,#251);
#213=AXIS2_PLACEMENT_3D('',#423,#252,#253);
#214=AXIS2_PLACEMENT_3D('',#424,#254,#255);
#215=AXIS2_PLACEMENT_3D('',#427,#257,#258);
#216=AXIS2_PLACEMENT_3D('',#428,#259,#260);
#217=AXIS2_PLACEMENT_3D('',#431,#262,#263);
#218=AXIS2_PLACEMENT_3D('',#432,#264,#265);
#219=AXIS2_PLACEMENT_3D('',#433,#266,#267);
#220=DIRECTION('axis',(0.,0.,1.));
#221=DIRECTION('refdir',(1.,0.,0.));
#222=DIRECTION('center_axis',(0.,-1.,0.));
#223=DIRECTION('ref_axis',(1.,0.,0.));
#224=DIRECTION('center_axis',(0.,-1.,0.));
#225=DIRECTION('ref_axis',(1.,0.,0.));
#226=DIRECTION('center_axis',(0.,-1.,0.));
#227=DIRECTION('ref_axis',(1.,0.,0.));
#228=DIRECTION('center_axis',(0.,-1.,0.));
#229=DIRECTION('ref_axis',(1.,0.,0.));
#230=DIRECTION('center_axis',(0.,-1.,0.));
#231=DIRECTION('ref_axis',(1.,0.,0.));
#232=DIRECTION('',(0.,1.,0.));
#233=DIRECTION('center_axis',(0.,-1.,0.));
#234=DIRECTION('ref_axis',(1.,0.,0.));
#235=DIRECTION('center_axis',(0.,1.,0.));
#236=DIRECTION('ref_axis',(1.,0.,0.));
#237=DIRECTION('center_axis',(-0.989408873224705,0.,0.145155370497336));
#238=DIRECTION('ref_axis',(-0.145155370497336,0.,-0.989408873224705));
#239=DIRECTION('',(0.145155370497336,0.,0.989408873224705));
#240=DIRECTION('',(0.,-1.,0.));
#241=DIRECTION('',(-0.145155370497336,0.,-0.989408873224705));
#242=DIRECTION('',(0.,-1.,0.));
#243=DIRECTION('center_axis',(0.291631935371484,0.,0.956530613347781));
#244=DIRECTION('ref_axis',(-0.956530613347781,0.,0.291631935371484));
#245=DIRECTION('',(-0.956530613347781,0.,0.291631935371484));
#246=DIRECTION('',(-0.956530613347781,0.,0.291631935371484));
#247=DIRECTION('',(0.,-1.,0.));
#248=DIRECTION('',(0.,-1.,0.));
#249=DIRECTION('',(0.,1.,0.));
#250=DIRECTION('center_axis',(0.,1.,0.));
#251=DIRECTION('ref_axis',(-1.,0.,0.));
#252=DIRECTION('center_axis',(0.,-1.,0.));
#253=DIRECTION('ref_axis',(1.,0.,0.));
#254=DIRECTION('center_axis',(0.,-1.,0.));
#255=DIRECTION('ref_axis',(1.,0.,0.));
#256=DIRECTION('',(0.,1.,0.));
#257=DIRECTION('center_axis',(0.,-1.,0.));
#258=DIRECTION('ref_axis',(1.,0.,0.));
#259=DIRECTION('center_axis',(0.,-1.,0.));
#260=DIRECTION('ref_axis',(1.,0.,0.));
#261=DIRECTION('',(0.,1.,0.));
#262=DIRECTION('center_axis',(0.,1.,0.));
#263=DIRECTION('ref_axis',(1.,0.,0.));
#264=DIRECTION('center_axis',(0.,1.,0.));
#265=DIRECTION('ref_axis',(1.,0.,0.));
#266=DIRECTION('center_axis',(0.,1.,0.));
#267=DIRECTION('ref_axis',(1.,0.,0.));
#268=CARTESIAN_POINT('',(0.,0.,0.));
#269=CARTESIAN_POINT('Origin',(-90.0219367276753,31.732,23.1973347126825));
#270=CARTESIAN_POINT('',(-96.6719367276753,31.732,23.1973347126825));
#271=CARTESIAN_POINT('Origin',(-90.0219367276753,31.732,23.1973347126825));
#272=CARTESIAN_POINT('',(-94.6719367276753,31.732,23.1973347126825));
#273=CARTESIAN_POINT('Origin',(-90.0219367276753,31.732,23.1973347126825));
#274=CARTESIAN_POINT('Origin',(-90.0219367276753,31.732,23.1973347126825));
#275=CARTESIAN_POINT('',(-96.6719367276753,29.732,23.1973347126825));
#276=CARTESIAN_POINT('Origin',(-90.0219367276753,29.732,23.1973347126825));
#277=CARTESIAN_POINT('',(-96.6719367276753,31.732,23.1973347126825));
#278=CARTESIAN_POINT('Origin',(-90.0219367276753,29.732,23.1973347126825));
#279=CARTESIAN_POINT('',(-92.6719367276753,29.732,23.1973347126825));
#280=CARTESIAN_POINT('Origin',(-90.0219367276753,29.732,23.1973347126825));
#281=CARTESIAN_POINT('Origin',(-103.398820004611,36.732,44.3174434670248));
#282=CARTESIAN_POINT('',(-103.824419685066,36.732,41.4164684714677));
#283=CARTESIAN_POINT('',(-103.398820004611,36.732,44.3174434670248));
#284=CARTESIAN_POINT('',(-103.824419685066,36.732,41.4164684714677));
#285=CARTESIAN_POINT('',(-103.824419685066,34.732,41.4164684714677));
#286=CARTESIAN_POINT('',(-103.824419685066,36.732,41.4164684714677));
#287=CARTESIAN_POINT('',(-103.398820004611,34.732,44.3174434670248));
#288=CARTESIAN_POINT('',(-103.824419685066,34.732,41.4164684714677));
#289=CARTESIAN_POINT('',(-103.398820004611,36.732,44.3174434670248));
#290=CARTESIAN_POINT('Origin',(-100.594245003416,36.732,43.4623703265735));
#291=CARTESIAN_POINT('',(-100.594245003416,36.732,43.4623703265735));
#292=CARTESIAN_POINT('',(-100.594245003416,36.732,43.4623703265735));
#293=CARTESIAN_POINT('',(-100.594245003416,34.732,43.4623703265735));
#294=CARTESIAN_POINT('',(-100.594245003416,34.732,43.4623703265735));
#295=CARTESIAN_POINT('',(-100.594245003416,36.732,43.4623703265735));
#296=CARTESIAN_POINT('Ctrl Pts',(-89.8740447829182,36.732,27.8449822867436));
#297=CARTESIAN_POINT('Ctrl Pts',(-89.8740447829182,34.732,27.8449822867436));
#298=CARTESIAN_POINT('Ctrl Pts',(-90.1436172248114,36.732,28.0636582572401));
#299=CARTESIAN_POINT('Ctrl Pts',(-90.1436172248114,34.732,28.0636582572401));
#300=CARTESIAN_POINT('Ctrl Pts',(-90.6778308490643,36.732,28.5093831000237));
#301=CARTESIAN_POINT('Ctrl Pts',(-90.6778308490643,34.732,28.5093831000237));
#302=CARTESIAN_POINT('Ctrl Pts',(-91.4643573506197,36.732,29.2030893348267));
#303=CARTESIAN_POINT('Ctrl Pts',(-91.4643573506197,34.732,29.2030893348267));
#304=CARTESIAN_POINT('Ctrl Pts',(-92.4829860667857,36.732,30.1790931221928));
#305=CARTESIAN_POINT('Ctrl Pts',(-92.4829860667857,34.732,30.1790931221928));
#306=CARTESIAN_POINT('Ctrl Pts',(-93.7028497306207,36.732,31.4898047221923));
#307=CARTESIAN_POINT('Ctrl Pts',(-93.7028497306207,34.732,31.4898047221923));
#308=CARTESIAN_POINT('Ctrl Pts',(-94.8649171121268,36.732,32.898649992193));
#309=CARTESIAN_POINT('Ctrl Pts',(-94.8649171121268,34.732,32.898649992193));
#310=CARTESIAN_POINT('Ctrl Pts',(-95.9650924132394,36.732,34.4125832842619));
#311=CARTESIAN_POINT('Ctrl Pts',(-95.9650924132394,34.732,34.4125832842619));
#312=CARTESIAN_POINT('Ctrl Pts',(-97.0022968283803,36.732,36.0334363278147));
#313=CARTESIAN_POINT('Ctrl Pts',(-97.0022968283803,34.732,36.0334363278147));
#314=CARTESIAN_POINT('Ctrl Pts',(-97.980195263495,36.732,37.7549863926628));
#315=CARTESIAN_POINT('Ctrl Pts',(-97.980195263495,34.732,37.7549863926628));
#316=CARTESIAN_POINT('Ctrl Pts',(-98.9037816603412,36.732,39.5687541473883));
#317=CARTESIAN_POINT('Ctrl Pts',(-98.9037816603412,34.732,39.5687541473883));
#318=CARTESIAN_POINT('Ctrl Pts',(-99.6030150120011,36.732,41.0870668521372));
#319=CARTESIAN_POINT('Ctrl Pts',(-99.6030150120011,34.732,41.0870668521372));
#320=CARTESIAN_POINT('Ctrl Pts',(-100.106600960523,36.732,42.2611845207014));
#321=CARTESIAN_POINT('Ctrl Pts',(-100.106600960523,34.732,42.2611845207014));
#322=CARTESIAN_POINT('Ctrl Pts',(-100.433215343636,36.732,43.0593970080273));
#323=CARTESIAN_POINT('Ctrl Pts',(-100.433215343636,34.732,43.0593970080273));
#324=CARTESIAN_POINT('Ctrl Pts',(-100.594245003416,36.732,43.4623703265735));
#325=CARTESIAN_POINT('Ctrl Pts',(-100.594245003416,34.732,43.4623703265735));
#326=CARTESIAN_POINT('',(-89.8740447829182,36.732,27.8449822867436));
#327=CARTESIAN_POINT('Ctrl Pts',(-89.8740447829182,36.732,27.8449822867436));
#328=CARTESIAN_POINT('Ctrl Pts',(-90.1436172248114,36.732,28.0636582572401));
#329=CARTESIAN_POINT('Ctrl Pts',(-90.6778308490643,36.732,28.5093831000237));
#330=CARTESIAN_POINT('Ctrl Pts',(-91.4643573506197,36.732,29.2030893348267));
#331=CARTESIAN_POINT('Ctrl Pts',(-92.4829860667857,36.732,30.1790931221928));
#332=CARTESIAN_POINT('Ctrl Pts',(-93.7028497306207,36.732,31.4898047221923));
#333=CARTESIAN_POINT('Ctrl Pts',(-94.8649171121268,36.732,32.898649992193));
#334=CARTESIAN_POINT('Ctrl Pts',(-95.9650924132394,36.732,34.4125832842619));
#335=CARTESIAN_POINT('Ctrl Pts',(-97.0022968283803,36.732,36.0334363278147));
#336=CARTESIAN_POINT('Ctrl Pts',(-97.980195263495,36.732,37.7549863926628));
#337=CARTESIAN_POINT('Ctrl Pts',(-98.9037816603412,36.732,39.5687541473883));
#338=CARTESIAN_POINT('Ctrl Pts',(-99.6030150120011,36.732,41.0870668521372));
#339=CARTESIAN_POINT('Ctrl Pts',(-100.106600960523,36.732,42.2611845207014));
#340=CARTESIAN_POINT('Ctrl Pts',(-100.433215343636,36.732,43.0593970080273));
#341=CARTESIAN_POINT('Ctrl Pts',(-100.594245003416,36.732,43.4623703265735));
#342=CARTESIAN_POINT('',(-89.8740447829182,34.732,27.8449822867436));
#343=CARTESIAN_POINT('Ctrl Pts',(-89.8740447829182,34.732,27.8449822867436));
#344=CARTESIAN_POINT('Ctrl Pts',(-90.1436172248114,34.732,28.0636582572401));
#345=CARTESIAN_POINT('Ctrl Pts',(-90.6778308490643,34.732,28.5093831000237));
#346=CARTESIAN_POINT('Ctrl Pts',(-91.4643573506197,34.732,29.2030893348267));
#347=CARTESIAN_POINT('Ctrl Pts',(-92.4829860667857,34.732,30.1790931221928));
#348=CARTESIAN_POINT('Ctrl Pts',(-93.7028497306207,34.732,31.4898047221923));
#349=CARTESIAN_POINT('Ctrl Pts',(-94.8649171121268,34.732,32.898649992193));
#350=CARTESIAN_POINT('Ctrl Pts',(-95.9650924132394,34.732,34.4125832842619));
#351=CARTESIAN_POINT('Ctrl Pts',(-97.0022968283803,34.732,36.0334363278147));
#352=CARTESIAN_POINT('Ctrl Pts',(-97.980195263495,34.732,37.7549863926628));
#353=CARTESIAN_POINT('Ctrl Pts',(-98.9037816603412,34.732,39.5687541473883));
#354=CARTESIAN_POINT('Ctrl Pts',(-99.6030150120011,34.732,41.0870668521372));
#355=CARTESIAN_POINT('Ctrl Pts',(-100.106600960523,34.732,42.2611845207014));
#356=CARTESIAN_POINT('Ctrl Pts',(-100.433215343636,34.732,43.0593970080273));
#357=CARTESIAN_POINT('Ctrl Pts',(-100.594245003416,34.732,43.4623703265735));
#358=CARTESIAN_POINT('',(-89.8740447829182,36.732,27.8449822867436));
#359=CARTESIAN_POINT('Ctrl Pts',(-103.824419685066,36.732,41.4164684714677));
#360=CARTESIAN_POINT('Ctrl Pts',(-103.824419685066,34.732,41.4164684714677));
#361=CARTESIAN_POINT('Ctrl Pts',(-103.528926699077,36.732,41.0986604444762));
#362=CARTESIAN_POINT('Ctrl Pts',(-103.528926699077,34.732,41.0986604444762));
#363=CARTESIAN_POINT('Ctrl Pts',(-102.946879706961,36.732,40.4622317924281));
#364=CARTESIAN_POINT('Ctrl Pts',(-102.946879706961,34.732,40.4622317924281));
#365=CARTESIAN_POINT('Ctrl Pts',(-102.100624555449,36.732,39.5051511658746));
#366=CARTESIAN_POINT('Ctrl Pts',(-102.100624555449,34.732,39.5051511658746));
#367=CARTESIAN_POINT('Ctrl Pts',(-101.026811213396,36.732,38.2240868989844));
#368=CARTESIAN_POINT('Ctrl Pts',(-101.026811213396,34.732,38.2240868989844));
#369=CARTESIAN_POINT('Ctrl Pts',(-99.781772408808,36.732,36.6139180644852));
#370=CARTESIAN_POINT('Ctrl Pts',(-99.781772408808,34.732,36.6139180644852));
#371=CARTESIAN_POINT('Ctrl Pts',(-98.6433170164362,36.732,34.994060263702));
#372=CARTESIAN_POINT('Ctrl Pts',(-98.6433170164362,34.732,34.994060263702));
#373=CARTESIAN_POINT('Ctrl Pts',(-97.621245282599,36.732,33.3636226051352));
#374=CARTESIAN_POINT('Ctrl Pts',(-97.621245282599,34.732,33.3636226051352));
#375=CARTESIAN_POINT('Ctrl Pts',(-96.7227493178077,36.732,31.7219512898998));
#376=CARTESIAN_POINT('Ctrl Pts',(-96.7227493178077,34.732,31.7219512898998));
#377=CARTESIAN_POINT('Ctrl Pts',(-95.9457120448326,36.732,30.0692387709265));
#378=CARTESIAN_POINT('Ctrl Pts',(-95.9457120448326,34.732,30.0692387709265));
#379=CARTESIAN_POINT('Ctrl Pts',(-95.2820957588242,36.732,28.4062157158661));
#380=CARTESIAN_POINT('Ctrl Pts',(-95.2820957588242,34.732,28.4062157158661));
#381=CARTESIAN_POINT('Ctrl Pts',(-94.8350725149144,36.732,27.0681730880864));
#382=CARTESIAN_POINT('Ctrl Pts',(-94.8350725149144,34.732,27.0681730880864));
#383=CARTESIAN_POINT('Ctrl Pts',(-94.5440675539583,36.732,26.0606174367438));
#384=CARTESIAN_POINT('Ctrl Pts',(-94.5440675539583,34.732,26.0606174367438));
#385=CARTESIAN_POINT('Ctrl Pts',(-94.3694189250914,36.732,25.3871542319235));
#386=CARTESIAN_POINT('Ctrl Pts',(-94.3694189250914,34.732,25.3871542319235));
#387=CARTESIAN_POINT('Ctrl Pts',(-94.2869332291709,36.732,25.0499827748437));
#388=CARTESIAN_POINT('Ctrl Pts',(-94.2869332291709,34.732,25.0499827748437));
#389=CARTESIAN_POINT('',(-94.2869332291709,36.732,25.0499827748437));
#390=CARTESIAN_POINT('Ctrl Pts',(-94.2869332291709,36.732,25.0499827748437));
#391=CARTESIAN_POINT('Ctrl Pts',(-94.3694189250914,36.732,25.3871542319235));
#392=CARTESIAN_POINT('Ctrl Pts',(-94.5440675539583,36.732,26.0606174367438));
#393=CARTESIAN_POINT('Ctrl Pts',(-94.8350725149144,36.732,27.0681730880864));
#394=CARTESIAN_POINT('Ctrl Pts',(-95.2820957588242,36.732,28.4062157158661));
#395=CARTESIAN_POINT('Ctrl Pts',(-95.9457120448326,36.732,30.0692387709265));
#396=CARTESIAN_POINT('Ctrl Pts',(-96.7227493178077,36.732,31.7219512898998));
#397=CARTESIAN_POINT('Ctrl Pts',(-97.621245282599,36.732,33.3636226051352));
#398=CARTESIAN_POINT('Ctrl Pts',(-98.6433170164362,36.732,34.994060263702));
#399=CARTESIAN_POINT('Ctrl Pts',(-99.781772408808,36.732,36.6139180644852));
#400=CARTESIAN_POINT('Ctrl Pts',(-101.026811213396,36.732,38.2240868989844));
#401=CARTESIAN_POINT('Ctrl Pts',(-102.100624555449,36.732,39.5051511658746));
#402=CARTESIAN_POINT('Ctrl Pts',(-102.946879706961,36.732,40.4622317924281));
#403=CARTESIAN_POINT('Ctrl Pts',(-103.528926699077,36.732,41.0986604444762));
#404=CARTESIAN_POINT('Ctrl Pts',(-103.824419685066,36.732,41.4164684714677));
#405=CARTESIAN_POINT('',(-94.2869332291709,34.732,25.0499827748437));
#406=CARTESIAN_POINT('',(-94.2869332291709,36.732,25.0499827748437));
#407=CARTESIAN_POINT('Ctrl Pts',(-103.824419685066,34.732,41.4164684714677));
#408=CARTESIAN_POINT('Ctrl Pts',(-103.528926699077,34.732,41.0986604444762));
#409=CARTESIAN_POINT('Ctrl Pts',(-102.946879706961,34.732,40.4622317924281));
#410=CARTESIAN_POINT('Ctrl Pts',(-102.100624555449,34.732,39.5051511658746));
#411=CARTESIAN_POINT('Ctrl Pts',(-101.026811213396,34.732,38.2240868989844));
#412=CARTESIAN_POINT('Ctrl Pts',(-99.781772408808,34.732,36.6139180644852));
#413=CARTESIAN_POINT('Ctrl Pts',(-98.6433170164362,34.732,34.994060263702));
#414=CARTESIAN_POINT('Ctrl Pts',(-97.621245282599,34.732,33.3636226051352));
#415=CARTESIAN_POINT('Ctrl Pts',(-96.7227493178077,34.732,31.7219512898998));
#416=CARTESIAN_POINT('Ctrl Pts',(-95.9457120448326,34.732,30.0692387709265));
#417=CARTESIAN_POINT('Ctrl Pts',(-95.2820957588242,34.732,28.4062157158661));
#418=CARTESIAN_POINT('Ctrl Pts',(-94.8350725149144,34.732,27.0681730880864));
#419=CARTESIAN_POINT('Ctrl Pts',(-94.5440675539583,34.732,26.0606174367438));
#420=CARTESIAN_POINT('Ctrl Pts',(-94.3694189250914,34.732,25.3871542319235));
#421=CARTESIAN_POINT('Ctrl Pts',(-94.2869332291709,34.732,25.0499827748437));
#422=CARTESIAN_POINT('Origin',(-96.8492322339919,34.732,34.6837131209342));
#423=CARTESIAN_POINT('Origin',(-90.0219367276753,34.732,23.1973347126825));
#424=CARTESIAN_POINT('Origin',(-90.0219367276753,36.732,23.1973347126825));
#425=CARTESIAN_POINT('',(-92.6719367276753,36.732,23.1973347126825));
#426=CARTESIAN_POINT('',(-92.6719367276753,36.732,23.1973347126825));
#427=CARTESIAN_POINT('Origin',(-90.0219367276753,36.732,23.1973347126825));
#428=CARTESIAN_POINT('Origin',(-90.0219367276753,36.732,23.1973347126825));
#429=CARTESIAN_POINT('',(-94.6719367276753,36.732,23.1973347126825));
#430=CARTESIAN_POINT('',(-94.6719367276753,36.732,23.1973347126825));
#431=CARTESIAN_POINT('Origin',(-90.0219367276753,36.732,23.1973347126825));
#432=CARTESIAN_POINT('Origin',(-90.0219367276753,36.732,23.1973347126825));
#433=CARTESIAN_POINT('Origin',(-90.0219367276753,36.732,23.1973347126825));
#434=UNCERTAINTY_MEASURE_WITH_UNIT(LENGTH_MEASURE(0.01),#438,
'DISTANCE_ACCURACY_VALUE',
'Maximum model space distance between geometric entities at asserted c
onnectivities');
#435=UNCERTAINTY_MEASURE_WITH_UNIT(LENGTH_MEASURE(0.01),#438,
'DISTANCE_ACCURACY_VALUE',
'Maximum model space distance between geometric entities at asserted c
onnectivities');
#436=(
GEOMETRIC_REPRESENTATION_CONTEXT(3)
GLOBAL_UNCERTAINTY_ASSIGNED_CONTEXT((#434))
GLOBAL_UNIT_ASSIGNED_CONTEXT((#438,#440,#441))
REPRESENTATION_CONTEXT('','3D')
);
#437=(
GEOMETRIC_REPRESENTATION_CONTEXT(3)
GLOBAL_UNCERTAINTY_ASSIGNED_CONTEXT((#435))
GLOBAL_UNIT_ASSIGNED_CONTEXT((#438,#440,#441))
REPRESENTATION_CONTEXT('','3D')
);
#438=(
LENGTH_UNIT()
NAMED_UNIT(*)
SI_UNIT(.MILLI.,.METRE.)
);
#439=(
LENGTH_UNIT()
NAMED_UNIT(*)
SI_UNIT($,.METRE.)
);
#440=(
NAMED_UNIT(*)
PLANE_ANGLE_UNIT()
SI_UNIT($,.RADIAN.)
);
#441=(
NAMED_UNIT(*)
SI_UNIT($,.STERADIAN.)
SOLID_ANGLE_UNIT()
);
#442=SHAPE_DEFINITION_REPRESENTATION(#443,#444);
#443=PRODUCT_DEFINITION_SHAPE('',$,#446);
#444=SHAPE_REPRESENTATION('',(#202),#436);
#445=PRODUCT_DEFINITION_CONTEXT('part definition',#450,'design');
#446=PRODUCT_DEFINITION('FusionComponent','FusionComponent',#447,#445);
#447=PRODUCT_DEFINITION_FORMATION('',$,#452);
#448=PRODUCT_RELATED_PRODUCT_CATEGORY('FusionComponent',
'FusionComponent',(#452));
#449=APPLICATION_PROTOCOL_DEFINITION('international standard',
'automotive_design',2009,#450);
#450=APPLICATION_CONTEXT(
'Core Data for Automotive Mechanical Design Process');
#451=PRODUCT_CONTEXT('part definition',#450,'mechanical');
#452=PRODUCT('FusionComponent','FusionComponent',$,(#451));
#453=PRESENTATION_STYLE_ASSIGNMENT((#454));
#454=SURFACE_STYLE_USAGE(.BOTH.,#455);
#455=SURFACE_SIDE_STYLE('',(#456));
#456=SURFACE_STYLE_FILL_AREA(#457);
#457=FILL_AREA_STYLE('Steel - Satin',(#458));
#458=FILL_AREA_STYLE_COLOUR('Steel - Satin',#459);
#459=COLOUR_RGB('Steel - Satin',0.627450980392157,0.627450980392157,0.627450980392157);
ENDSEC;
END-ISO-10303-21;
