ISO-10303-21;
HEADER;
/* Generated by software containing ST-Developer
 * from STEP Tools, Inc. (www.steptools.com) 
 */

FILE_DESCRIPTION(
/* description */ (''),
/* implementation_level */ '2;1');

FILE_NAME(
/* name */ 
'C:\\Users\\Mark\\Desktop\\Inventor Projects\\Hexagon_Puzzle\\Alt\\Hex
_SubAssy.stp',
/* time_stamp */ '2019-03-18T18:18:25-04:00',
/* author */ ('Mark'),
/* organization */ (''),
/* preprocessor_version */ 'ST-DEVELOPER v16.1',
/* originating_system */ 'Autodesk Inventor 2016',
/* authorisation */ '');

FILE_SCHEMA (('AUTOMOTIVE_DESIGN { 1 0 10303 214 3 1 1 }'));
ENDSEC;

DATA;
#10=MECHANICAL_DESIGN_GEOMETRIC_PRESENTATION_REPRESENTATION('',(#23,#24),
#352);
#11=ITEM_DEFINED_TRANSFORMATION($,$,#213,#228);
#12=ITEM_DEFINED_TRANSFORMATION($,$,#220,#229);
#13=(
REPRESENTATION_RELATIONSHIP($,$,#370,#372)
REPRESENTATION_RELATIONSHIP_WITH_TRANSFORMATION(#11)
SHAPE_REPRESENTATION_RELATIONSHIP()
);
#14=(
REPRESENTATION_RELATIONSHIP($,$,#371,#372)
REPRESENTATION_RELATIONSHIP_WITH_TRANSFORMATION(#12)
SHAPE_REPRESENTATION_RELATIONSHIP()
);
#15=CONTEXT_DEPENDENT_SHAPE_REPRESENTATION(#13,#368);
#16=CONTEXT_DEPENDENT_SHAPE_REPRESENTATION(#14,#369);
#17=NEXT_ASSEMBLY_USAGE_OCCURRENCE('Part:1','Part:1','Part:1',#376,#374,
'Part:1');
#18=NEXT_ASSEMBLY_USAGE_OCCURRENCE('Part2:1','Part2:1','Part2:1',#376,#375,
'Part2:1');
#19=SHAPE_REPRESENTATION_RELATIONSHIP('SRR','None',#370,#21);
#20=SHAPE_REPRESENTATION_RELATIONSHIP('SRR','None',#371,#22);
#21=ADVANCED_BREP_SHAPE_REPRESENTATION('',(#25),#349);
#22=ADVANCED_BREP_SHAPE_REPRESENTATION('',(#26),#350);
#23=STYLED_ITEM('',(#389),#25);
#24=STYLED_ITEM('',(#389),#26);
#25=MANIFOLD_SOLID_BREP('Solid1',#211);
#26=MANIFOLD_SOLID_BREP('Solid1',#212);
#27=FACE_OUTER_BOUND('',#39,.T.);
#28=FACE_OUTER_BOUND('',#40,.T.);
#29=FACE_OUTER_BOUND('',#41,.T.);
#30=FACE_OUTER_BOUND('',#42,.T.);
#31=FACE_OUTER_BOUND('',#43,.T.);
#32=FACE_OUTER_BOUND('',#44,.T.);
#33=FACE_OUTER_BOUND('',#45,.T.);
#34=FACE_OUTER_BOUND('',#46,.T.);
#35=FACE_OUTER_BOUND('',#47,.T.);
#36=FACE_OUTER_BOUND('',#48,.T.);
#37=FACE_OUTER_BOUND('',#49,.T.);
#38=FACE_OUTER_BOUND('',#50,.T.);
#39=EDGE_LOOP('',(#139,#140,#141,#142));
#40=EDGE_LOOP('',(#143,#144,#145,#146));
#41=EDGE_LOOP('',(#147,#148,#149,#150));
#42=EDGE_LOOP('',(#151,#152,#153,#154));
#43=EDGE_LOOP('',(#155,#156,#157,#158));
#44=EDGE_LOOP('',(#159,#160,#161,#162));
#45=EDGE_LOOP('',(#163,#164,#165,#166));
#46=EDGE_LOOP('',(#167,#168,#169,#170));
#47=EDGE_LOOP('',(#171,#172,#173,#174));
#48=EDGE_LOOP('',(#175,#176,#177,#178));
#49=EDGE_LOOP('',(#179,#180,#181,#182));
#50=EDGE_LOOP('',(#183,#184,#185,#186));
#51=LINE('',#292,#75);
#52=LINE('',#294,#76);
#53=LINE('',#296,#77);
#54=LINE('',#297,#78);
#55=LINE('',#300,#79);
#56=LINE('',#302,#80);
#57=LINE('',#303,#81);
#58=LINE('',#307,#82);
#59=LINE('',#308,#83);
#60=LINE('',#309,#84);
#61=LINE('',#311,#85);
#62=LINE('',#313,#86);
#63=LINE('',#319,#87);
#64=LINE('',#321,#88);
#65=LINE('',#323,#89);
#66=LINE('',#324,#90);
#67=LINE('',#327,#91);
#68=LINE('',#329,#92);
#69=LINE('',#330,#93);
#70=LINE('',#334,#94);
#71=LINE('',#335,#95);
#72=LINE('',#336,#96);
#73=LINE('',#338,#97);
#74=LINE('',#340,#98);
#75=VECTOR('',#234,1.15470053837925);
#76=VECTOR('',#235,0.75);
#77=VECTOR('',#236,1.15470053837925);
#78=VECTOR('',#237,0.75);
#79=VECTOR('',#240,2.30964973081037);
#80=VECTOR('',#241,1.15470053837925);
#81=VECTOR('',#242,2.30964973081037);
#82=VECTOR('',#245,1.15470053837925);
#83=VECTOR('',#246,0.75);
#84=VECTOR('',#247,0.75);
#85=VECTOR('',#250,2.30964973081037);
#86=VECTOR('',#253,2.30964973081037);
#87=VECTOR('',#260,1.15470053837925);
#88=VECTOR('',#261,0.75);
#89=VECTOR('',#262,1.15470053837925);
#90=VECTOR('',#263,0.75);
#91=VECTOR('',#266,2.30964973081037);
#92=VECTOR('',#267,1.15470053837925);
#93=VECTOR('',#268,2.30964973081037);
#94=VECTOR('',#271,1.15470053837925);
#95=VECTOR('',#272,0.75);
#96=VECTOR('',#273,0.75);
#97=VECTOR('',#276,2.30964973081037);
#98=VECTOR('',#279,2.30964973081037);
#99=VERTEX_POINT('',#290);
#100=VERTEX_POINT('',#291);
#101=VERTEX_POINT('',#293);
#102=VERTEX_POINT('',#295);
#103=VERTEX_POINT('',#299);
#104=VERTEX_POINT('',#301);
#105=VERTEX_POINT('',#305);
#106=VERTEX_POINT('',#306);
#107=VERTEX_POINT('',#317);
#108=VERTEX_POINT('',#318);
#109=VERTEX_POINT('',#320);
#110=VERTEX_POINT('',#322);
#111=VERTEX_POINT('',#326);
#112=VERTEX_POINT('',#328);
#113=VERTEX_POINT('',#332);
#114=VERTEX_POINT('',#333);
#115=EDGE_CURVE('',#99,#100,#51,.T.);
#116=EDGE_CURVE('',#100,#101,#52,.T.);
#117=EDGE_CURVE('',#101,#102,#53,.T.);
#118=EDGE_CURVE('',#102,#99,#54,.T.);
#119=EDGE_CURVE('',#103,#101,#55,.T.);
#120=EDGE_CURVE('',#104,#103,#56,.T.);
#121=EDGE_CURVE('',#102,#104,#57,.T.);
#122=EDGE_CURVE('',#105,#106,#58,.T.);
#123=EDGE_CURVE('',#106,#104,#59,.T.);
#124=EDGE_CURVE('',#103,#105,#60,.T.);
#125=EDGE_CURVE('',#99,#106,#61,.T.);
#126=EDGE_CURVE('',#105,#100,#62,.T.);
#127=EDGE_CURVE('',#107,#108,#63,.T.);
#128=EDGE_CURVE('',#108,#109,#64,.T.);
#129=EDGE_CURVE('',#109,#110,#65,.T.);
#130=EDGE_CURVE('',#110,#107,#66,.T.);
#131=EDGE_CURVE('',#111,#109,#67,.T.);
#132=EDGE_CURVE('',#112,#111,#68,.T.);
#133=EDGE_CURVE('',#110,#112,#69,.T.);
#134=EDGE_CURVE('',#113,#114,#70,.T.);
#135=EDGE_CURVE('',#114,#112,#71,.T.);
#136=EDGE_CURVE('',#111,#113,#72,.T.);
#137=EDGE_CURVE('',#107,#114,#73,.T.);
#138=EDGE_CURVE('',#113,#108,#74,.T.);
#139=ORIENTED_EDGE('',*,*,#115,.T.);
#140=ORIENTED_EDGE('',*,*,#116,.T.);
#141=ORIENTED_EDGE('',*,*,#117,.T.);
#142=ORIENTED_EDGE('',*,*,#118,.T.);
#143=ORIENTED_EDGE('',*,*,#117,.F.);
#144=ORIENTED_EDGE('',*,*,#119,.F.);
#145=ORIENTED_EDGE('',*,*,#120,.F.);
#146=ORIENTED_EDGE('',*,*,#121,.F.);
#147=ORIENTED_EDGE('',*,*,#122,.T.);
#148=ORIENTED_EDGE('',*,*,#123,.T.);
#149=ORIENTED_EDGE('',*,*,#120,.T.);
#150=ORIENTED_EDGE('',*,*,#124,.T.);
#151=ORIENTED_EDGE('',*,*,#123,.F.);
#152=ORIENTED_EDGE('',*,*,#125,.F.);
#153=ORIENTED_EDGE('',*,*,#118,.F.);
#154=ORIENTED_EDGE('',*,*,#121,.T.);
#155=ORIENTED_EDGE('',*,*,#116,.F.);
#156=ORIENTED_EDGE('',*,*,#126,.F.);
#157=ORIENTED_EDGE('',*,*,#124,.F.);
#158=ORIENTED_EDGE('',*,*,#119,.T.);
#159=ORIENTED_EDGE('',*,*,#115,.F.);
#160=ORIENTED_EDGE('',*,*,#125,.T.);
#161=ORIENTED_EDGE('',*,*,#122,.F.);
#162=ORIENTED_EDGE('',*,*,#126,.T.);
#163=ORIENTED_EDGE('',*,*,#127,.T.);
#164=ORIENTED_EDGE('',*,*,#128,.T.);
#165=ORIENTED_EDGE('',*,*,#129,.T.);
#166=ORIENTED_EDGE('',*,*,#130,.T.);
#167=ORIENTED_EDGE('',*,*,#129,.F.);
#168=ORIENTED_EDGE('',*,*,#131,.F.);
#169=ORIENTED_EDGE('',*,*,#132,.F.);
#170=ORIENTED_EDGE('',*,*,#133,.F.);
#171=ORIENTED_EDGE('',*,*,#134,.T.);
#172=ORIENTED_EDGE('',*,*,#135,.T.);
#173=ORIENTED_EDGE('',*,*,#132,.T.);
#174=ORIENTED_EDGE('',*,*,#136,.T.);
#175=ORIENTED_EDGE('',*,*,#135,.F.);
#176=ORIENTED_EDGE('',*,*,#137,.F.);
#177=ORIENTED_EDGE('',*,*,#130,.F.);
#178=ORIENTED_EDGE('',*,*,#133,.T.);
#179=ORIENTED_EDGE('',*,*,#128,.F.);
#180=ORIENTED_EDGE('',*,*,#138,.F.);
#181=ORIENTED_EDGE('',*,*,#136,.F.);
#182=ORIENTED_EDGE('',*,*,#131,.T.);
#183=ORIENTED_EDGE('',*,*,#127,.F.);
#184=ORIENTED_EDGE('',*,*,#137,.T.);
#185=ORIENTED_EDGE('',*,*,#134,.F.);
#186=ORIENTED_EDGE('',*,*,#138,.T.);
#187=PLANE('',#214);
#188=PLANE('',#215);
#189=PLANE('',#216);
#190=PLANE('',#217);
#191=PLANE('',#218);
#192=PLANE('',#219);
#193=PLANE('',#221);
#194=PLANE('',#222);
#195=PLANE('',#223);
#196=PLANE('',#224);
#197=PLANE('',#225);
#198=PLANE('',#226);
#199=ADVANCED_FACE('',(#27),#187,.T.);
#200=ADVANCED_FACE('',(#28),#188,.F.);
#201=ADVANCED_FACE('',(#29),#189,.T.);
#202=ADVANCED_FACE('',(#30),#190,.T.);
#203=ADVANCED_FACE('',(#31),#191,.T.);
#204=ADVANCED_FACE('',(#32),#192,.T.);
#205=ADVANCED_FACE('',(#33),#193,.T.);
#206=ADVANCED_FACE('',(#34),#194,.F.);
#207=ADVANCED_FACE('',(#35),#195,.T.);
#208=ADVANCED_FACE('',(#36),#196,.T.);
#209=ADVANCED_FACE('',(#37),#197,.T.);
#210=ADVANCED_FACE('',(#38),#198,.T.);
#211=CLOSED_SHELL('',(#199,#200,#201,#202,#203,#204));
#212=CLOSED_SHELL('',(#205,#206,#207,#208,#209,#210));
#213=AXIS2_PLACEMENT_3D('placement',#288,#230,#231);
#214=AXIS2_PLACEMENT_3D('',#289,#232,#233);
#215=AXIS2_PLACEMENT_3D('',#298,#238,#239);
#216=AXIS2_PLACEMENT_3D('',#304,#243,#244);
#217=AXIS2_PLACEMENT_3D('',#310,#248,#249);
#218=AXIS2_PLACEMENT_3D('',#312,#251,#252);
#219=AXIS2_PLACEMENT_3D('',#314,#254,#255);
#220=AXIS2_PLACEMENT_3D('placement',#315,#256,#257);
#221=AXIS2_PLACEMENT_3D('',#316,#258,#259);
#222=AXIS2_PLACEMENT_3D('',#325,#264,#265);
#223=AXIS2_PLACEMENT_3D('',#331,#269,#270);
#224=AXIS2_PLACEMENT_3D('',#337,#274,#275);
#225=AXIS2_PLACEMENT_3D('',#339,#277,#278);
#226=AXIS2_PLACEMENT_3D('',#341,#280,#281);
#227=AXIS2_PLACEMENT_3D('placement',#342,#282,#283);
#228=AXIS2_PLACEMENT_3D('',#343,#284,#285);
#229=AXIS2_PLACEMENT_3D('',#344,#286,#287);
#230=DIRECTION('axis',(0.,0.,1.));
#231=DIRECTION('refdir',(1.,0.,0.));
#232=DIRECTION('center_axis',(-0.866025403784439,0.5,0.));
#233=DIRECTION('ref_axis',(0.,0.,1.));
#234=DIRECTION('',(0.5,0.866025403784439,0.));
#235=DIRECTION('',(0.,0.,-1.));
#236=DIRECTION('',(-0.5,-0.866025403784439,0.));
#237=DIRECTION('',(0.,0.,1.));
#238=DIRECTION('center_axis',(0.,0.,1.));
#239=DIRECTION('ref_axis',(1.,0.,0.));
#240=DIRECTION('',(-1.,-1.21121074883625E-16,0.));
#241=DIRECTION('',(0.5,0.866025403784439,0.));
#242=DIRECTION('',(1.,0.,0.));
#243=DIRECTION('center_axis',(0.866025403784439,-0.5,0.));
#244=DIRECTION('ref_axis',(0.,0.,-1.));
#245=DIRECTION('',(-0.5,-0.866025403784439,0.));
#246=DIRECTION('',(0.,0.,-1.));
#247=DIRECTION('',(0.,0.,1.));
#248=DIRECTION('center_axis',(0.,-1.,0.));
#249=DIRECTION('ref_axis',(1.,0.,0.));
#250=DIRECTION('',(1.,0.,0.));
#251=DIRECTION('center_axis',(-1.21121074883625E-16,1.,0.));
#252=DIRECTION('ref_axis',(-1.,0.,0.));
#253=DIRECTION('',(-1.,-1.21121074883625E-16,0.));
#254=DIRECTION('center_axis',(0.,0.,1.));
#255=DIRECTION('ref_axis',(1.,0.,0.));
#256=DIRECTION('axis',(0.,0.,1.));
#257=DIRECTION('refdir',(1.,0.,0.));
#258=DIRECTION('center_axis',(-0.866025403784439,0.5,0.));
#259=DIRECTION('ref_axis',(0.,0.,1.));
#260=DIRECTION('',(0.5,0.866025403784439,0.));
#261=DIRECTION('',(0.,0.,-1.));
#262=DIRECTION('',(-0.5,-0.866025403784439,0.));
#263=DIRECTION('',(0.,0.,1.));
#264=DIRECTION('center_axis',(0.,0.,1.));
#265=DIRECTION('ref_axis',(1.,0.,0.));
#266=DIRECTION('',(-1.,-1.21121074883625E-16,0.));
#267=DIRECTION('',(0.5,0.866025403784439,0.));
#268=DIRECTION('',(1.,0.,0.));
#269=DIRECTION('center_axis',(0.866025403784439,-0.5,0.));
#270=DIRECTION('ref_axis',(0.,0.,-1.));
#271=DIRECTION('',(-0.5,-0.866025403784439,0.));
#272=DIRECTION('',(0.,0.,-1.));
#273=DIRECTION('',(0.,0.,1.));
#274=DIRECTION('center_axis',(0.,-1.,0.));
#275=DIRECTION('ref_axis',(1.,0.,0.));
#276=DIRECTION('',(1.,0.,0.));
#277=DIRECTION('center_axis',(-1.21121074883625E-16,1.,0.));
#278=DIRECTION('ref_axis',(-1.,0.,0.));
#279=DIRECTION('',(-1.,-1.21121074883625E-16,0.));
#280=DIRECTION('center_axis',(0.,0.,1.));
#281=DIRECTION('ref_axis',(1.,0.,0.));
#282=DIRECTION('axis',(0.,0.,1.));
#283=DIRECTION('refdir',(1.,0.,0.));
#284=DIRECTION('',(-5.55111512312578E-17,1.33319145925967E-16,1.));
#285=DIRECTION('',(0.5,-0.866025403784438,1.43213342798361E-16));
#286=DIRECTION('',(-5.55111512312578E-17,2.40173609332067E-16,1.));
#287=DIRECTION('',(1.,2.66646270987787E-32,5.55111512312578E-17));
#288=CARTESIAN_POINT('',(0.,0.,0.));
#289=CARTESIAN_POINT('Origin',(0.288675134594813,0.5,0.));
#290=CARTESIAN_POINT('',(0.,0.,0.75));
#291=CARTESIAN_POINT('',(0.577350269189625,1.,0.75));
#292=CARTESIAN_POINT('',(0.433028242770461,0.750026917590709,0.75));
#293=CARTESIAN_POINT('',(0.577350269189625,1.,0.));
#294=CARTESIAN_POINT('',(0.577350269189625,1.,0.));
#295=CARTESIAN_POINT('',(0.,0.,0.));
#296=CARTESIAN_POINT('',(0.433028242770461,0.750026917590709,0.));
#297=CARTESIAN_POINT('',(0.,0.,0.));
#298=CARTESIAN_POINT('Origin',(1.4435,0.5,0.));
#299=CARTESIAN_POINT('',(2.887,1.,0.));
#300=CARTESIAN_POINT('',(2.887,1.,0.));
#301=CARTESIAN_POINT('',(2.30964973081037,0.,0.));
#302=CARTESIAN_POINT('',(2.45397175722954,0.249973082409291,0.));
#303=CARTESIAN_POINT('',(0.,0.,0.));
#304=CARTESIAN_POINT('Origin',(2.59832486540519,0.5,0.));
#305=CARTESIAN_POINT('',(2.887,1.,0.75));
#306=CARTESIAN_POINT('',(2.30964973081037,0.,0.75));
#307=CARTESIAN_POINT('',(2.45397175722954,0.249973082409291,0.75));
#308=CARTESIAN_POINT('',(2.30964973081037,0.,0.));
#309=CARTESIAN_POINT('',(2.887,1.,0.));
#310=CARTESIAN_POINT('Origin',(0.,0.,0.));
#311=CARTESIAN_POINT('',(0.,0.,0.75));
#312=CARTESIAN_POINT('Origin',(2.887,1.,0.));
#313=CARTESIAN_POINT('',(2.887,1.,0.75));
#314=CARTESIAN_POINT('Origin',(1.4435,0.5,0.75));
#315=CARTESIAN_POINT('',(0.,0.,0.));
#316=CARTESIAN_POINT('Origin',(0.288675134594813,0.5,0.));
#317=CARTESIAN_POINT('',(0.,0.,0.75));
#318=CARTESIAN_POINT('',(0.577350269189625,1.,0.75));
#319=CARTESIAN_POINT('',(0.433028242770461,0.750026917590709,0.75));
#320=CARTESIAN_POINT('',(0.577350269189625,1.,0.));
#321=CARTESIAN_POINT('',(0.577350269189625,1.,0.));
#322=CARTESIAN_POINT('',(0.,0.,0.));
#323=CARTESIAN_POINT('',(0.433028242770461,0.750026917590709,0.));
#324=CARTESIAN_POINT('',(0.,0.,0.));
#325=CARTESIAN_POINT('Origin',(1.4435,0.5,0.));
#326=CARTESIAN_POINT('',(2.887,1.,0.));
#327=CARTESIAN_POINT('',(2.887,1.,0.));
#328=CARTESIAN_POINT('',(2.30964973081037,0.,0.));
#329=CARTESIAN_POINT('',(2.45397175722954,0.249973082409291,0.));
#330=CARTESIAN_POINT('',(0.,0.,0.));
#331=CARTESIAN_POINT('Origin',(2.59832486540519,0.5,0.));
#332=CARTESIAN_POINT('',(2.887,1.,0.75));
#333=CARTESIAN_POINT('',(2.30964973081037,0.,0.75));
#334=CARTESIAN_POINT('',(2.45397175722954,0.249973082409291,0.75));
#335=CARTESIAN_POINT('',(2.30964973081037,0.,0.));
#336=CARTESIAN_POINT('',(2.887,1.,0.));
#337=CARTESIAN_POINT('Origin',(0.,0.,0.));
#338=CARTESIAN_POINT('',(0.,0.,0.75));
#339=CARTESIAN_POINT('Origin',(2.887,1.,0.));
#340=CARTESIAN_POINT('',(2.887,1.,0.75));
#341=CARTESIAN_POINT('Origin',(1.4435,0.5,0.75));
#342=CARTESIAN_POINT('',(0.,0.,0.));
#343=CARTESIAN_POINT('',(-2.52525315240504,2.93993355399886,-0.511089800816461));
#344=CARTESIAN_POINT('',(-3.1027277486206,-0.0602817867268105,-0.51108980081646));
#345=UNCERTAINTY_MEASURE_WITH_UNIT(LENGTH_MEASURE(0.000393700787401575),
#353,'DISTANCE_ACCURACY_VALUE',
'Maximum model space distance between geometric entities at asserted c
onnectivities');
#346=UNCERTAINTY_MEASURE_WITH_UNIT(LENGTH_MEASURE(0.000393700787401575),
#353,'DISTANCE_ACCURACY_VALUE',
'Maximum model space distance between geometric entities at asserted c
onnectivities');
#347=UNCERTAINTY_MEASURE_WITH_UNIT(LENGTH_MEASURE(0.000393700787401575),
#353,'DISTANCE_ACCURACY_VALUE',
'Maximum model space distance between geometric entities at asserted c
onnectivities');
#348=UNCERTAINTY_MEASURE_WITH_UNIT(LENGTH_MEASURE(1.E-6),#354,
'DISTANCE_ACCURACY_VALUE',
'Maximum model space distance between geometric entities at asserted c
onnectivities');
#349=(
GEOMETRIC_REPRESENTATION_CONTEXT(3)
GLOBAL_UNCERTAINTY_ASSIGNED_CONTEXT((#345))
GLOBAL_UNIT_ASSIGNED_CONTEXT((#353,#359,#356))
REPRESENTATION_CONTEXT('','3D')
);
#350=(
GEOMETRIC_REPRESENTATION_CONTEXT(3)
GLOBAL_UNCERTAINTY_ASSIGNED_CONTEXT((#346))
GLOBAL_UNIT_ASSIGNED_CONTEXT((#353,#359,#356))
REPRESENTATION_CONTEXT('','3D')
);
#351=(
GEOMETRIC_REPRESENTATION_CONTEXT(3)
GLOBAL_UNCERTAINTY_ASSIGNED_CONTEXT((#347))
GLOBAL_UNIT_ASSIGNED_CONTEXT((#353,#359,#356))
REPRESENTATION_CONTEXT('','3D')
);
#352=(
GEOMETRIC_REPRESENTATION_CONTEXT(3)
GLOBAL_UNCERTAINTY_ASSIGNED_CONTEXT((#348))
GLOBAL_UNIT_ASSIGNED_CONTEXT((#354,#359,#356))
REPRESENTATION_CONTEXT('','3D')
);
#353=(
CONVERSION_BASED_UNIT('__CONSTANT UNIT inch',#355)
LENGTH_UNIT()
NAMED_UNIT(#358)
);
#354=(
LENGTH_UNIT()
NAMED_UNIT(*)
SI_UNIT(.MILLI.,.METRE.)
);
#355=LENGTH_MEASURE_WITH_UNIT(LENGTH_MEASURE(25.4),#354);
#356=(
NAMED_UNIT(*)
SI_UNIT($,.STERADIAN.)
SOLID_ANGLE_UNIT()
);
#357=DIMENSIONAL_EXPONENTS(0.,0.,0.,0.,0.,0.,0.);
#358=DIMENSIONAL_EXPONENTS(1.,0.,0.,0.,0.,0.,0.);
#359=(
CONVERSION_BASED_UNIT('degree',#361)
NAMED_UNIT(#357)
PLANE_ANGLE_UNIT()
);
#360=(
NAMED_UNIT(*)
PLANE_ANGLE_UNIT()
SI_UNIT($,.RADIAN.)
);
#361=PLANE_ANGLE_MEASURE_WITH_UNIT(PLANE_ANGLE_MEASURE(0.01745329252),#360);
#362=SHAPE_DEFINITION_REPRESENTATION(#365,#370);
#363=SHAPE_DEFINITION_REPRESENTATION(#366,#371);
#364=SHAPE_DEFINITION_REPRESENTATION(#367,#372);
#365=PRODUCT_DEFINITION_SHAPE('',$,#374);
#366=PRODUCT_DEFINITION_SHAPE('',$,#375);
#367=PRODUCT_DEFINITION_SHAPE('',$,#376);
#368=PRODUCT_DEFINITION_SHAPE($,$,#17);
#369=PRODUCT_DEFINITION_SHAPE($,$,#18);
#370=SHAPE_REPRESENTATION('',(#213),#349);
#371=SHAPE_REPRESENTATION('',(#220),#350);
#372=SHAPE_REPRESENTATION('',(#227,#228,#229),#351);
#373=PRODUCT_DEFINITION_CONTEXT('part definition',#384,'design');
#374=PRODUCT_DEFINITION('Part','Part',#377,#373);
#375=PRODUCT_DEFINITION('Part2','Part2',#378,#373);
#376=PRODUCT_DEFINITION('Hex_SubAssy','Hex_SubAssy',#379,#373);
#377=PRODUCT_DEFINITION_FORMATION('',$,#386);
#378=PRODUCT_DEFINITION_FORMATION('',$,#387);
#379=PRODUCT_DEFINITION_FORMATION('',$,#388);
#380=PRODUCT_RELATED_PRODUCT_CATEGORY('Part','Part',(#386));
#381=PRODUCT_RELATED_PRODUCT_CATEGORY('Part2','Part2',(#387));
#382=PRODUCT_RELATED_PRODUCT_CATEGORY('Hex_SubAssy','Hex_SubAssy',(#388));
#383=APPLICATION_PROTOCOL_DEFINITION('international standard',
'automotive_design',2009,#384);
#384=APPLICATION_CONTEXT(
'Core Data for Automotive Mechanical Design Process');
#385=PRODUCT_CONTEXT('part definition',#384,'mechanical');
#386=PRODUCT('Part','Part',$,(#385));
#387=PRODUCT('Part2','Part2',$,(#385));
#388=PRODUCT('Hex_SubAssy','Hex_SubAssy',$,(#385));
#389=PRESENTATION_STYLE_ASSIGNMENT((#390));
#390=SURFACE_STYLE_USAGE(.BOTH.,#391);
#391=SURFACE_SIDE_STYLE('',(#392));
#392=SURFACE_STYLE_FILL_AREA(#393);
#393=FILL_AREA_STYLE('',(#394));
#394=FILL_AREA_STYLE_COLOUR('',#395);
#395=COLOUR_RGB('',0.890196078431373,0.666666666666667,0.501960784313725);
ENDSEC;
END-ISO-10303-21;
