  0
SECTION
  2
HEADER
  9
$ACADVER
  1
AC1014
  9
$HANDSEED
  5
FFFF
  9
$MEASUREMENT
 70
     1
  0
ENDSEC
  0
SECTION
  2
TABLES
  0
TABLE
  2
VPORT
  5
8
330
0
100
AcDbSymbolTable
 70
     4
  0
VPORT
  5
2E
330
8
100
AcDbSymbolTableRecord
100
AcDbViewportTableRecord
  2
*ACTIVE
 70
     0
 10
0.0
 20
0.0
 11
1.0
 21
1.0
 12
210.0
 22
148.5
 13
0.0
 23
0.0
 14
10.0
 24
10.0
 15
10.0
 25
10.0
 16
0.0
 26
0.0
 36
1.0
 17
0.0
 27
0.0
 37
0.0
 40
341.0
 41
1.24
 42
50.0
 43
0.0
 44
0.0
 50
0.0
 51
0.0
 71
     0
 72
   100
 73
     1
 74
     3
 75
     0
 76
     0
 77
     0
 78
     0
  0
ENDTAB
  0
TABLE
  2
LTYPE
  5
5
330
0
100
AcDbSymbolTable
 70
     1
  0
LTYPE
  5
14
330
5
100
AcDbSymbolTableRecord
100
AcDbLinetypeTableRecord
  2
BYBLOCK
 70
     0
  3

 72
    65
 73
     0
 40
0.0
  0
LTYPE
  5
15
330
5
100
AcDbSymbolTableRecord
100
AcDbLinetypeTableRecord
  2
BYLAYER
 70
     0
  3

 72
    65
 73
     0
 40
0.0
  0
LTYPE
  5
16
330
5
100
AcDbSymbolTableRecord
100
AcDbLinetypeTableRecord
  2
CONTINUOUS
 70
     0
  3
Solid line
 72
    65
 73
     0
 40
0.0
  0
ENDTAB
  0
TABLE
  2
LAYER
  5
2
100
AcDbSymbolTable
 70
2
  0
LAYER
  5
50
100
AcDbSymbolTableRecord
100
AcDbLayerTableRecord
  2
0
 70
0
  6
CONTINUOUS
  0
LAYER
  5
51
100
AcDbSymbolTableRecord
100
AcDbLayerTableRecord
  2
Layer_1
 70
0
  6
CONTINUOUS
  0
ENDTAB
  0
TABLE
  2
STYLE
  5
3
330
0
100
AcDbSymbolTable
 70
     1
  0
STYLE
  5
11
330
3
100
AcDbSymbolTableRecord
100
AcDbTextStyleTableRecord
  2
STANDARD
 70
     0
 40
0.0
 41
1.0
 50
0.0
 71
     0
 42
2.5
  3
txt
  4

  0
ENDTAB
  0
TABLE
  2
VIEW
  5
6
330
0
100
AcDbSymbolTable
 70
     0
  0
ENDTAB
  0
TABLE
  2
UCS
  5
7
330
0
100
AcDbSymbolTable
 70
     0
  0
ENDTAB
  0
TABLE
  2
APPID
  5
9
330
0
100
AcDbSymbolTable
 70
     2
  0
APPID
  5
12
330
9
100
AcDbSymbolTableRecord
100
AcDbRegAppTableRecord
  2
ACAD
 70
     0
  0
ENDTAB
  0
TABLE
  2
DIMSTYLE
  5
A
330
0
100
AcDbSymbolTable
 70
     1
  0
DIMSTYLE
105
27
330
A
100
AcDbSymbolTableRecord
100
AcDbDimStyleTableRecord
  2
ISO-25
 70
     0
  3

  4

  5

  6

  7

 40
1.0
 41
2.5
 42
0.625
 43
3.75
 44
1.25
 45
0.0
 46
0.0
 47
0.0
 48
0.0
140
2.5
141
2.5
142
0.0
143
0.03937007874016
144
1.0
145
0.0
146
1.0
147
0.625
 71
     0
 72
     0
 73
     0
 74
     0
 75
     0
 76
     0
 77
     1
 78
     8
170
     0
171
     3
172
     1
173
     0
174
     0
175
     0
176
     0
177
     0
178
     0
270
     2
271
     2
272
     2
273
     2
274
     3
340
11
275
     0
280
     0
281
     0
282
     0
283
     0
284
     8
285
     0
286
     0
287
     3
288
     0
  0
ENDTAB
  0
TABLE
  2
BLOCK_RECORD
  5
1
330
0
100
AcDbSymbolTable
 70
     1
  0
BLOCK_RECORD
  5
1F
330
1
100
AcDbSymbolTableRecord
100
AcDbBlockTableRecord
  2
*MODEL_SPACE
  0
BLOCK_RECORD
  5
1B
330
1
100
AcDbSymbolTableRecord
100
AcDbBlockTableRecord
  2
*PAPER_SPACE
  0
ENDTAB
  0
ENDSEC
  0
SECTION
  2
BLOCKS
  0
BLOCK
  5
20
330
1F
100
AcDbEntity
  8
0
100
AcDbBlockBegin
  2
*MODEL_SPACE
 70
     0
 10
0.0
 20
0.0
 30
0.0
  3
*MODEL_SPACE
  1

  0
ENDBLK
  5
21
330
1F
100
AcDbEntity
  8
0
100
AcDbBlockEnd
  0
BLOCK
  5
1C
330
1B
100
AcDbEntity
 67
     1
  8
0
100
AcDbBlockBegin
  2
*PAPER_SPACE
  1

  0
ENDBLK
  5
1D
330
1B
100
AcDbEntity
 67
     1
  8
0
100
AcDbBlockEnd
  0
ENDSEC
  0
SECTION
  2
ENTITIES
  0
LWPOLYLINE
  5
100
100
AcDbEntity
  8
Layer_1
 62
7
100
AcDbPolyline
 90
4
 70
1
 10
388.442512
 20
665.212224
 30
0.0
 10
331.856544
 20
665.212224
 30
0.0
 10
331.856544
 20
652.028176
 30
0.0
 10
370.172640
 20
652.028176
 30
0.0
  0
LWPOLYLINE
  5
101
100
AcDbEntity
  8
Layer_1
 62
7
100
AcDbPolyline
 90
6
 70
1
 10
370.172640
 20
634.798112
 30
0.0
 10
331.856544
 20
634.798112
 30
0.0
 10
331.856544
 20
620.173528
 30
0.0
 10
388.442512
 20
620.173528
 30
0.0
 10
388.442512
 20
665.212224
 30
0.0
 10
388.442512
 20
665.212224
 30
0.0
  0
SPLINE
  5
102
100
AcDbEntity
  8
Layer_1
 62
7
100
AcDbSpline
 70
0
 71
3
 72
13
 73
9
 74
7
 40
0.000000
 40
0.000000
 40
0.000000
 40
0.000000
 40
5.095603
 40
9.775299
 40
14.330393
 40
18.883937
 40
23.561645
 40
28.656875
 40
28.656875
 40
28.656875
 40
28.656875
 10
370.172640
 20
652.028176
 30
0.0
 10
371.888229
 20
651.804018
 30
0.0
 10
375.179380
 20
651.373997
 30
0.0
 10
378.988480
 20
648.037670
 30
0.0
 10
380.471582
 20
643.410624
 30
0.0
 10
378.988805
 20
638.783713
 30
0.0
 10
375.178416
 20
635.450812
 30
0.0
 10
371.888089
 20
635.021788
 30
0.0
 10
370.172640
 20
634.798112
 30
0.0
 11
370.172640
 21
652.028176
 31
0.0
 11
375.131150
 21
650.854146
 31
0.0
 11
378.646338
 21
647.764969
 31
0.0
 11
379.981728
 21
643.410016
 31
0.0
 11
378.646338
 21
639.056685
 31
0.0
 11
375.131150
 21
635.970520
 31
0.0
 11
370.172640
 21
634.798112
 31
0.0
  0
LWPOLYLINE
  5
103
100
AcDbEntity
  8
Layer_1
 62
7
100
AcDbPolyline
 90
4
 70
1
 10
315.606752
 20
606.487296
 30
0.0
 10
372.192720
 20
606.487296
 30
0.0
 10
372.192720
 20
619.671344
 30
0.0
 10
333.876624
 20
619.671344
 30
0.0
  0
LWPOLYLINE
  5
104
100
AcDbEntity
  8
Layer_1
 62
7
100
AcDbPolyline
 90
6
 70
1
 10
333.876624
 20
636.901408
 30
0.0
 10
372.192720
 20
636.901408
 30
0.0
 10
372.192720
 20
651.525992
 30
0.0
 10
315.606752
 20
651.525992
 30
0.0
 10
315.606752
 20
606.487296
 30
0.0
 10
315.606752
 20
606.487296
 30
0.0
  0
SPLINE
  5
105
100
AcDbEntity
  8
Layer_1
 62
7
100
AcDbSpline
 70
0
 71
3
 72
13
 73
9
 74
7
 40
0.000000
 40
0.000000
 40
0.000000
 40
0.000000
 40
5.095603
 40
9.775299
 40
14.330393
 40
18.883937
 40
23.561645
 40
28.656875
 40
28.656875
 40
28.656875
 40
28.656875
 10
333.876624
 20
619.671344
 30
0.0
 10
332.161035
 20
619.895502
 30
0.0
 10
328.869884
 20
620.325523
 30
0.0
 10
325.060784
 20
623.661850
 30
0.0
 10
323.577682
 20
628.288896
 30
0.0
 10
325.060459
 20
632.915806
 30
0.0
 10
328.870848
 20
636.248708
 30
0.0
 10
332.161175
 20
636.677732
 30
0.0
 10
333.876624
 20
636.901408
 30
0.0
 11
333.876624
 21
619.671344
 31
0.0
 11
328.918114
 21
620.845374
 31
0.0
 11
325.402926
 21
623.934551
 31
0.0
 11
324.067536
 21
628.289504
 31
0.0
 11
325.402926
 21
632.642835
 31
0.0
 11
328.918114
 21
635.729000
 31
0.0
 11
333.876624
 21
636.901408
 31
0.0
  0
LWPOLYLINE
  5
106
100
AcDbEntity
  8
Layer_1
 62
7
100
AcDbPolyline
 90
2
 70
1
 10
227.384048
 20
668.968376
 30
0.0
 10
156.165216
 20
668.968376
 30
0.0
  0
SPLINE
  5
107
100
AcDbEntity
  8
Layer_1
 62
7
100
AcDbSpline
 70
0
 71
3
 72
10
 73
6
 74
4
 40
0.000000
 40
0.000000
 40
0.000000
 40
0.000000
 40
1.028078
 40
2.023395
 40
3.051478
 40
3.051478
 40
3.051478
 40
3.051478
 10
156.165216
 20
668.968376
 30
0.0
 10
155.820552
 20
669.021968
 30
0.0
 10
155.142207
 20
669.127445
 30
0.0
 10
154.360412
 20
669.909243
 30
0.0
 10
154.254936
 20
670.587590
 30
0.0
 10
154.201344
 20
670.932256
 30
0.0
 11
156.165216
 21
668.968376
 31
0.0
 11
155.172516
 21
669.235754
 31
0.0
 11
154.468722
 21
669.939550
 31
0.0
 11
154.201344
 21
670.932256
 31
0.0
  0
LWPOLYLINE
  5
108
100
AcDbEntity
  8
Layer_1
 62
7
100
AcDbPolyline
 90
2
 70
1
 10
154.201344
 20
670.932256
 30
0.0
 10
154.201344
 20
713.489464
 30
0.0
  0
SPLINE
  5
109
100
AcDbEntity
  8
Layer_1
 62
7
100
AcDbSpline
 70
0
 71
3
 72
10
 73
6
 74
4
 40
0.000000
 40
0.000000
 40
0.000000
 40
0.000000
 40
1.028078
 40
2.023393
 40
3.051471
 40
3.051471
 40
3.051471
 40
3.051471
 10
154.201344
 20
713.489464
 30
0.0
 10
154.254936
 20
713.834128
 30
0.0
 10
154.360413
 20
714.512472
 30
0.0
 10
155.142208
 20
715.294267
 30
0.0
 10
155.820552
 20
715.399743
 30
0.0
 10
156.165216
 20
715.453336
 30
0.0
 11
154.201344
 21
713.489464
 31
0.0
 11
154.468722
 21
714.482164
 31
0.0
 11
155.172516
 21
715.185958
 31
0.0
 11
156.165216
 21
715.453336
 31
0.0
  0
LWPOLYLINE
  5
10a
100
AcDbEntity
  8
Layer_1
 62
7
100
AcDbPolyline
 90
2
 70
1
 10
156.165216
 20
715.453336
 30
0.0
 10
227.384048
 20
715.453336
 30
0.0
  0
SPLINE
  5
10b
100
AcDbEntity
  8
Layer_1
 62
7
100
AcDbSpline
 70
0
 71
3
 72
10
 73
6
 74
4
 40
0.000000
 40
0.000000
 40
0.000000
 40
0.000000
 40
1.028078
 40
2.023393
 40
3.051471
 40
3.051471
 40
3.051471
 40
3.051471
 10
227.384048
 20
715.453336
 30
0.0
 10
227.728712
 20
715.399743
 30
0.0
 10
228.407056
 20
715.294267
 30
0.0
 10
229.188851
 20
714.512472
 30
0.0
 10
229.294328
 20
713.834128
 30
0.0
 10
229.347920
 20
713.489464
 30
0.0
 11
227.384048
 21
715.453336
 31
0.0
 11
228.376748
 21
715.185958
 31
0.0
 11
229.080542
 21
714.482164
 31
0.0
 11
229.347920
 21
713.489464
 31
0.0
  0
LWPOLYLINE
  5
10c
100
AcDbEntity
  8
Layer_1
 62
7
100
AcDbPolyline
 90
2
 70
1
 10
229.347920
 20
713.489464
 30
0.0
 10
229.347920
 20
670.932256
 30
0.0
  0
LWPOLYLINE
  5
10d
100
AcDbEntity
  8
Layer_1
 62
7
100
AcDbPolyline
 90
2
 70
1
 10
227.384048
 20
668.968376
 30
0.0
 10
227.384048
 20
668.968376
 30
0.0
  0
SPLINE
  5
10e
100
AcDbEntity
  8
Layer_1
 62
7
100
AcDbSpline
 70
0
 71
3
 72
10
 73
6
 74
4
 40
0.000000
 40
0.000000
 40
0.000000
 40
0.000000
 40
1.028084
 40
2.023400
 40
3.051478
 40
3.051478
 40
3.051478
 40
3.051478
 10
229.347920
 20
670.932256
 30
0.0
 10
229.294328
 20
670.587590
 30
0.0
 10
229.188852
 20
669.909243
 30
0.0
 10
228.407057
 20
669.127445
 30
0.0
 10
227.728712
 20
669.021968
 30
0.0
 10
227.384048
 20
668.968376
 30
0.0
 11
229.347920
 21
670.932256
 31
0.0
 11
229.080542
 21
669.939550
 31
0.0
 11
228.376748
 21
669.235754
 31
0.0
 11
227.384048
 21
668.968376
 31
0.0
  0
LWPOLYLINE
  5
10f
100
AcDbEntity
  8
Layer_1
 62
7
100
AcDbPolyline
 90
2
 70
1
 10
227.429616
 20
618.171560
 30
0.0
 10
156.210776
 20
618.171560
 30
0.0
  0
SPLINE
  5
110
100
AcDbEntity
  8
Layer_1
 62
7
100
AcDbSpline
 70
0
 71
3
 72
10
 73
6
 74
4
 40
0.000000
 40
0.000000
 40
0.000000
 40
0.000000
 40
1.028084
 40
2.023400
 40
3.051478
 40
3.051478
 40
3.051478
 40
3.051478
 10
156.210776
 20
618.171560
 30
0.0
 10
155.866110
 20
618.225152
 30
0.0
 10
155.187763
 20
618.330628
 30
0.0
 10
154.405966
 20
619.112423
 30
0.0
 10
154.300488
 20
619.790768
 30
0.0
 10
154.246896
 20
620.135432
 30
0.0
 11
156.210776
 21
618.171560
 31
0.0
 11
155.218070
 21
618.438938
 31
0.0
 11
154.514274
 21
619.142731
 31
0.0
 11
154.246896
 21
620.135432
 31
0.0
  0
LWPOLYLINE
  5
111
100
AcDbEntity
  8
Layer_1
 62
7
100
AcDbPolyline
 90
2
 70
1
 10
154.246896
 20
620.135432
 30
0.0
 10
154.246896
 20
662.692648
 30
0.0
  0
SPLINE
  5
112
100
AcDbEntity
  8
Layer_1
 62
7
100
AcDbSpline
 70
0
 71
3
 72
10
 73
6
 74
4
 40
0.000000
 40
0.000000
 40
0.000000
 40
0.000000
 40
1.028078
 40
2.023395
 40
3.051478
 40
3.051478
 40
3.051478
 40
3.051478
 10
154.246896
 20
662.692648
 30
0.0
 10
154.300488
 20
663.037312
 30
0.0
 10
154.405966
 20
663.715657
 30
0.0
 10
155.187763
 20
664.497451
 30
0.0
 10
155.866110
 20
664.602928
 30
0.0
 10
156.210776
 20
664.656520
 30
0.0
 11
154.246896
 21
662.692648
 31
0.0
 11
154.514274
 21
663.685348
 31
0.0
 11
155.218070
 21
664.389142
 31
0.0
 11
156.210776
 21
664.656520
 31
0.0
  0
LWPOLYLINE
  5
113
100
AcDbEntity
  8
Layer_1
 62
7
100
AcDbPolyline
 90
2
 70
1
 10
156.210776
 20
664.656520
 30
0.0
 10
227.429616
 20
664.656520
 30
0.0
  0
SPLINE
  5
114
100
AcDbEntity
  8
Layer_1
 62
7
100
AcDbSpline
 70
0
 71
3
 72
10
 73
6
 74
4
 40
0.000000
 40
0.000000
 40
0.000000
 40
0.000000
 40
1.028078
 40
2.023393
 40
3.051471
 40
3.051471
 40
3.051471
 40
3.051471
 10
227.429616
 20
664.656520
 30
0.0
 10
227.774280
 20
664.602927
 30
0.0
 10
228.452624
 20
664.497451
 30
0.0
 10
229.234419
 20
663.715656
 30
0.0
 10
229.339896
 20
663.037312
 30
0.0
 10
229.393488
 20
662.692648
 30
0.0
 11
227.429616
 21
664.656520
 31
0.0
 11
228.422316
 21
664.389142
 31
0.0
 11
229.126110
 21
663.685348
 31
0.0
 11
229.393488
 21
662.692648
 31
0.0
  0
LWPOLYLINE
  5
115
100
AcDbEntity
  8
Layer_1
 62
7
100
AcDbPolyline
 90
2
 70
1
 10
229.393488
 20
662.692648
 30
0.0
 10
229.393488
 20
620.135432
 30
0.0
  0
LWPOLYLINE
  5
116
100
AcDbEntity
  8
Layer_1
 62
7
100
AcDbPolyline
 90
2
 70
1
 10
227.429616
 20
618.171560
 30
0.0
 10
227.429616
 20
618.171560
 30
0.0
  0
SPLINE
  5
117
100
AcDbEntity
  8
Layer_1
 62
7
100
AcDbSpline
 70
0
 71
3
 72
10
 73
6
 74
4
 40
0.000000
 40
0.000000
 40
0.000000
 40
0.000000
 40
1.028078
 40
2.023393
 40
3.051471
 40
3.051471
 40
3.051471
 40
3.051471
 10
229.393488
 20
620.135432
 30
0.0
 10
229.339896
 20
619.790768
 30
0.0
 10
229.234419
 20
619.112424
 30
0.0
 10
228.452624
 20
618.330629
 30
0.0
 10
227.774280
 20
618.225152
 30
0.0
 10
227.429616
 20
618.171560
 30
0.0
 11
229.393488
 21
620.135432
 31
0.0
 11
229.126110
 21
619.142731
 31
0.0
 11
228.422316
 21
618.438938
 31
0.0
 11
227.429616
 21
618.171560
 31
0.0
  0
LWPOLYLINE
  5
118
100
AcDbEntity
  8
Layer_1
 62
7
100
AcDbPolyline
 90
2
 70
1
 10
237.234232
 20
665.658400
 30
0.0
 10
308.453072
 20
665.658400
 30
0.0
  0
SPLINE
  5
119
100
AcDbEntity
  8
Layer_1
 62
7
100
AcDbSpline
 70
0
 71
3
 72
10
 73
6
 74
4
 40
0.000000
 40
0.000000
 40
0.000000
 40
0.000000
 40
1.028079
 40
2.023395
 40
3.051470
 40
3.051470
 40
3.051470
 40
3.051470
 10
308.453072
 20
665.658400
 30
0.0
 10
308.797736
 20
665.604807
 30
0.0
 10
309.476081
 20
665.499329
 30
0.0
 10
310.257873
 20
664.717534
 30
0.0
 10
310.363351
 20
664.039191
 30
0.0
 10
310.416944
 20
663.694528
 30
0.0
 11
308.453072
 21
665.658400
 31
0.0
 11
309.445772
 21
665.391020
 31
0.0
 11
310.149566
 21
664.687225
 31
0.0
 11
310.416944
 21
663.694528
 31
0.0
  0
LWPOLYLINE
  5
11a
100
AcDbEntity
  8
Layer_1
 62
7
100
AcDbPolyline
 90
2
 70
1
 10
310.416944
 20
663.694528
 30
0.0
 10
310.416944
 20
621.137328
 30
0.0
  0
SPLINE
  5
11b
100
AcDbEntity
  8
Layer_1
 62
7
100
AcDbSpline
 70
0
 71
3
 72
10
 73
6
 74
4
 40
0.000000
 40
0.000000
 40
0.000000
 40
0.000000
 40
1.028078
 40
2.023393
 40
3.051471
 40
3.051471
 40
3.051471
 40
3.051471
 10
310.416944
 20
621.137328
 30
0.0
 10
310.363352
 20
620.792664
 30
0.0
 10
310.257875
 20
620.114320
 30
0.0
 10
309.476080
 20
619.332525
 30
0.0
 10
308.797736
 20
619.227048
 30
0.0
 10
308.453072
 20
619.173456
 30
0.0
 11
310.416944
 21
621.137328
 31
0.0
 11
310.149566
 21
620.144627
 31
0.0
 11
309.445772
 21
619.440834
 31
0.0
 11
308.453072
 21
619.173456
 31
0.0
  0
LWPOLYLINE
  5
11c
100
AcDbEntity
  8
Layer_1
 62
7
100
AcDbPolyline
 90
2
 70
1
 10
308.453072
 20
619.173456
 30
0.0
 10
237.234232
 20
619.173456
 30
0.0
  0
SPLINE
  5
11d
100
AcDbEntity
  8
Layer_1
 62
7
100
AcDbSpline
 70
0
 71
3
 72
10
 73
6
 74
4
 40
0.000000
 40
0.000000
 40
0.000000
 40
0.000000
 40
1.028078
 40
2.023393
 40
3.051471
 40
3.051471
 40
3.051471
 40
3.051471
 10
237.234232
 20
619.173456
 30
0.0
 10
236.889568
 20
619.227048
 30
0.0
 10
236.211224
 20
619.332525
 30
0.0
 10
235.429429
 20
620.114320
 30
0.0
 10
235.323952
 20
620.792664
 30
0.0
 10
235.270360
 20
621.137328
 30
0.0
 11
237.234232
 21
619.173456
 31
0.0
 11
236.241532
 21
619.440834
 31
0.0
 11
235.537738
 21
620.144627
 31
0.0
 11
235.270360
 21
621.137328
 31
0.0
  0
LWPOLYLINE
  5
11e
100
AcDbEntity
  8
Layer_1
 62
7
100
AcDbPolyline
 90
2
 70
1
 10
235.270360
 20
621.137328
 30
0.0
 10
235.270360
 20
663.694528
 30
0.0
  0
LWPOLYLINE
  5
11f
100
AcDbEntity
  8
Layer_1
 62
7
100
AcDbPolyline
 90
2
 70
1
 10
237.234232
 20
665.658400
 30
0.0
 10
237.234232
 20
665.658400
 30
0.0
  0
SPLINE
  5
120
100
AcDbEntity
  8
Layer_1
 62
7
100
AcDbSpline
 70
0
 71
3
 72
10
 73
6
 74
4
 40
0.000000
 40
0.000000
 40
0.000000
 40
0.000000
 40
1.028078
 40
2.023393
 40
3.051471
 40
3.051471
 40
3.051471
 40
3.051471
 10
235.270360
 20
663.694528
 30
0.0
 10
235.323952
 20
664.039192
 30
0.0
 10
235.429429
 20
664.717536
 30
0.0
 10
236.211224
 20
665.499331
 30
0.0
 10
236.889568
 20
665.604807
 30
0.0
 10
237.234232
 20
665.658400
 30
0.0
 11
235.270360
 21
663.694528
 31
0.0
 11
235.537738
 21
664.687228
 31
0.0
 11
236.241532
 21
665.391022
 31
0.0
 11
237.234232
 21
665.658400
 31
0.0
  0
LWPOLYLINE
  5
121
100
AcDbEntity
  8
Layer_1
 62
3
100
AcDbPolyline
 90
2
 70
1
 10
292.272512
 20
659.584496
 30
0.0
 10
301.578824
 20
659.584496
 30
0.0
  0
SPLINE
  5
122
100
AcDbEntity
  8
Layer_1
 62
3
100
AcDbSpline
 70
0
 71
3
 72
10
 73
6
 74
4
 40
0.000000
 40
0.000000
 40
0.000000
 40
0.000000
 40
0.440962
 40
0.867872
 40
1.308838
 40
1.308838
 40
1.308838
 40
1.308838
 10
301.578824
 20
659.584496
 30
0.0
 10
301.726657
 20
659.561509
 30
0.0
 10
302.017612
 20
659.516269
 30
0.0
 10
302.352940
 20
659.180943
 30
0.0
 10
302.398181
 20
658.889986
 30
0.0
 10
302.421168
 20
658.742152
 30
0.0
 11
301.578824
 21
659.584496
 31
0.0
 11
302.004612
 21
659.469814
 31
0.0
 11
302.306484
 21
659.167944
 31
0.0
 11
302.421168
 21
658.742152
 31
0.0
  0
LWPOLYLINE
  5
123
100
AcDbEntity
  8
Layer_1
 62
3
100
AcDbPolyline
 90
2
 70
1
 10
302.421168
 20
658.742152
 30
0.0
 10
302.421168
 20
642.033752
 30
0.0
  0
SPLINE
  5
124
100
AcDbEntity
  8
Layer_1
 62
3
100
AcDbSpline
 70
0
 71
3
 72
10
 73
6
 74
4
 40
0.000000
 40
0.000000
 40
0.000000
 40
0.000000
 40
0.440963
 40
0.867874
 40
1.308836
 40
1.308836
 40
1.308836
 40
1.308836
 10
302.421168
 20
642.033752
 30
0.0
 10
302.398181
 20
641.885919
 30
0.0
 10
302.352939
 20
641.594964
 30
0.0
 10
302.017612
 20
641.259637
 30
0.0
 10
301.726657
 20
641.214395
 30
0.0
 10
301.578824
 20
641.191408
 30
0.0
 11
302.421168
 21
642.033752
 31
0.0
 11
302.306484
 21
641.607964
 31
0.0
 11
302.004612
 21
641.306092
 31
0.0
 11
301.578824
 21
641.191408
 31
0.0
  0
LWPOLYLINE
  5
125
100
AcDbEntity
  8
Layer_1
 62
3
100
AcDbPolyline
 90
2
 70
1
 10
301.578824
 20
641.191408
 30
0.0
 10
292.272512
 20
641.191408
 30
0.0
  0
SPLINE
  5
126
100
AcDbEntity
  8
Layer_1
 62
3
100
AcDbSpline
 70
0
 71
3
 72
10
 73
6
 74
4
 40
0.000000
 40
0.000000
 40
0.000000
 40
0.000000
 40
0.440962
 40
0.867872
 40
1.308838
 40
1.308838
 40
1.308838
 40
1.308838
 10
292.272512
 20
641.191408
 30
0.0
 10
292.124679
 20
641.214394
 30
0.0
 10
291.833724
 20
641.259635
 30
0.0
 10
291.498396
 20
641.594961
 30
0.0
 10
291.453155
 20
641.885918
 30
0.0
 10
291.430168
 20
642.033752
 30
0.0
 11
292.272512
 21
641.191408
 31
0.0
 11
291.846724
 21
641.306090
 31
0.0
 11
291.544852
 21
641.607960
 31
0.0
 11
291.430168
 21
642.033752
 31
0.0
  0
LWPOLYLINE
  5
127
100
AcDbEntity
  8
Layer_1
 62
3
100
AcDbPolyline
 90
2
 70
1
 10
291.430168
 20
642.033752
 30
0.0
 10
291.430168
 20
658.742152
 30
0.0
  0
LWPOLYLINE
  5
128
100
AcDbEntity
  8
Layer_1
 62
3
100
AcDbPolyline
 90
2
 70
1
 10
292.272512
 20
659.584496
 30
0.0
 10
292.272512
 20
659.584496
 30
0.0
  0
LWPOLYLINE
  5
129
100
AcDbEntity
  8
Layer_1
 62
3
100
AcDbPolyline
 90
10
 70
1
 10
238.046736
 20
653.974328
 30
0.0
 10
238.046736
 20
638.503880
 30
0.0
 10
249.263784
 20
638.503880
 30
0.0
 10
249.263784
 20
625.263872
 30
0.0
 10
259.132200
 20
625.263872
 30
0.0
 10
259.132200
 20
653.974328
 30
0.0
 10
258.911744
 20
653.974328
 30
0.0
 10
249.263784
 20
653.974328
 30
0.0
 10
238.046736
 20
653.974328
 30
0.0
 10
238.046736
 20
653.974328
 30
0.0
  0
LWPOLYLINE
  5
12a
100
AcDbEntity
  8
Layer_1
 62
3
100
AcDbPolyline
 90
2
 70
0
 10
238.045336
 20
646.574752
 30
0.0
 10
259.017440
 20
646.685400
 30
0.0
  0
LWPOLYLINE
  5
12b
100
AcDbEntity
  8
Layer_1
 62
3
100
AcDbPolyline
 90
2
 70
0
 10
249.203808
 20
638.556560
 30
0.0
 10
249.149008
 20
654.145328
 30
0.0
  0
LWPOLYLINE
  5
12c
100
AcDbEntity
  8
Layer_1
 62
3
100
AcDbPolyline
 90
5
 70
1
 10
238.545240
 20
653.092032
 30
0.0
 10
248.550760
 20
653.092032
 30
0.0
 10
248.550760
 20
647.323080
 30
0.0
 10
238.545240
 20
647.323080
 30
0.0
 10
238.545240
 20
653.092032
 30
0.0
  0
LWPOLYLINE
  5
12d
100
AcDbEntity
  8
Layer_1
 62
3
100
AcDbPolyline
 90
5
 70
1
 10
238.635376
 20
645.790704
 30
0.0
 10
248.550760
 20
645.790704
 30
0.0
 10
248.550760
 20
639.210496
 30
0.0
 10
238.635376
 20
639.210496
 30
0.0
 10
238.635376
 20
645.790704
 30
0.0
  0
LWPOLYLINE
  5
12e
100
AcDbEntity
  8
Layer_1
 62
3
100
AcDbPolyline
 90
5
 70
1
 10
249.722576
 20
653.092032
 30
0.0
 10
258.556280
 20
653.092032
 30
0.0
 10
258.556280
 20
647.413216
 30
0.0
 10
249.722576
 20
647.413216
 30
0.0
 10
249.722576
 20
653.092032
 30
0.0
  0
LWPOLYLINE
  5
12f
100
AcDbEntity
  8
Layer_1
 62
3
100
AcDbPolyline
 90
5
 70
1
 10
291.908016
 20
658.860976
 30
0.0
 10
301.913536
 20
658.860976
 30
0.0
 10
301.913536
 20
656.246912
 30
0.0
 10
291.908016
 20
656.246912
 30
0.0
 10
291.908016
 20
658.860976
 30
0.0
  0
LWPOLYLINE
  5
130
100
AcDbEntity
  8
Layer_1
 62
3
100
AcDbPolyline
 90
5
 70
1
 10
291.917168
 20
655.264528
 30
0.0
 10
301.922688
 20
655.264528
 30
0.0
 10
301.922688
 20
652.650480
 30
0.0
 10
291.917168
 20
652.650480
 30
0.0
 10
291.917168
 20
655.264528
 30
0.0
  0
LWPOLYLINE
  5
131
100
AcDbEntity
  8
Layer_1
 62
3
100
AcDbPolyline
 90
5
 70
1
 10
291.962096
 20
651.481712
 30
0.0
 10
301.967624
 20
651.481712
 30
0.0
 10
301.967624
 20
648.867664
 30
0.0
 10
291.962096
 20
648.867664
 30
0.0
 10
291.962096
 20
651.481712
 30
0.0
  0
LWPOLYLINE
  5
132
100
AcDbEntity
  8
Layer_1
 62
3
100
AcDbPolyline
 90
5
 70
1
 10
291.962096
 20
647.890872
 30
0.0
 10
301.967624
 20
647.890872
 30
0.0
 10
301.967624
 20
645.276816
 30
0.0
 10
291.962096
 20
645.276816
 30
0.0
 10
291.962096
 20
647.890872
 30
0.0
  0
LWPOLYLINE
  5
133
100
AcDbEntity
  8
Layer_1
 62
3
100
AcDbPolyline
 90
5
 70
1
 10
291.962096
 20
644.551384
 30
0.0
 10
301.967624
 20
644.551384
 30
0.0
 10
301.967624
 20
641.937336
 30
0.0
 10
291.962096
 20
641.937336
 30
0.0
 10
291.962096
 20
644.551384
 30
0.0
  0
SPLINE
  5
134
100
AcDbEntity
  8
Layer_1
 62
3
100
AcDbSpline
 70
0
 71
3
 72
10
 73
6
 74
4
 40
0.000000
 40
0.000000
 40
0.000000
 40
0.000000
 40
0.440966
 40
0.867876
 40
1.308838
 40
1.308838
 40
1.308838
 40
1.308838
 10
291.430168
 20
658.742152
 30
0.0
 10
291.453155
 20
658.889986
 30
0.0
 10
291.498396
 20
659.180943
 30
0.0
 10
291.833724
 20
659.516269
 30
0.0
 10
292.124679
 20
659.561509
 30
0.0
 10
292.272512
 20
659.584496
 30
0.0
 11
291.430168
 21
658.742152
 31
0.0
 11
291.544852
 21
659.167944
 31
0.0
 11
291.846724
 21
659.469814
 31
0.0
 11
292.272512
 21
659.584496
 31
0.0
  0
LWPOLYLINE
  5
135
100
AcDbEntity
  8
Layer_1
 62
7
100
AcDbPolyline
 90
2
 70
1
 10
309.210960
 20
715.165968
 30
0.0
 10
237.992120
 20
715.165968
 30
0.0
  0
SPLINE
  5
136
100
AcDbEntity
  8
Layer_1
 62
7
100
AcDbSpline
 70
0
 71
3
 72
10
 73
6
 74
4
 40
0.000000
 40
0.000000
 40
0.000000
 40
0.000000
 40
1.028078
 40
2.023393
 40
3.051471
 40
3.051471
 40
3.051471
 40
3.051471
 10
237.992120
 20
715.165968
 30
0.0
 10
237.647456
 20
715.112375
 30
0.0
 10
236.969112
 20
715.006899
 30
0.0
 10
236.187317
 20
714.225104
 30
0.0
 10
236.081840
 20
713.546760
 30
0.0
 10
236.028248
 20
713.202096
 30
0.0
 11
237.992120
 21
715.165968
 31
0.0
 11
236.999420
 21
714.898590
 31
0.0
 11
236.295626
 21
714.194796
 31
0.0
 11
236.028248
 21
713.202096
 31
0.0
  0
LWPOLYLINE
  5
137
100
AcDbEntity
  8
Layer_1
 62
7
100
AcDbPolyline
 90
2
 70
1
 10
236.028248
 20
713.202096
 30
0.0
 10
236.028248
 20
670.644888
 30
0.0
  0
SPLINE
  5
138
100
AcDbEntity
  8
Layer_1
 62
7
100
AcDbSpline
 70
0
 71
3
 72
10
 73
6
 74
4
 40
0.000000
 40
0.000000
 40
0.000000
 40
0.000000
 40
1.028075
 40
2.023391
 40
3.051470
 40
3.051470
 40
3.051470
 40
3.051470
 10
236.028248
 20
670.644888
 30
0.0
 10
236.081841
 20
670.300225
 30
0.0
 10
236.187319
 20
669.621882
 30
0.0
 10
236.969111
 20
668.840087
 30
0.0
 10
237.647456
 20
668.734609
 30
0.0
 10
237.992120
 20
668.681016
 30
0.0
 11
236.028248
 21
670.644888
 31
0.0
 11
236.295626
 21
669.652191
 31
0.0
 11
236.999420
 21
668.948395
 31
0.0
 11
237.992120
 21
668.681016
 31
0.0
  0
LWPOLYLINE
  5
139
100
AcDbEntity
  8
Layer_1
 62
7
100
AcDbPolyline
 90
2
 70
1
 10
237.992120
 20
668.681016
 30
0.0
 10
309.210960
 20
668.681016
 30
0.0
  0
SPLINE
  5
13a
100
AcDbEntity
  8
Layer_1
 62
7
100
AcDbSpline
 70
0
 71
3
 72
10
 73
6
 74
4
 40
0.000000
 40
0.000000
 40
0.000000
 40
0.000000
 40
1.028079
 40
2.023395
 40
3.051470
 40
3.051470
 40
3.051470
 40
3.051470
 10
309.210960
 20
668.681016
 30
0.0
 10
309.555624
 20
668.734609
 30
0.0
 10
310.233969
 20
668.840087
 30
0.0
 10
311.015761
 20
669.621882
 30
0.0
 10
311.121239
 20
670.300225
 30
0.0
 10
311.174832
 20
670.644888
 30
0.0
 11
309.210960
 21
668.681016
 31
0.0
 11
310.203660
 21
668.948395
 31
0.0
 11
310.907454
 21
669.652191
 31
0.0
 11
311.174832
 21
670.644888
 31
0.0
  0
LWPOLYLINE
  5
13b
100
AcDbEntity
  8
Layer_1
 62
7
100
AcDbPolyline
 90
2
 70
1
 10
311.174832
 20
670.644888
 30
0.0
 10
311.174832
 20
713.202096
 30
0.0
  0
LWPOLYLINE
  5
13c
100
AcDbEntity
  8
Layer_1
 62
7
100
AcDbPolyline
 90
2
 70
1
 10
309.210960
 20
715.165968
 30
0.0
 10
309.210960
 20
715.165968
 30
0.0
  0
SPLINE
  5
13d
100
AcDbEntity
  8
Layer_1
 62
7
100
AcDbSpline
 70
0
 71
3
 72
10
 73
6
 74
4
 40
0.000000
 40
0.000000
 40
0.000000
 40
0.000000
 40
1.028078
 40
2.023393
 40
3.051471
 40
3.051471
 40
3.051471
 40
3.051471
 10
311.174832
 20
713.202096
 30
0.0
 10
311.121240
 20
713.546760
 30
0.0
 10
311.015763
 20
714.225104
 30
0.0
 10
310.233968
 20
715.006899
 30
0.0
 10
309.555624
 20
715.112375
 30
0.0
 10
309.210960
 20
715.165968
 30
0.0
 11
311.174832
 21
713.202096
 31
0.0
 11
310.907454
 21
714.194796
 31
0.0
 11
310.203660
 21
714.898590
 31
0.0
 11
309.210960
 21
715.165968
 31
0.0
  0
LWPOLYLINE
  5
13e
100
AcDbEntity
  8
Layer_1
 62
3
100
AcDbPolyline
 90
2
 70
1
 10
254.172672
 20
709.092064
 30
0.0
 10
244.866368
 20
709.092064
 30
0.0
  0
SPLINE
  5
13f
100
AcDbEntity
  8
Layer_1
 62
3
100
AcDbSpline
 70
0
 71
3
 72
10
 73
6
 74
4
 40
0.000000
 40
0.000000
 40
0.000000
 40
0.000000
 40
0.440963
 40
0.867874
 40
1.308836
 40
1.308836
 40
1.308836
 40
1.308836
 10
244.866368
 20
709.092064
 30
0.0
 10
244.718535
 20
709.069077
 30
0.0
 10
244.427580
 20
709.023835
 30
0.0
 10
244.092253
 20
708.688508
 30
0.0
 10
244.047011
 20
708.397553
 30
0.0
 10
244.024024
 20
708.249720
 30
0.0
 11
244.866368
 21
709.092064
 31
0.0
 11
244.440580
 21
708.977380
 31
0.0
 11
244.138708
 21
708.675508
 31
0.0
 11
244.024024
 21
708.249720
 31
0.0
  0
LWPOLYLINE
  5
140
100
AcDbEntity
  8
Layer_1
 62
3
100
AcDbPolyline
 90
2
 70
1
 10
244.024024
 20
708.249720
 30
0.0
 10
244.024024
 20
691.541320
 30
0.0
  0
SPLINE
  5
141
100
AcDbEntity
  8
Layer_1
 62
3
100
AcDbSpline
 70
0
 71
3
 72
10
 73
6
 74
4
 40
0.000000
 40
0.000000
 40
0.000000
 40
0.000000
 40
0.440966
 40
0.867876
 40
1.308838
 40
1.308838
 40
1.308838
 40
1.308838
 10
244.024024
 20
691.541320
 30
0.0
 10
244.047011
 20
691.393486
 30
0.0
 10
244.092252
 20
691.102529
 30
0.0
 10
244.427580
 20
690.767203
 30
0.0
 10
244.718535
 20
690.721962
 30
0.0
 10
244.866368
 20
690.698976
 30
0.0
 11
244.024024
 21
691.541320
 31
0.0
 11
244.138708
 21
691.115528
 31
0.0
 11
244.440580
 21
690.813658
 31
0.0
 11
244.866368
 21
690.698976
 31
0.0
  0
LWPOLYLINE
  5
142
100
AcDbEntity
  8
Layer_1
 62
3
100
AcDbPolyline
 90
2
 70
1
 10
244.866368
 20
690.698976
 30
0.0
 10
254.172672
 20
690.698976
 30
0.0
  0
SPLINE
  5
143
100
AcDbEntity
  8
Layer_1
 62
3
100
AcDbSpline
 70
0
 71
3
 72
10
 73
6
 74
4
 40
0.000000
 40
0.000000
 40
0.000000
 40
0.000000
 40
0.440966
 40
0.867874
 40
1.308840
 40
1.308840
 40
1.308840
 40
1.308840
 10
254.172672
 20
690.698976
 30
0.0
 10
254.320506
 20
690.721962
 30
0.0
 10
254.611462
 20
690.767202
 30
0.0
 10
254.946790
 20
691.102530
 30
0.0
 10
254.992030
 20
691.393486
 30
0.0
 10
255.015016
 20
691.541320
 30
0.0
 11
254.172672
 21
690.698976
 31
0.0
 11
254.598464
 21
690.813658
 31
0.0
 11
254.900334
 21
691.115528
 31
0.0
 11
255.015016
 21
691.541320
 31
0.0
  0
LWPOLYLINE
  5
144
100
AcDbEntity
  8
Layer_1
 62
3
100
AcDbPolyline
 90
2
 70
1
 10
255.015016
 20
691.541320
 30
0.0
 10
255.015016
 20
708.249720
 30
0.0
  0
LWPOLYLINE
  5
145
100
AcDbEntity
  8
Layer_1
 62
3
100
AcDbPolyline
 90
2
 70
1
 10
254.172672
 20
709.092064
 30
0.0
 10
254.172672
 20
709.092064
 30
0.0
  0
LWPOLYLINE
  5
146
100
AcDbEntity
  8
Layer_1
 62
3
100
AcDbPolyline
 90
10
 70
1
 10
308.398456
 20
703.481896
 30
0.0
 10
308.398456
 20
688.011448
 30
0.0
 10
297.181408
 20
688.011448
 30
0.0
 10
297.181408
 20
674.771440
 30
0.0
 10
287.312992
 20
674.771440
 30
0.0
 10
287.312992
 20
703.481896
 30
0.0
 10
287.533448
 20
703.481896
 30
0.0
 10
297.181408
 20
703.481896
 30
0.0
 10
308.398456
 20
703.481896
 30
0.0
 10
308.398456
 20
703.481896
 30
0.0
  0
LWPOLYLINE
  5
147
100
AcDbEntity
  8
Layer_1
 62
3
100
AcDbPolyline
 90
2
 70
0
 10
308.399856
 20
696.082312
 30
0.0
 10
287.427752
 20
696.192968
 30
0.0
  0
LWPOLYLINE
  5
148
100
AcDbEntity
  8
Layer_1
 62
3
100
AcDbPolyline
 90
2
 70
0
 10
297.241384
 20
688.064128
 30
0.0
 10
297.296184
 20
703.652896
 30
0.0
  0
LWPOLYLINE
  5
149
100
AcDbEntity
  8
Layer_1
 62
3
100
AcDbPolyline
 90
5
 70
1
 10
307.899952
 20
702.599600
 30
0.0
 10
297.894432
 20
702.599600
 30
0.0
 10
297.894432
 20
696.830648
 30
0.0
 10
307.899952
 20
696.830648
 30
0.0
 10
307.899952
 20
702.599600
 30
0.0
  0
LWPOLYLINE
  5
14a
100
AcDbEntity
  8
Layer_1
 62
3
100
AcDbPolyline
 90
5
 70
1
 10
307.809816
 20
695.298264
 30
0.0
 10
297.894432
 20
695.298264
 30
0.0
 10
297.894432
 20
688.718056
 30
0.0
 10
307.809816
 20
688.718056
 30
0.0
 10
307.809816
 20
695.298264
 30
0.0
  0
LWPOLYLINE
  5
14b
100
AcDbEntity
  8
Layer_1
 62
3
100
AcDbPolyline
 90
5
 70
1
 10
296.722616
 20
702.599600
 30
0.0
 10
287.888912
 20
702.599600
 30
0.0
 10
287.888912
 20
696.920784
 30
0.0
 10
296.722616
 20
696.920784
 30
0.0
 10
296.722616
 20
702.599600
 30
0.0
  0
LWPOLYLINE
  5
14c
100
AcDbEntity
  8
Layer_1
 62
3
100
AcDbPolyline
 90
5
 70
1
 10
254.537176
 20
708.368544
 30
0.0
 10
244.531656
 20
708.368544
 30
0.0
 10
244.531656
 20
705.754488
 30
0.0
 10
254.537176
 20
705.754488
 30
0.0
 10
254.537176
 20
708.368544
 30
0.0
  0
LWPOLYLINE
  5
14d
100
AcDbEntity
  8
Layer_1
 62
3
100
AcDbPolyline
 90
5
 70
1
 10
254.528016
 20
704.772104
 30
0.0
 10
244.522504
 20
704.772104
 30
0.0
 10
244.522504
 20
702.158048
 30
0.0
 10
254.528016
 20
702.158048
 30
0.0
 10
254.528016
 20
704.772104
 30
0.0
  0
LWPOLYLINE
  5
14e
100
AcDbEntity
  8
Layer_1
 62
3
100
AcDbPolyline
 90
5
 70
1
 10
254.483088
 20
700.989288
 30
0.0
 10
244.477568
 20
700.989288
 30
0.0
 10
244.477568
 20
698.375232
 30
0.0
 10
254.483088
 20
698.375232
 30
0.0
 10
254.483088
 20
700.989288
 30
0.0
  0
LWPOLYLINE
  5
14f
100
AcDbEntity
  8
Layer_1
 62
3
100
AcDbPolyline
 90
5
 70
1
 10
254.483088
 20
697.398440
 30
0.0
 10
244.477568
 20
697.398440
 30
0.0
 10
244.477568
 20
694.784384
 30
0.0
 10
254.483088
 20
694.784384
 30
0.0
 10
254.483088
 20
697.398440
 30
0.0
  0
SPLINE
  5
150
100
AcDbEntity
  8
Layer_1
 62
3
100
AcDbSpline
 70
0
 71
3
 72
10
 73
6
 74
4
 40
0.000000
 40
0.000000
 40
0.000000
 40
0.000000
 40
0.440962
 40
0.867872
 40
1.308838
 40
1.308838
 40
1.308838
 40
1.308838
 10
255.015016
 20
708.249720
 30
0.0
 10
254.992030
 20
708.397553
 30
0.0
 10
254.946789
 20
708.688508
 30
0.0
 10
254.611463
 20
709.023836
 30
0.0
 10
254.320506
 20
709.069077
 30
0.0
 10
254.172672
 20
709.092064
 30
0.0
 11
255.015016
 21
708.249720
 31
0.0
 11
254.900334
 21
708.675508
 31
0.0
 11
254.598464
 21
708.977380
 31
0.0
 11
254.172672
 21
709.092064
 31
0.0
  0
LWPOLYLINE
  5
151
100
AcDbEntity
  8
Layer_1
 62
3
100
AcDbPolyline
 90
5
 70
1
 10
254.483088
 20
694.058952
 30
0.0
 10
244.477568
 20
694.058952
 30
0.0
 10
244.477568
 20
691.444904
 30
0.0
 10
254.483088
 20
691.444904
 30
0.0
 10
254.483088
 20
694.058952
 30
0.0
  0
SPLINE
  5
152
100
AcDbEntity
  8
Layer_1
 62
7
100
AcDbSpline
 70
0
 71
3
 72
10
 73
6
 74
4
 40
0.000000
 40
0.000000
 40
0.000000
 40
0.000000
 40
1.040212
 40
2.077294
 40
3.149625
 40
3.149625
 40
3.149625
 40
3.149625
 10
154.092912
 20
780.784828
 30
0.0
 10
153.745730
 20
780.738441
 30
0.0
 10
153.052410
 20
780.645808
 30
0.0
 10
152.157711
 20
779.988326
 30
0.0
 10
151.866136
 20
779.339608
 30
0.0
 10
151.717912
 20
779.009828
 30
0.0
 11
154.092912
 21
780.784828
 31
0.0
 11
153.077251
 21
780.560161
 31
0.0
 11
152.242085
 21
779.945316
 31
0.0
 11
151.717912
 21
779.009828
 31
0.0
  0
LWPOLYLINE
  5
153
100
AcDbEntity
  8
Layer_1
 62
7
100
AcDbPolyline
 90
2
 70
1
 10
151.717912
 20
779.009828
 30
0.0
 10
148.117912
 20
767.059828
 30
0.0
  0
SPLINE
  5
154
100
AcDbEntity
  8
Layer_1
 62
7
100
AcDbSpline
 70
0
 71
3
 72
10
 73
6
 74
4
 40
0.000000
 40
0.000000
 40
0.000000
 40
0.000000
 40
1.302228
 40
2.559546
 40
3.860024
 40
3.860024
 40
3.860024
 40
3.860024
 10
148.117912
 20
767.059828
 30
0.0
 10
148.055308
 20
766.622537
 30
0.0
 10
147.932260
 20
765.763037
 30
0.0
 10
148.587667
 20
764.527247
 30
0.0
 10
149.370096
 20
764.151083
 30
0.0
 10
149.767912
 20
763.959828
 30
0.0
 11
148.117912
 21
767.059828
 31
0.0
 11
148.074447
 21
765.758325
 31
0.0
 11
148.664460
 21
764.648040
 31
0.0
 11
149.767912
 21
763.959828
 31
0.0
  0
LWPOLYLINE
  5
155
100
AcDbEntity
  8
Layer_1
 62
7
100
AcDbPolyline
 90
2
 70
1
 10
149.767912
 20
763.959828
 30
0.0
 10
287.417912
 20
722.234832
 30
0.0
  0
SPLINE
  5
156
100
AcDbEntity
  8
Layer_1
 62
7
100
AcDbSpline
 70
0
 71
3
 72
10
 73
6
 74
4
 40
0.000000
 40
0.000000
 40
0.000000
 40
0.000000
 40
0.477129
 40
0.936317
 40
1.392069
 40
1.392069
 40
1.392069
 40
1.392069
 10
287.417912
 20
722.234832
 30
0.0
 10
287.573049
 20
722.197801
 30
0.0
 10
287.877490
 20
722.125131
 30
0.0
 10
288.347071
 20
722.132191
 30
0.0
 10
288.644671
 20
722.200704
 30
0.0
 10
288.792912
 20
722.234832
 30
0.0
 11
287.417912
 21
722.234832
 31
0.0
 11
287.886285
 21
722.143842
 31
0.0
 11
288.345451
 21
722.148297
 31
0.0
 11
288.792912
 21
722.234832
 31
0.0
  0
LWPOLYLINE
  5
157
100
AcDbEntity
  8
Layer_1
 62
7
100
AcDbPolyline
 90
2
 70
1
 10
288.792912
 20
722.234832
 30
0.0
 10
288.792912
 20
721.334832
 30
0.0
  0
SPLINE
  5
158
100
AcDbEntity
  8
Layer_1
 62
7
100
AcDbSpline
 70
0
 71
3
 72
10
 73
6
 74
4
 40
0.000000
 40
0.000000
 40
0.000000
 40
0.000000
 40
1.029947
 40
2.024379
 40
3.049696
 40
3.049696
 40
3.049696
 40
3.049696
 10
288.792912
 20
721.334832
 30
0.0
 10
288.845522
 20
720.989690
 30
0.0
 10
288.948929
 20
720.311307
 30
0.0
 10
289.721469
 20
719.521185
 30
0.0
 10
290.398977
 20
719.414162
 30
0.0
 10
290.742912
 20
719.359832
 30
0.0
 11
288.792912
 21
721.334832
 31
0.0
 11
289.056716
 21
720.339243
 31
0.0
 11
289.753854
 21
719.630093
 31
0.0
 11
290.742912
 21
719.359832
 31
0.0
  0
LWPOLYLINE
  5
159
100
AcDbEntity
  8
Layer_1
 62
7
100
AcDbPolyline
 90
10
 70
1
 10
290.742912
 20
719.359832
 30
0.0
 10
318.292920
 20
719.359832
 30
0.0
 10
318.292920
 20
701.359832
 30
0.0
 10
321.792920
 20
701.359832
 30
0.0
 10
321.792920
 20
693.234832
 30
0.0
 10
334.167920
 20
693.234832
 30
0.0
 10
334.167920
 20
701.359832
 30
0.0
 10
337.842920
 20
701.359832
 30
0.0
 10
337.842920
 20
719.359832
 30
0.0
 10
361.967920
 20
719.359832
 30
0.0
  0
SPLINE
  5
15a
100
AcDbEntity
  8
Layer_1
 62
7
100
AcDbSpline
 70
0
 71
3
 72
10
 73
6
 74
4
 40
0.000000
 40
0.000000
 40
0.000000
 40
0.000000
 40
1.025403
 40
2.019804
 40
3.049739
 40
3.049739
 40
3.049739
 40
3.049739
 10
361.967920
 20
719.359832
 30
0.0
 10
362.311888
 20
719.414152
 30
0.0
 10
362.989426
 20
719.521151
 30
0.0
 10
363.761951
 20
720.311318
 30
0.0
 10
363.865326
 20
720.989691
 30
0.0
 10
363.917920
 20
721.334832
 30
0.0
 11
361.967920
 21
719.359832
 31
0.0
 11
362.957067
 21
719.630093
 31
0.0
 11
363.654160
 21
720.339243
 31
0.0
 11
363.917920
 21
721.334832
 31
0.0
  0
LWPOLYLINE
  5
15b
100
AcDbEntity
  8
Layer_1
 62
7
100
AcDbPolyline
 90
3
 70
1
 10
363.917920
 20
721.334832
 30
0.0
 10
363.917920
 20
725.284832
 30
0.0
 10
383.142920
 20
766.909828
 30
0.0
  0
SPLINE
  5
15c
100
AcDbEntity
  8
Layer_1
 62
7
100
AcDbSpline
 70
0
 71
3
 72
13
 73
9
 74
7
 40
0.000000
 40
0.000000
 40
0.000000
 40
0.000000
 40
3.990972
 40
6.763334
 40
9.649240
 40
10.626958
 40
11.575145
 40
12.494886
 40
12.494886
 40
12.494886
 40
12.494886
 10
383.142920
 20
766.909828
 30
0.0
 10
383.758606
 20
768.208437
 30
0.0
 10
384.801983
 20
770.409135
 30
0.0
 10
382.714319
 20
773.444027
 30
0.0
 10
380.395118
 20
773.890568
 30
0.0
 10
378.802046
 20
773.747502
 30
0.0
 10
377.871989
 20
773.507990
 30
0.0
 10
377.333208
 20
773.190939
 30
0.0
 10
377.067920
 20
773.034828
 30
0.0
 11
383.142920
 21
766.909828
 31
0.0
 11
384.117145
 21
770.780066
 31
0.0
 11
382.558042
 21
773.072486
 31
0.0
 11
379.767920
 21
773.809828
 31
0.0
 11
378.794373
 21
773.719604
 31
0.0
 11
377.881173
 21
773.464412
 31
0.0
 11
377.067920
 21
773.034828
 31
0.0
  0
LWPOLYLINE
  5
15d
100
AcDbEntity
  8
Layer_1
 62
7
100
AcDbPolyline
 90
3
 70
1
 10
377.067920
 20
773.034828
 30
0.0
 10
363.917920
 20
763.834828
 30
0.0
 10
363.917920
 20
763.884828
 30
0.0
  0
SPLINE
  5
15e
100
AcDbEntity
  8
Layer_1
 62
7
100
AcDbSpline
 70
0
 71
3
 72
10
 73
6
 74
4
 40
0.000000
 40
0.000000
 40
0.000000
 40
0.000000
 40
1.023671
 40
2.009524
 40
3.033238
 40
3.033238
 40
3.033238
 40
3.033238
 10
363.917920
 20
763.884828
 30
0.0
 10
363.865684
 20
764.228298
 30
0.0
 10
363.763141
 20
764.902548
 30
0.0
 10
362.985672
 20
765.680042
 30
0.0
 10
362.311405
 20
765.782589
 30
0.0
 10
361.967920
 20
765.834828
 30
0.0
 11
363.917920
 21
763.884828
 31
0.0
 11
363.654160
 21
764.873935
 31
0.0
 11
362.957067
 21
765.571048
 31
0.0
 11
361.967920
 21
765.834828
 31
0.0
  0
LWPOLYLINE
  5
15f
100
AcDbEntity
  8
Layer_1
 62
7
100
AcDbPolyline
 90
2
 70
1
 10
361.967920
 20
765.834828
 30
0.0
 10
290.742912
 20
765.834828
 30
0.0
  0
SPLINE
  5
160
100
AcDbEntity
  8
Layer_1
 62
7
100
AcDbSpline
 70
0
 71
3
 72
10
 73
6
 74
4
 40
0.000000
 40
0.000000
 40
0.000000
 40
0.000000
 40
1.023628
 40
2.009512
 40
3.033195
 40
3.033195
 40
3.033195
 40
3.033195
 10
290.742912
 20
765.834828
 30
0.0
 10
290.399461
 20
765.782579
 30
0.0
 10
289.725222
 20
765.680009
 30
0.0
 10
288.947739
 20
764.902559
 30
0.0
 10
288.845164
 20
764.228299
 30
0.0
 10
288.792912
 20
763.884828
 30
0.0
 11
290.742912
 21
765.834828
 31
0.0
 11
289.753854
 21
765.571048
 31
0.0
 11
289.056716
 21
764.873935
 31
0.0
 11
288.792912
 21
763.884828
 31
0.0
  0
LWPOLYLINE
  5
161
100
AcDbEntity
  8
Layer_1
 62
7
100
AcDbPolyline
 90
3
 70
1
 10
288.792912
 20
763.884828
 30
0.0
 10
288.792912
 20
740.059824
 30
0.0
 10
163.317912
 20
778.109828
 30
0.0
  0
SPLINE
  5
162
100
AcDbEntity
  8
Layer_1
 62
7
100
AcDbSpline
 70
0
 71
3
 72
10
 73
6
 74
4
 40
0.000000
 40
0.000000
 40
0.000000
 40
0.000000
 40
0.653125
 40
1.311818
 40
1.975442
 40
1.975442
 40
1.975442
 40
1.975442
 10
163.317912
 20
778.109828
 30
0.0
 10
163.216097
 20
777.915897
 30
0.0
 10
163.011600
 20
777.526383
 30
0.0
 10
162.483968
 20
777.092454
 30
0.0
 10
162.057128
 20
776.970854
 30
0.0
 10
161.842912
 20
776.909828
 30
0.0
 11
163.317912
 21
778.109828
 31
0.0
 11
162.976306
 21
777.553161
 31
0.0
 11
162.467008
 21
777.135439
 31
0.0
 11
161.842912
 21
776.909828
 31
0.0
  0
LWPOLYLINE
  5
163
100
AcDbEntity
  8
Layer_1
 62
7
100
AcDbPolyline
 90
4
 70
1
 10
161.842912
 20
776.909828
 30
0.0
 10
161.842912
 20
769.184828
 30
0.0
 10
160.917912
 20
769.184828
 30
0.0
 10
160.917912
 20
777.009828
 30
0.0
  0
SPLINE
  5
164
100
AcDbEntity
  8
Layer_1
 62
7
100
AcDbSpline
 70
0
 71
3
 72
13
 73
9
 74
7
 40
0.000000
 40
0.000000
 40
0.000000
 40
0.000000
 40
0.767198
 40
1.526797
 40
2.315888
 40
2.459566
 40
2.604328
 40
2.744538
 40
2.744538
 40
2.744538
 40
2.744538
 10
160.917912
 20
777.009828
 30
0.0
 10
160.684575
 20
777.122709
 30
0.0
 10
160.220213
 20
777.347353
 30
0.0
 10
159.755321
 20
778.001982
 30
0.0
 10
159.631042
 20
778.569838
 30
0.0
 10
159.647579
 20
778.928855
 30
0.0
 10
159.664761
 20
779.070886
 30
0.0
 10
159.683629
 20
779.164010
 30
0.0
 10
159.692912
 20
779.209828
 30
0.0
 11
160.917912
 21
777.009828
 31
0.0
 11
160.257764
 21
777.400721
 31
0.0
 11
159.808671
 21
778.013343
 31
0.0
 11
159.642912
 21
778.784828
 31
0.0
 11
159.649333
 21
778.928362
 31
0.0
 11
159.666865
 21
779.072059
 31
0.0
 11
159.692912
 21
779.209828
 31
0.0
  0
LWPOLYLINE
  5
165
100
AcDbEntity
  8
Layer_1
 62
7
100
AcDbPolyline
 90
2
 70
1
 10
159.692912
 20
779.209828
 30
0.0
 10
154.842912
 20
780.659828
 30
0.0
  0
LWPOLYLINE
  5
166
100
AcDbEntity
  8
Layer_1
 62
7
100
AcDbPolyline
 90
2
 70
1
 10
154.092912
 20
780.784828
 30
0.0
 10
154.092912
 20
780.784828
 30
0.0
  0
SPLINE
  5
167
100
AcDbEntity
  8
Layer_1
 62
7
100
AcDbSpline
 70
0
 71
3
 72
10
 73
6
 74
4
 40
0.000000
 40
0.000000
 40
0.000000
 40
0.000000
 40
0.258561
 40
0.513973
 40
0.762835
 40
0.762835
 40
0.762835
 40
0.762835
 10
154.842912
 20
780.659828
 30
0.0
 10
154.759936
 20
780.683148
 30
0.0
 10
154.594996
 20
780.729505
 30
0.0
 10
154.344054
 20
780.775580
 30
0.0
 10
154.175898
 20
780.781772
 30
0.0
 10
154.092912
 20
780.784828
 30
0.0
 11
154.842912
 21
780.659828
 31
0.0
 11
154.592939
 21
780.725914
 31
0.0
 11
154.341317
 21
780.769750
 31
0.0
 11
154.092912
 21
780.784828
 31
0.0
  0
LWPOLYLINE
  5
168
100
AcDbEntity
  8
Layer_1
 62
7
100
AcDbPolyline
 90
2
 70
1
 10
363.917920
 20
752.709824
 30
0.0
 10
369.967920
 20
748.159824
 30
0.0
  0
LWPOLYLINE
  5
169
100
AcDbEntity
  8
Layer_1
 62
7
100
AcDbPolyline
 90
3
 70
1
 10
363.917920
 20
737.259824
 30
0.0
 10
363.917920
 20
752.709824
 30
0.0
 10
363.917920
 20
752.709824
 30
0.0
  0
LWPOLYLINE
  5
16a
100
AcDbEntity
  8
Layer_1
 62
7
100
AcDbPolyline
 90
4
 70
1
 10
364.759640
 20
756.546820
 30
0.0
 10
371.086456
 20
751.522576
 30
0.0
 10
376.296816
 20
765.478828
 30
0.0
 10
364.759640
 20
756.546820
 30
0.0
  0
LWPOLYLINE
  5
16b
100
AcDbEntity
  8
Layer_1
 62
7
100
AcDbPolyline
 90
5
 70
1
 10
343.239784
 20
714.100952
 30
0.0
 10
385.337848
 20
714.100952
 30
0.0
 10
385.337848
 20
668.915448
 30
0.0
 10
343.239784
 20
668.915448
 30
0.0
 10
343.239784
 20
714.100952
 30
0.0
  0
LWPOLYLINE
  5
16c
100
AcDbEntity
  8
Layer_1
 62
7
100
AcDbPolyline
 90
5
 70
1
 10
360.613656
 20
687.391392
 30
0.0
 10
360.613656
 20
699.489272
 30
0.0
 10
368.201176
 20
699.489272
 30
0.0
 10
368.201176
 20
687.391392
 30
0.0
 10
360.613656
 20
687.391392
 30
0.0
  0
SPLINE
  5
16d
100
AcDbEntity
  8
Layer_1
 62
7
100
AcDbSpline
 70
0
 71
3
 72
10
 73
6
 74
4
 40
0.000000
 40
0.000000
 40
0.000000
 40
0.000000
 40
1.995715
 40
6.761752
 40
12.466458
 40
12.466458
 40
12.466458
 40
12.466458
 10
369.967920
 20
748.159824
 30
0.0
 10
369.644412
 20
747.578546
 30
0.0
 10
368.548323
 20
745.609096
 30
0.0
 10
366.529600
 20
741.976902
 30
0.0
 10
364.838999
 20
738.923428
 30
0.0
 10
363.917920
 20
737.259824
 30
0.0
 11
369.967920
 21
748.159824
 31
0.0
 11
368.997496
 21
746.415934
 31
0.0
 11
366.682627
 21
742.249821
 31
0.0
 11
363.917920
 21
737.259824
 31
0.0
  0
LWPOLYLINE
  5
16e
100
AcDbEntity
  8
Layer_1
 62
2
100
AcDbPolyline
 90
5
 70
1
 10
142.731408
 20
785.584342
 30
0.0
 10
397.449256
 20
785.584342
 30
0.0
 10
397.449256
 20
601.732632
 30
0.0
 10
142.731408
 20
601.732632
 30
0.0
 10
142.731408
 20
785.584342
 30
0.0
  0
ENDSEC
  0
SECTION
  2
OBJECTS
  0
DICTIONARY
  5
C
330
0
100
AcDbDictionary
  3
ACAD_GROUP
350
D
  3
ACAD_MLINESTYLE
350
17
  0
DICTIONARY
  5
D
330
C
100
AcDbDictionary
  0
DICTIONARY
  5
1A
330
C
100
AcDbDictionary
  0
DICTIONARY
  5
17
330
C
100
AcDbDictionary
  3
STANDARD
350
18
  0
DICTIONARY
  5
19
330
C
100
AcDbDictionary
  0
ENDSEC
  0
EOF
