  0
SECTION
  2
HEADER
  9
$ACADVER
  1
AC1024
  9
$ACADMAINTVER
 70
     6
  9
$DWGCODEPAGE
  3
ANSI_1252
  9
$INSBASE
 10
0.0
 20
0.0
 30
0.0
  9
$EXTMIN
 10
1.000000000000000E+20
 20
1.000000000000000E+20
 30
1.000000000000000E+20
  9
$EXTMAX
 10
-1.000000000000000E+20
 20
-1.000000000000000E+20
 30
-1.000000000000000E+20
  9
$LIMMIN
 10
0.0
 20
0.0
  9
$LIMMAX
 10
12.0
 20
9.0
  9
$ORTHOMODE
 70
     0
  9
$REGENMODE
 70
     1
  9
$FILLMODE
 70
     1
  9
$QTEXTMODE
 70
     0
  9
$MIRRTEXT
 70
     1
  9
$LTSCALE
 40
1.0
  9
$ATTMODE
 70
     1
  9
$TEXTSIZE
 40
0.2
  9
$TRACEWID
 40
0.05
  9
$TEXTSTYLE
  7
Standard
  9
$CLAYER
  8
0
  9
$CELTYPE
  6
ByLayer
  9
$CECOLOR
 62
   256
  9
$CELTSCALE
 40
1.0
  9
$DISPSILH
 70
     0
  9
$DIMSCALE
 40
1.0
  9
$DIMASZ
 40
0.18
  9
$DIMEXO
 40
0.0625
  9
$DIMDLI
 40
0.38
  9
$DIMRND
 40
0.0
  9
$DIMDLE
 40
0.0
  9
$DIMEXE
 40
0.18
  9
$DIMTP
 40
0.0
  9
$DIMTM
 40
0.0
  9
$DIMTXT
 40
0.18
  9
$DIMCEN
 40
0.09
  9
$DIMTSZ
 40
0.0
  9
$DIMTOL
 70
     0
  9
$DIMLIM
 70
     0
  9
$DIMTIH
 70
     1
  9
$DIMTOH
 70
     1
  9
$DIMSE1
 70
     0
  9
$DIMSE2
 70
     0
  9
$DIMTAD
 70
     0
  9
$DIMZIN
 70
     0
  9
$DIMBLK
  1

  9
$DIMASO
 70
     1
  9
$DIMSHO
 70
     1
  9
$DIMPOST
  1

  9
$DIMAPOST
  1

  9
$DIMALT
 70
     0
  9
$DIMALTD
 70
     2
  9
$DIMALTF
 40
25.4
  9
$DIMLFAC
 40
1.0
  9
$DIMTOFL
 70
     0
  9
$DIMTVP
 40
0.0
  9
$DIMTIX
 70
     0
  9
$DIMSOXD
 70
     0
  9
$DIMSAH
 70
     0
  9
$DIMBLK1
  1

  9
$DIMBLK2
  1

  9
$DIMSTYLE
  2
Standard
  9
$DIMCLRD
 70
     0
  9
$DIMCLRE
 70
     0
  9
$DIMCLRT
 70
     0
  9
$DIMTFAC
 40
1.0
  9
$DIMGAP
 40
0.09
  9
$DIMJUST
 70
     0
  9
$DIMSD1
 70
     0
  9
$DIMSD2
 70
     0
  9
$DIMTOLJ
 70
     1
  9
$DIMTZIN
 70
     0
  9
$DIMALTZ
 70
     0
  9
$DIMALTTZ
 70
     0
  9
$DIMUPT
 70
     0
  9
$DIMDEC
 70
     4
  9
$DIMTDEC
 70
     4
  9
$DIMALTU
 70
     2
  9
$DIMALTTD
 70
     2
  9
$DIMTXSTY
  7
Standard
  9
$DIMAUNIT
 70
     0
  9
$DIMADEC
 70
     0
  9
$DIMALTRND
 40
0.0
  9
$DIMAZIN
 70
     0
  9
$DIMDSEP
 70
    46
  9
$DIMATFIT
 70
     3
  9
$DIMFRAC
 70
     0
  9
$DIMLDRBLK
  1

  9
$DIMLUNIT
 70
     2
  9
$DIMLWD
 70
    -2
  9
$DIMLWE
 70
    -2
  9
$DIMTMOVE
 70
     0
  9
$DIMFXL
 40
1.0
  9
$DIMFXLON
 70
     0
  9
$DIMJOGANG
 40
0.7853981633974483
  9
$DIMTFILL
 70
     0
  9
$DIMTFILLCLR
 70
     0
  9
$DIMARCSYM
 70
     0
  9
$DIMLTYPE
  6

  9
$DIMLTEX1
  6

  9
$DIMLTEX2
  6

  9
$DIMTXTDIRECTION
 70
     0
  9
$LUNITS
 70
     2
  9
$LUPREC
 70
     4
  9
$SKETCHINC
 40
0.1
  9
$FILLETRAD
 40
0.5
  9
$AUNITS
 70
     0
  9
$AUPREC
 70
     0
  9
$MENU
  1
.
  9
$ELEVATION
 40
0.0
  9
$PELEVATION
 40
0.0
  9
$THICKNESS
 40
0.0
  9
$LIMCHECK
 70
     0
  9
$CHAMFERA
 40
0.5
  9
$CHAMFERB
 40
0.5
  9
$CHAMFERC
 40
1.0
  9
$CHAMFERD
 40
0.0
  9
$SKPOLY
 70
     0
  9
$TDCREATE
 40
2457316.59831544
  9
$TDUCREATE
 40
2457316.806648773
  9
$TDUPDATE
 40
2457316.5983164
  9
$TDUUPDATE
 40
2457316.806649734
  9
$TDINDWG
 40
0.0000000116
  9
$TDUSRTIMER
 40
0.0000000116
  9
$USRTIMER
 70
     1
  9
$ANGBASE
 50
0.0
  9
$ANGDIR
 70
     0
  9
$PDMODE
 70
     0
  9
$PDSIZE
 40
0.0
  9
$PLINEWID
 40
0.0
  9
$SPLFRAME
 70
     0
  9
$SPLINETYPE
 70
     6
  9
$SPLINESEGS
 70
     8
  9
$HANDSEED
  5
6CE
  9
$SURFTAB1
 70
     6
  9
$SURFTAB2
 70
     6
  9
$SURFTYPE
 70
     6
  9
$SURFU
 70
     6
  9
$SURFV
 70
     6
  9
$UCSBASE
  2

  9
$UCSNAME
  2

  9
$UCSORG
 10
0.0
 20
0.0
 30
0.0
  9
$UCSXDIR
 10
1.0
 20
0.0
 30
0.0
  9
$UCSYDIR
 10
0.0
 20
1.0
 30
0.0
  9
$UCSORTHOREF
  2

  9
$UCSORTHOVIEW
 70
     0
  9
$UCSORGTOP
 10
0.0
 20
0.0
 30
0.0
  9
$UCSORGBOTTOM
 10
0.0
 20
0.0
 30
0.0
  9
$UCSORGLEFT
 10
0.0
 20
0.0
 30
0.0
  9
$UCSORGRIGHT
 10
0.0
 20
0.0
 30
0.0
  9
$UCSORGFRONT
 10
0.0
 20
0.0
 30
0.0
  9
$UCSORGBACK
 10
0.0
 20
0.0
 30
0.0
  9
$PUCSBASE
  2

  9
$PUCSNAME
  2

  9
$PUCSORG
 10
0.0
 20
0.0
 30
0.0
  9
$PUCSXDIR
 10
1.0
 20
0.0
 30
0.0
  9
$PUCSYDIR
 10
0.0
 20
1.0
 30
0.0
  9
$PUCSORTHOREF
  2

  9
$PUCSORTHOVIEW
 70
     0
  9
$PUCSORGTOP
 10
0.0
 20
0.0
 30
0.0
  9
$PUCSORGBOTTOM
 10
0.0
 20
0.0
 30
0.0
  9
$PUCSORGLEFT
 10
0.0
 20
0.0
 30
0.0
  9
$PUCSORGRIGHT
 10
0.0
 20
0.0
 30
0.0
  9
$PUCSORGFRONT
 10
0.0
 20
0.0
 30
0.0
  9
$PUCSORGBACK
 10
0.0
 20
0.0
 30
0.0
  9
$USERI1
 70
     0
  9
$USERI2
 70
     0
  9
$USERI3
 70
     0
  9
$USERI4
 70
     0
  9
$USERI5
 70
     0
  9
$USERR1
 40
0.0
  9
$USERR2
 40
0.0
  9
$USERR3
 40
0.0
  9
$USERR4
 40
0.0
  9
$USERR5
 40
0.0
  9
$WORLDVIEW
 70
     1
  9
$SHADEDGE
 70
     3
  9
$SHADEDIF
 70
    70
  9
$TILEMODE
 70
     1
  9
$MAXACTVP
 70
    64
  9
$PINSBASE
 10
0.0
 20
0.0
 30
0.0
  9
$PLIMCHECK
 70
     0
  9
$PEXTMIN
 10
1.000000000000000E+20
 20
1.000000000000000E+20
 30
1.000000000000000E+20
  9
$PEXTMAX
 10
-1.000000000000000E+20
 20
-1.000000000000000E+20
 30
-1.000000000000000E+20
  9
$PLIMMIN
 10
0.0
 20
0.0
  9
$PLIMMAX
 10
12.0
 20
9.0
  9
$UNITMODE
 70
     0
  9
$VISRETAIN
 70
     1
  9
$PLINEGEN
 70
     0
  9
$PSLTSCALE
 70
     1
  9
$TREEDEPTH
 70
  3020
  9
$CMLSTYLE
  2
Standard
  9
$CMLJUST
 70
     0
  9
$CMLSCALE
 40
1.0
  9
$PROXYGRAPHICS
 70
     1
  9
$MEASUREMENT
 70
     0
  9
$CELWEIGHT
370
    -1
  9
$ENDCAPS
280
     0
  9
$JOINSTYLE
280
     0
  9
$LWDISPLAY
290
     1
  9
$INSUNITS
 70
     1
  9
$HYPERLINKBASE
  1

  9
$STYLESHEET
  1

  9
$XEDIT
290
     1
  9
$CEPSNTYPE
380
     0
  9
$PSTYLEMODE
290
     1
  9
$FINGERPRINTGUID
  2
{8FF8B6B9-41F2-46DB-9B12-F08349B4C2EC}
  9
$VERSIONGUID
  2
{FAEB1C32-E019-11D5-929B-00C0DF256EC4}
  9
$EXTNAMES
290
     1
  9
$PSVPSCALE
 40
0.0
  9
$OLESTARTUP
290
     0
  9
$SORTENTS
280
   127
  9
$INDEXCTL
280
     0
  9
$HIDETEXT
280
     1
  9
$XCLIPFRAME
280
     2
  9
$HALOGAP
280
     0
  9
$OBSCOLOR
 70
   257
  9
$OBSLTYPE
280
     0
  9
$INTERSECTIONDISPLAY
280
     0
  9
$INTERSECTIONCOLOR
 70
   257
  9
$DIMASSOC
280
     2
  9
$PROJECTNAME
  1

  9
$CAMERADISPLAY
290
     0
  9
$LENSLENGTH
 40
50.0
  9
$CAMERAHEIGHT
 40
0.0
  9
$STEPSPERSEC
 40
2.0
  9
$STEPSIZE
 40
6.0
  9
$3DDWFPREC
 40
2.0
  9
$PSOLWIDTH
 40
0.25
  9
$PSOLHEIGHT
 40
4.0
  9
$LOFTANG1
 40
1.570796326794897
  9
$LOFTANG2
 40
1.570796326794897
  9
$LOFTMAG1
 40
0.0
  9
$LOFTMAG2
 40
0.0
  9
$LOFTPARAM
 70
     7
  9
$LOFTNORMALS
280
     1
  9
$LATITUDE
 40
37.795
  9
$LONGITUDE
 40
-122.394
  9
$NORTHDIRECTION
 40
0.0
  9
$TIMEZONE
 70
 -8000
  9
$LIGHTGLYPHDISPLAY
280
     1
  9
$TILEMODELIGHTSYNCH
280
     1
  9
$CMATERIAL
347
3C
  9
$SOLIDHIST
280
     1
  9
$SHOWHIST
280
     1
  9
$DWFFRAME
280
     2
  9
$DGNFRAME
280
     2
  9
$REALWORLDSCALE
290
     1
  9
$INTERFERECOLOR
 62
   256
  9
$CSHADOW
280
     0
  9
$SHADOWPLANELOCATION
 40
0.0
  0
ENDSEC
  0
SECTION
  2
CLASSES
  0
CLASS
  1
ACDBDICTIONARYWDFLT
  2
AcDbDictionaryWithDefault
  3
ObjectDBX Classes
 90
        0
 91
        4
280
     0
281
     0
  0
CLASS
  1
VISUALSTYLE
  2
AcDbVisualStyle
  3
ObjectDBX Classes
 90
     4095
 91
        4
280
     0
281
     0
  0
CLASS
  1
MATERIAL
  2
AcDbMaterial
  3
ObjectDBX Classes
 90
     1153
 91
        4
280
     0
281
     0
  0
CLASS
  1
SUN
  2
AcDbSun
  3
SCENEOE
 90
     1024
 91
        4
280
     0
281
     0
  0
ENDSEC
  0
SECTION
  2
TABLES
  0
TABLE
  2
VPORT
  5
8
330
0
100
AcDbSymbolTable
 70
     1
  0
VPORT
  5
29
330
8
100
AcDbSymbolTableRecord
100
AcDbViewportTableRecord
  2
*Active
 70
     0
 10
0.0
 20
0.0
 11
1.0
 21
1.0
 12
0.0
 22
0.0
 13
0.0
 23
0.0
 14
0.5
 24
0.5
 15
0.5
 25
0.5
 16
0.0
 26
0.0
 36
1.0
 17
67.36527932574808
 27
204.2203684251274
 37
0.0
 40
137.9777468289849
 41
1.087328662520913
 42
50.0
 43
0.0
 44
0.0
 50
0.0
 51
0.0
 71
     0
 72
   100
 73
     1
 74
     3
 75
     0
 76
     0
 77
     0
 78
     0
281
     0
 65
     1
110
0.0
120
0.0
130
0.0
111
1.0
121
0.0
131
0.0
112
0.0
122
1.0
132
0.0
 79
     0
146
0.0
 60
     3
 61
     5
292
     1
282
     1
141
0.0
142
0.0
 63
   250
361
3F
  0
ENDTAB
  0
TABLE
  2
LTYPE
  5
5
330
0
100
AcDbSymbolTable
 70
     1
  0
LTYPE
  5
14
330
5
100
AcDbSymbolTableRecord
100
AcDbLinetypeTableRecord
  2
ByBlock
 70
     0
  3

 72
    65
 73
     0
 40
0.0
  0
LTYPE
  5
15
330
5
100
AcDbSymbolTableRecord
100
AcDbLinetypeTableRecord
  2
ByLayer
 70
     0
  3

 72
    65
 73
     0
 40
0.0
  0
LTYPE
  5
16
330
5
100
AcDbSymbolTableRecord
100
AcDbLinetypeTableRecord
  2
Continuous
 70
     0
  3
Solid line
 72
    65
 73
     0
 40
0.0
  0
ENDTAB
  0
TABLE
  2
LAYER
  5
2
330
0
100
AcDbSymbolTable
 70
     2
  0
LAYER
  5
10
330
2
100
AcDbSymbolTableRecord
100
AcDbLayerTableRecord
  2
0
 70
     0
 62
     7
  6
Continuous
370
    -3
390
F
347
3E
  0
LAYER
  5
40
330
2
100
AcDbSymbolTableRecord
100
AcDbLayerTableRecord
  2
Layer 1
 70
     0
 62
     7
  6
Continuous
370
    -3
390
F
347
3E
  0
ENDTAB
  0
TABLE
  2
STYLE
  5
3
330
0
100
AcDbSymbolTable
 70
     1
  0
STYLE
  5
11
330
3
100
AcDbSymbolTableRecord
100
AcDbTextStyleTableRecord
  2
Standard
 70
     0
 40
0.0
 41
1.0
 50
0.0
 71
     0
 42
0.2
  3
txt
  4

  0
ENDTAB
  0
TABLE
  2
VIEW
  5
6
330
0
100
AcDbSymbolTable
 70
     0
  0
ENDTAB
  0
TABLE
  2
UCS
  5
7
330
0
100
AcDbSymbolTable
 70
     0
  0
ENDTAB
  0
TABLE
  2
APPID
  5
9
330
0
100
AcDbSymbolTable
 70
     1
  0
APPID
  5
12
330
9
100
AcDbSymbolTableRecord
100
AcDbRegAppTableRecord
  2
ACAD
 70
     0
  0
ENDTAB
  0
TABLE
  2
DIMSTYLE
  5
A
330
0
100
AcDbSymbolTable
 70
     1
100
AcDbDimStyleTable
  0
DIMSTYLE
105
27
330
A
100
AcDbSymbolTableRecord
100
AcDbDimStyleTableRecord
  2
Standard
 70
     0
178
     0
340
11
  0
ENDTAB
  0
TABLE
  2
BLOCK_RECORD
  5
1
330
0
100
AcDbSymbolTable
 70
     1
  0
BLOCK_RECORD
  5
1F
330
1
100
AcDbSymbolTableRecord
100
AcDbBlockTableRecord
  2
*Model_Space
340
22
 70
     0
280
     1
281
     0
  0
BLOCK_RECORD
  5
1B
330
1
100
AcDbSymbolTableRecord
100
AcDbBlockTableRecord
  2
*Paper_Space
340
1E
 70
     0
280
     1
281
     0
  0
BLOCK_RECORD
  5
23
330
1
100
AcDbSymbolTableRecord
100
AcDbBlockTableRecord
  2
*Paper_Space0
340
26
 70
     0
280
     1
281
     0
  0
ENDTAB
  0
ENDSEC
  0
SECTION
  2
BLOCKS
  0
BLOCK
  5
20
330
1F
100
AcDbEntity
  8
0
100
AcDbBlockBegin
  2
*Model_Space
 70
     0
 10
0.0
 20
0.0
 30
0.0
  3
*Model_Space
  1

  0
ENDBLK
  5
21
330
1F
100
AcDbEntity
  8
0
100
AcDbBlockEnd
  0
BLOCK
  5
1C
330
1B
100
AcDbEntity
 67
     1
  8
0
100
AcDbBlockBegin
  2
*Paper_Space
 70
     0
 10
0.0
 20
0.0
 30
0.0
  3
*Paper_Space
  1

  0
ENDBLK
  5
1D
330
1B
100
AcDbEntity
 67
     1
  8
0
100
AcDbBlockEnd
  0
BLOCK
  5
24
330
23
100
AcDbEntity
  8
0
100
AcDbBlockBegin
  2
*Paper_Space0
 70
     0
 10
0.0
 20
0.0
 30
0.0
  3
*Paper_Space0
  1

  0
ENDBLK
  5
25
330
23
100
AcDbEntity
  8
0
100
AcDbBlockEnd
  0
ENDSEC
  0
SECTION
  2
ENTITIES
  0
POLYLINE
  5
41
330
1F
100
AcDbEntity
  8
Layer 1
 62
     7
420
 16777215
370
    35
100
AcDb2dPolyline
 66
     1
 10
0.0
 20
0.0
 30
0.0
  0
VERTEX
  5
42
330
41
100
AcDbEntity
  8
Layer 1
 62
     7
420
 16777215
370
    35
100
AcDbVertex
100
AcDb2dVertex
 10
16.92897311009103
 20
254.1959561040931
 30
0.0
  0
VERTEX
  5
43
330
41
100
AcDbEntity
  8
Layer 1
 62
     7
420
 16777215
370
    35
100
AcDbVertex
100
AcDb2dVertex
 10
32.02304216210717
 20
250.5144682357214
 30
0.0
  0
VERTEX
  5
44
330
41
100
AcDbEntity
  8
Layer 1
 62
     7
420
 16777215
370
    35
100
AcDbVertex
100
AcDb2dVertex
 10
32.45254647939181
 20
250.3917571748259
 30
0.0
  0
VERTEX
  5
45
330
41
100
AcDbEntity
  8
Layer 1
 62
     7
420
 16777215
370
    35
100
AcDbVertex
100
AcDb2dVertex
 10
32.88205859875336
 20
250.3917571748259
 30
0.0
  0
VERTEX
  5
46
330
41
100
AcDbEntity
  8
Layer 1
 62
     7
420
 16777215
370
    35
100
AcDbVertex
100
AcDb2dVertex
 10
33.31156291603768
 20
250.3917571748259
 30
0.0
  0
VERTEX
  5
47
330
41
100
AcDbEntity
  8
Layer 1
 62
     7
420
 16777215
370
    35
100
AcDbVertex
100
AcDb2dVertex
 10
33.74106723332232
 20
250.4531127052749
 30
0.0
  0
VERTEX
  5
48
330
41
100
AcDbEntity
  8
Layer 1
 62
     7
420
 16777215
370
    35
100
AcDbVertex
100
AcDb2dVertex
 10
34.10921602015888
 20
250.5144682357214
 30
0.0
  0
VERTEX
  5
49
330
41
100
AcDbEntity
  8
Layer 1
 62
     7
420
 16777215
370
    35
100
AcDbVertex
100
AcDb2dVertex
 10
34.53872033744383
 20
250.6985348270641
 30
0.0
  0
VERTEX
  5
4A
330
41
100
AcDbEntity
  8
Layer 1
 62
     7
420
 16777215
370
    35
100
AcDbVertex
100
AcDb2dVertex
 10
34.90686912428039
 20
250.882617022558
 30
0.0
  0
VERTEX
  5
4B
330
41
100
AcDbEntity
  8
Layer 1
 62
     7
420
 16777215
370
    35
100
AcDbVertex
100
AcDb2dVertex
 10
35.27501791111759
 20
251.1280547485013
 30
0.0
  0
VERTEX
  5
4C
330
41
100
AcDbEntity
  8
Layer 1
 62
     7
420
 16777215
370
    35
100
AcDbVertex
100
AcDb2dVertex
 10
35.64316669795671
 20
251.3734768702897
 30
0.0
  0
VERTEX
  5
4D
330
41
100
AcDbEntity
  8
Layer 1
 62
     7
420
 16777215
370
    35
100
AcDbVertex
100
AcDb2dVertex
 10
35.94995995434454
 20
251.6802701266798
 30
0.0
  0
VERTEX
  5
4E
330
41
100
AcDbEntity
  8
Layer 1
 62
     7
420
 16777215
370
    35
100
AcDbVertex
100
AcDb2dVertex
 10
36.2567454086577
 20
252.048418913517
 30
0.0
  0
VERTEX
  5
4F
330
41
100
AcDbEntity
  8
Layer 1
 62
     7
420
 16777215
370
    35
100
AcDbVertex
100
AcDb2dVertex
 10
36.50218313460194
 20
252.477923230802
 30
0.0
  0
VERTEX
  5
50
330
41
100
AcDbEntity
  8
Layer 1
 62
     7
420
 16777215
370
    35
100
AcDbVertex
100
AcDb2dVertex
 10
36.68625752801861
 20
252.8460720176392
 30
0.0
  0
VERTEX
  5
51
330
41
100
AcDbEntity
  8
Layer 1
 62
     7
420
 16777215
370
    35
100
AcDbVertex
100
AcDb2dVertex
 10
36.80896858891349
 20
253.2755763349245
 30
0.0
  0
VERTEX
  5
52
330
41
100
AcDbEntity
  8
Layer 1
 62
     7
420
 16777215
370
    35
100
AcDbVertex
100
AcDb2dVertex
 10
36.93168745188433
 20
253.7664361826549
 30
0.0
  0
VERTEX
  5
53
330
41
100
AcDbEntity
  8
Layer 1
 62
     7
420
 16777215
370
    35
100
AcDbVertex
100
AcDb2dVertex
 10
36.99304298233274
 20
254.1959561040931
 30
0.0
  0
VERTEX
  5
54
330
41
100
AcDbEntity
  8
Layer 1
 62
     7
420
 16777215
370
    35
100
AcDbVertex
100
AcDb2dVertex
 10
37.72934055600681
 20
269.3513806865564
 30
0.0
  0
VERTEX
  5
55
330
41
100
AcDbEntity
  8
Layer 1
 62
     7
420
 16777215
370
    35
100
AcDbVertex
100
AcDb2dVertex
 10
36.87033192143785
 20
269.2286696256631
 30
0.0
  0
VERTEX
  5
56
330
41
100
AcDbEntity
  8
Layer 1
 62
     7
420
 16777215
370
    35
100
AcDbVertex
100
AcDb2dVertex
 10
36.01131548479231
 20
269.105942960615
 30
0.0
  0
VERTEX
  5
57
330
41
100
AcDbEntity
  8
Layer 1
 62
     7
420
 16777215
370
    35
100
AcDbVertex
100
AcDb2dVertex
 10
35.21366238067143
 20
268.921876369273
 30
0.0
  0
VERTEX
  5
58
330
41
100
AcDbEntity
  8
Layer 1
 62
     7
420
 16777215
370
    35
100
AcDbVertex
100
AcDb2dVertex
 10
34.35464594402556
 20
268.7377941737775
 30
0.0
  0
VERTEX
  5
59
330
41
100
AcDbEntity
  8
Layer 1
 62
     7
420
 16777215
370
    35
100
AcDbVertex
100
AcDb2dVertex
 10
33.5569928399034
 20
268.4923720519877
 30
0.0
  0
VERTEX
  5
5A
330
41
100
AcDbEntity
  8
Layer 1
 62
     7
420
 16777215
370
    35
100
AcDbVertex
100
AcDb2dVertex
 10
32.69798420533348
 20
268.2469343260457
 30
0.0
  0
VERTEX
  5
5B
330
41
100
AcDbEntity
  8
Layer 1
 62
     7
420
 16777215
370
    35
100
AcDbVertex
100
AcDb2dVertex
 10
31.90033110121261
 20
267.940141069656
 30
0.0
  0
VERTEX
  5
5C
330
41
100
AcDbEntity
  8
Layer 1
 62
     7
420
 16777215
370
    35
100
AcDbVertex
100
AcDb2dVertex
 10
31.1026701950145
 20
267.633363417419
 30
0.0
  0
VERTEX
  5
5D
330
41
100
AcDbEntity
  8
Layer 1
 62
     7
420
 16777215
370
    35
100
AcDbVertex
100
AcDb2dVertex
 10
30.36638042341638
 20
267.326570161029
 30
0.0
  0
VERTEX
  5
5E
330
41
100
AcDbEntity
  8
Layer 1
 62
     7
420
 16777215
370
    35
100
AcDbVertex
100
AcDb2dVertex
 10
29.56871951721763
 20
266.9584213741918
 30
0.0
  0
VERTEX
  5
5F
330
41
100
AcDbEntity
  8
Layer 1
 62
     7
420
 16777215
370
    35
100
AcDbVertex
100
AcDb2dVertex
 10
28.09613217194704
 20
266.2221238005174
 30
0.0
  0
VERTEX
  5
60
330
41
100
AcDbEntity
  8
Layer 1
 62
     7
420
 16777215
370
    35
100
AcDbVertex
100
AcDb2dVertex
 10
26.68489255504505
 20
265.3631151659484
 30
0.0
  0
VERTEX
  5
61
330
41
100
AcDbEntity
  8
Layer 1
 62
     7
420
 16777215
370
    35
100
AcDbVertex
100
AcDb2dVertex
 10
25.27366074022094
 20
264.3813798663314
 30
0.0
  0
VERTEX
  5
62
330
41
100
AcDbEntity
  8
Layer 1
 62
     7
420
 16777215
370
    35
100
AcDbVertex
100
AcDb2dVertex
 10
23.98513998629043
 20
263.3382890362686
 30
0.0
  0
VERTEX
  5
63
330
41
100
AcDbEntity
  8
Layer 1
 62
     7
420
 16777215
370
    35
100
AcDbVertex
100
AcDb2dVertex
 10
22.75798256488492
 20
262.2338426757566
 30
0.0
  0
VERTEX
  5
64
330
41
100
AcDbEntity
  8
Layer 1
 62
     7
420
 16777215
370
    35
100
AcDbVertex
100
AcDb2dVertex
 10
21.5921806739246
 20
261.0680407847983
 30
0.0
  0
VERTEX
  5
65
330
41
100
AcDbEntity
  8
Layer 1
 62
     7
420
 16777215
370
    35
100
AcDbVertex
100
AcDb2dVertex
 10
20.48773431341397
 20
259.8408833633921
 30
0.0
  0
VERTEX
  5
66
330
41
100
AcDbEntity
  8
Layer 1
 62
     7
420
 16777215
370
    35
100
AcDbVertex
100
AcDb2dVertex
 10
19.44465128542641
 20
258.4910148810907
 30
0.0
  0
VERTEX
  5
67
330
41
100
AcDbEntity
  8
Layer 1
 62
     7
420
 16777215
370
    35
100
AcDbVertex
100
AcDb2dVertex
 10
18.52427931833342
 20
257.1411307946368
 30
0.0
  0
VERTEX
  5
68
330
41
100
AcDbEntity
  8
Layer 1
 62
     7
420
 16777215
370
    35
100
AcDbVertex
100
AcDb2dVertex
 10
17.66526288168819
 20
255.668535647289
 30
0.0
  0
VERTEX
  5
69
330
41
100
AcDbEntity
  8
Layer 1
 62
     7
420
 16777215
370
    35
100
AcDbVertex
100
AcDb2dVertex
 10
17.29711409485099
 20
254.9322380736133
 30
0.0
  0
VERTEX
  5
6A
330
41
100
AcDbEntity
  8
Layer 1
 62
     7
420
 16777215
370
    35
100
AcDbVertex
100
AcDb2dVertex
 10
16.92897311009103
 20
254.1959561040931
 30
0.0
  0
SEQEND
  5
6B
330
41
100
AcDbEntity
  8
Layer 1
 62
     7
420
 16777215
370
    35
  0
POLYLINE
  5
6C
330
1F
100
AcDbEntity
  8
Layer 1
 62
     7
420
 16777215
370
    35
100
AcDb2dPolyline
 66
     1
 10
0.0
 20
0.0
 30
0.0
  0
VERTEX
  5
6D
330
6C
100
AcDbEntity
  8
Layer 1
 62
     7
420
 16777215
370
    35
100
AcDbVertex
100
AcDb2dVertex
 10
22.51255264101856
 20
224.2532401218493
 30
0.0
  0
VERTEX
  5
6E
330
6C
100
AcDbEntity
  8
Layer 1
 62
     7
420
 16777215
370
    35
100
AcDbVertex
100
AcDb2dVertex
 10
31.04131466456641
 20
236.5248455442162
 30
0.0
  0
VERTEX
  5
6F
330
6C
100
AcDbEntity
  8
Layer 1
 62
     7
420
 16777215
370
    35
100
AcDbVertex
100
AcDb2dVertex
 10
31.28674458843374
 20
236.8316231964528
 30
0.0
  0
VERTEX
  5
70
330
6C
100
AcDbEntity
  8
Layer 1
 62
     7
420
 16777215
370
    35
100
AcDbVertex
100
AcDb2dVertex
 10
31.4708189818517
 20
237.2611275137374
 30
0.0
  0
VERTEX
  5
71
330
6C
100
AcDbEntity
  8
Layer 1
 62
     7
420
 16777215
370
    35
100
AcDbVertex
100
AcDb2dVertex
 10
31.65489337527029
 20
237.6292763005743
 30
0.0
  0
VERTEX
  5
72
330
6C
100
AcDbEntity
  8
Layer 1
 62
     7
420
 16777215
370
    35
100
AcDbVertex
100
AcDb2dVertex
 10
31.71625670779337
 20
238.0587962220112
 30
0.0
  0
VERTEX
  5
73
330
6C
100
AcDbEntity
  8
Layer 1
 62
     7
420
 16777215
370
    35
100
AcDbVertex
100
AcDb2dVertex
 10
31.83896776868825
 20
238.4269294046962
 30
0.0
  0
VERTEX
  5
74
330
6C
100
AcDbEntity
  8
Layer 1
 62
     7
420
 16777215
370
    35
100
AcDbVertex
100
AcDb2dVertex
 10
31.83896776868825
 20
238.856449326134
 30
0.0
  0
VERTEX
  5
75
330
6C
100
AcDbEntity
  8
Layer 1
 62
     7
420
 16777215
370
    35
100
AcDbVertex
100
AcDb2dVertex
 10
31.83896776868825
 20
239.2859536434183
 30
0.0
  0
VERTEX
  5
76
330
6C
100
AcDbEntity
  8
Layer 1
 62
     7
420
 16777215
370
    35
100
AcDbVertex
100
AcDb2dVertex
 10
31.71625670779337
 20
239.7154579607026
 30
0.0
  0
VERTEX
  5
77
330
6C
100
AcDbEntity
  8
Layer 1
 62
     7
420
 16777215
370
    35
100
AcDbVertex
100
AcDb2dVertex
 10
31.59353784482189
 20
240.1449622779869
 30
0.0
  0
VERTEX
  5
78
330
6C
100
AcDbEntity
  8
Layer 1
 62
     7
420
 16777215
370
    35
100
AcDbVertex
100
AcDb2dVertex
 10
31.4708189818517
 20
240.5744665952716
 30
0.0
  0
VERTEX
  5
79
330
6C
100
AcDbEntity
  8
Layer 1
 62
     7
420
 16777215
370
    35
100
AcDbVertex
100
AcDb2dVertex
 10
31.2253890579863
 20
241.0039709125566
 30
0.0
  0
VERTEX
  5
7A
330
6C
100
AcDbEntity
  8
Layer 1
 62
     7
420
 16777215
370
    35
100
AcDbVertex
100
AcDb2dVertex
 10
30.97995913411994
 20
241.3721196993931
 30
0.0
  0
VERTEX
  5
7B
330
6C
100
AcDbEntity
  8
Layer 1
 62
     7
420
 16777215
370
    35
100
AcDbVertex
100
AcDb2dVertex
 10
30.67316587773018
 20
241.6789129557825
 30
0.0
  0
VERTEX
  5
7C
330
6C
100
AcDbEntity
  8
Layer 1
 62
     7
420
 16777215
370
    35
100
AcDbVertex
100
AcDb2dVertex
 10
30.30501709089266
 20
241.9857062121729
 30
0.0
  0
VERTEX
  5
7D
330
6C
100
AcDbEntity
  8
Layer 1
 62
     7
420
 16777215
370
    35
100
AcDbVertex
100
AcDb2dVertex
 10
29.93686830405579
 20
242.2924994685621
 30
0.0
  0
VERTEX
  5
7E
330
6C
100
AcDbEntity
  8
Layer 1
 62
     7
420
 16777215
370
    35
100
AcDbVertex
100
AcDb2dVertex
 10
29.50736398677083
 20
242.476566059905
 30
0.0
  0
VERTEX
  5
7F
330
6C
100
AcDbEntity
  8
Layer 1
 62
     7
420
 16777215
370
    35
100
AcDbVertex
100
AcDb2dVertex
 10
15.02686584338069
 20
248.0601533929091
 30
0.0
  0
VERTEX
  5
80
330
6C
100
AcDbEntity
  8
Layer 1
 62
     7
420
 16777215
370
    35
100
AcDbVertex
100
AcDb2dVertex
 10
14.78143591951561
 20
246.8943515019501
 30
0.0
  0
VERTEX
  5
81
330
6C
100
AcDbEntity
  8
Layer 1
 62
     7
420
 16777215
370
    35
100
AcDbVertex
100
AcDb2dVertex
 10
14.65872485862009
 20
245.6671784763907
 30
0.0
  0
VERTEX
  5
82
330
6C
100
AcDbEntity
  8
Layer 1
 62
     7
420
 16777215
370
    35
100
AcDbVertex
100
AcDb2dVertex
 10
14.53600599564893
 20
244.3786655245368
 30
0.0
  0
VERTEX
  5
83
330
6C
100
AcDbEntity
  8
Layer 1
 62
     7
420
 16777215
370
    35
100
AcDbVertex
100
AcDb2dVertex
 10
14.53600599564893
 20
243.1515081031316
 30
0.0
  0
VERTEX
  5
84
330
6C
100
AcDbEntity
  8
Layer 1
 62
     7
420
 16777215
370
    35
100
AcDbVertex
100
AcDb2dVertex
 10
14.59736152609605
 20
241.74026848623
 30
0.0
  0
VERTEX
  5
85
330
6C
100
AcDbEntity
  8
Layer 1
 62
     7
420
 16777215
370
    35
100
AcDbVertex
100
AcDb2dVertex
 10
14.65872485862009
 20
240.3904000039293
 30
0.0
  0
VERTEX
  5
86
330
6C
100
AcDbEntity
  8
Layer 1
 62
     7
420
 16777215
370
    35
100
AcDbVertex
100
AcDb2dVertex
 10
14.84279925203869
 20
239.040515917476
 30
0.0
  0
VERTEX
  5
87
330
6C
100
AcDbEntity
  8
Layer 1
 62
     7
420
 16777215
370
    35
100
AcDbVertex
100
AcDb2dVertex
 10
15.08822917590505
 20
237.690647435175
 30
0.0
  0
VERTEX
  5
88
330
6C
100
AcDbEntity
  8
Layer 1
 62
     7
420
 16777215
370
    35
100
AcDbVertex
100
AcDb2dVertex
 10
15.39501463021725
 20
236.4021188791679
 30
0.0
  0
VERTEX
  5
89
330
6C
100
AcDbEntity
  8
Layer 1
 62
     7
420
 16777215
370
    35
100
AcDbVertex
100
AcDb2dVertex
 10
15.76316341705605
 20
235.174961457762
 30
0.0
  0
VERTEX
  5
8A
330
6C
100
AcDbEntity
  8
Layer 1
 62
     7
420
 16777215
370
    35
100
AcDbVertex
100
AcDb2dVertex
 10
16.19267553641632
 20
233.8864485059091
 30
0.0
  0
VERTEX
  5
8B
330
6C
100
AcDbEntity
  8
Layer 1
 62
     7
420
 16777215
370
    35
100
AcDbVertex
100
AcDb2dVertex
 10
16.68353538414744
 20
232.72064661495
 30
0.0
  0
VERTEX
  5
8C
330
6C
100
AcDbEntity
  8
Layer 1
 62
     7
420
 16777215
370
    35
100
AcDbVertex
100
AcDb2dVertex
 10
17.23575856440355
 20
231.4934735893904
 30
0.0
  0
VERTEX
  5
8D
330
6C
100
AcDbEntity
  8
Layer 1
 62
     7
420
 16777215
370
    35
100
AcDbVertex
100
AcDb2dVertex
 10
17.78798174466031
 20
230.3890428330326
 30
0.0
  0
VERTEX
  5
8E
330
6C
100
AcDbEntity
  8
Layer 1
 62
     7
420
 16777215
370
    35
100
AcDbVertex
100
AcDb2dVertex
 10
18.46291598581003
 20
229.2232253379204
 30
0.0
  0
VERTEX
  5
8F
330
6C
100
AcDbEntity
  8
Layer 1
 62
     7
420
 16777215
370
    35
100
AcDbVertex
100
AcDb2dVertex
 10
19.19921355948474
 20
228.1801501120098
 30
0.0
  0
VERTEX
  5
90
330
6C
100
AcDbEntity
  8
Layer 1
 62
     7
420
 16777215
370
    35
100
AcDbVertex
100
AcDb2dVertex
 10
19.93551113315785
 20
227.1370592819456
 30
0.0
  0
VERTEX
  5
91
330
6C
100
AcDbEntity
  8
Layer 1
 62
     7
420
 16777215
370
    35
100
AcDbVertex
100
AcDb2dVertex
 10
20.73316423727905
 20
226.0939684518814
 30
0.0
  0
VERTEX
  5
92
330
6C
100
AcDbEntity
  8
Layer 1
 62
     7
420
 16777215
370
    35
100
AcDbVertex
100
AcDb2dVertex
 10
21.5921806739246
 20
225.173604286865
 30
0.0
  0
VERTEX
  5
93
330
6C
100
AcDbEntity
  8
Layer 1
 62
     7
420
 16777215
370
    35
100
AcDbVertex
100
AcDb2dVertex
 10
22.51255264101856
 20
224.2532401218493
 30
0.0
  0
SEQEND
  5
94
330
6C
100
AcDbEntity
  8
Layer 1
 62
     7
420
 16777215
370
    35
  0
POLYLINE
  5
95
330
1F
100
AcDbEntity
  8
Layer 1
 62
     7
420
 16777215
370
    35
100
AcDb2dPolyline
 66
     1
 10
0.0
 20
0.0
 30
0.0
  0
VERTEX
  5
96
330
95
100
AcDbEntity
  8
Layer 1
 62
     7
420
 16777215
370
    35
100
AcDbVertex
100
AcDb2dVertex
 10
37.79071169060584
 20
232.2297867672179
 30
0.0
  0
VERTEX
  5
97
330
95
100
AcDbEntity
  8
Layer 1
 62
     7
420
 16777215
370
    35
100
AcDbVertex
100
AcDb2dVertex
 10
38.09749714492028
 20
232.5365644194548
 30
0.0
  0
VERTEX
  5
98
330
95
100
AcDbEntity
  8
Layer 1
 62
     7
420
 16777215
370
    35
100
AcDbVertex
100
AcDb2dVertex
 10
38.46564593175652
 20
232.7820021453968
 30
0.0
  0
VERTEX
  5
99
330
95
100
AcDbEntity
  8
Layer 1
 62
     7
420
 16777215
370
    35
100
AcDbVertex
100
AcDb2dVertex
 10
38.89515024904212
 20
233.0274398713408
 30
0.0
  0
VERTEX
  5
9A
330
95
100
AcDbEntity
  8
Layer 1
 62
     7
420
 16777215
370
    35
100
AcDbVertex
100
AcDb2dVertex
 10
39.32466236840271
 20
233.2115064626818
 30
0.0
  0
VERTEX
  5
9B
330
95
100
AcDbEntity
  8
Layer 1
 62
     7
420
 16777215
370
    35
100
AcDbVertex
100
AcDb2dVertex
 10
39.75416668568767
 20
233.3955886581773
 30
0.0
  0
VERTEX
  5
9C
330
95
100
AcDbEntity
  8
Layer 1
 62
     7
420
 16777215
370
    35
100
AcDbVertex
100
AcDb2dVertex
 10
40.18367100297263
 20
233.4569441886244
 30
0.0
  0
VERTEX
  5
9D
330
95
100
AcDbEntity
  8
Layer 1
 62
     7
420
 16777215
370
    35
100
AcDbVertex
100
AcDb2dVertex
 10
40.6131753202563
 20
233.5182997190716
 30
0.0
  0
VERTEX
  5
9E
330
95
100
AcDbEntity
  8
Layer 1
 62
     7
420
 16777215
370
    35
100
AcDbVertex
100
AcDb2dVertex
 10
41.10404297006562
 20
233.4569441886244
 30
0.0
  0
VERTEX
  5
9F
330
95
100
AcDbEntity
  8
Layer 1
 62
     7
420
 16777215
370
    35
100
AcDbVertex
100
AcDb2dVertex
 10
41.5335472873493
 20
233.3955886581773
 30
0.0
  0
VERTEX
  5
A0
330
95
100
AcDbEntity
  8
Layer 1
 62
     7
420
 16777215
370
    35
100
AcDbVertex
100
AcDb2dVertex
 10
41.9016960741865
 20
233.334217523576
 30
0.0
  0
VERTEX
  5
A1
330
95
100
AcDbEntity
  8
Layer 1
 62
     7
420
 16777215
370
    35
100
AcDbVertex
100
AcDb2dVertex
 10
42.33120039147049
 20
233.150150932235
 30
0.0
  0
VERTEX
  5
A2
330
95
100
AcDbEntity
  8
Layer 1
 62
     7
420
 16777215
370
    35
100
AcDbVertex
100
AcDb2dVertex
 10
42.69934917830801
 20
232.9660687367388
 30
0.0
  0
VERTEX
  5
A3
330
95
100
AcDbEntity
  8
Layer 1
 62
     7
420
 16777215
370
    35
100
AcDbVertex
100
AcDb2dVertex
 10
43.06749796514521
 20
232.72064661495
 30
0.0
  0
VERTEX
  5
A4
330
95
100
AcDbEntity
  8
Layer 1
 62
     7
420
 16777215
370
    35
100
AcDbVertex
100
AcDb2dVertex
 10
43.37429122153528
 20
232.4752088890074
 30
0.0
  0
VERTEX
  5
A5
330
95
100
AcDbEntity
  8
Layer 1
 62
     7
420
 16777215
370
    35
100
AcDbVertex
100
AcDb2dVertex
 10
43.68107667584781
 20
232.1684156326176
 30
0.0
  0
VERTEX
  5
A6
330
95
100
AcDbEntity
  8
Layer 1
 62
     7
420
 16777215
370
    35
100
AcDbVertex
100
AcDb2dVertex
 10
43.98786993223852
 20
231.8616379803811
 30
0.0
  0
VERTEX
  5
A7
330
95
100
AcDbEntity
  8
Layer 1
 62
     7
420
 16777215
370
    35
100
AcDbVertex
100
AcDb2dVertex
 10
53.62107831629829
 20
219.89681021025
 30
0.0
  0
VERTEX
  5
A8
330
95
100
AcDbEntity
  8
Layer 1
 62
     7
420
 16777215
370
    35
100
AcDbVertex
100
AcDb2dVertex
 10
52.14848316895047
 20
219.2218837711766
 30
0.0
  0
VERTEX
  5
A9
330
95
100
AcDbEntity
  8
Layer 1
 62
     7
420
 16777215
370
    35
100
AcDbVertex
100
AcDb2dVertex
 10
50.67589582367699
 20
218.5469417279496
 30
0.0
  0
VERTEX
  5
AA
330
95
100
AcDbEntity
  8
Layer 1
 62
     7
420
 16777215
370
    35
100
AcDbVertex
100
AcDb2dVertex
 10
49.14194514588108
 20
217.9947107456169
 30
0.0
  0
VERTEX
  5
AB
330
95
100
AcDbEntity
  8
Layer 1
 62
     7
420
 16777215
370
    35
100
AcDbVertex
100
AcDb2dVertex
 10
48.34429204176021
 20
217.7492886238278
 30
0.0
  0
VERTEX
  5
AC
330
95
100
AcDbEntity
  8
Layer 1
 62
     7
420
 16777215
370
    35
100
AcDbVertex
100
AcDb2dVertex
 10
47.60799446808517
 20
217.5652064283339
 30
0.0
  0
VERTEX
  5
AD
330
95
100
AcDbEntity
  8
Layer 1
 62
     7
420
 16777215
370
    35
100
AcDbVertex
100
AcDb2dVertex
 10
46.81034136396398
 20
217.3197843065438
 30
0.0
  0
VERTEX
  5
AE
330
95
100
AcDbEntity
  8
Layer 1
 62
     7
420
 16777215
370
    35
100
AcDbVertex
100
AcDb2dVertex
 10
45.95132492731939
 20
217.1970576414954
 30
0.0
  0
VERTEX
  5
AF
330
95
100
AcDbEntity
  8
Layer 1
 62
     7
420
 16777215
370
    35
100
AcDbVertex
100
AcDb2dVertex
 10
45.15367182319691
 20
217.0129910501534
 30
0.0
  0
VERTEX
  5
B0
330
95
100
AcDbEntity
  8
Layer 1
 62
     7
420
 16777215
370
    35
100
AcDbVertex
100
AcDb2dVertex
 10
44.35601871907539
 20
216.8902799892589
 30
0.0
  0
VERTEX
  5
B1
330
95
100
AcDbEntity
  8
Layer 1
 62
     7
420
 16777215
370
    35
100
AcDbVertex
100
AcDb2dVertex
 10
43.49700228243017
 20
216.8289088546579
 30
0.0
  0
VERTEX
  5
B2
330
95
100
AcDbEntity
  8
Layer 1
 62
     7
420
 16777215
370
    35
100
AcDbVertex
100
AcDb2dVertex
 10
42.63799364786121
 20
216.7675533242108
 30
0.0
  0
VERTEX
  5
B3
330
95
100
AcDbEntity
  8
Layer 1
 62
     7
420
 16777215
370
    35
100
AcDbVertex
100
AcDb2dVertex
 10
41.77897721121533
 20
216.7061977937649
 30
0.0
  0
VERTEX
  5
B4
330
95
100
AcDbEntity
  8
Layer 1
 62
     7
420
 16777215
370
    35
100
AcDbVertex
100
AcDb2dVertex
 10
40.91996857664606
 20
216.7061977937649
 30
0.0
  0
VERTEX
  5
B5
330
95
100
AcDbEntity
  8
Layer 1
 62
     7
420
 16777215
370
    35
100
AcDbVertex
100
AcDb2dVertex
 10
40.06095214000083
 20
216.7061977937649
 30
0.0
  0
VERTEX
  5
B6
330
95
100
AcDbEntity
  8
Layer 1
 62
     7
420
 16777215
370
    35
100
AcDbVertex
100
AcDb2dVertex
 10
39.26329903587803
 20
216.7675533242108
 30
0.0
  0
VERTEX
  5
B7
330
95
100
AcDbEntity
  8
Layer 1
 62
     7
420
 16777215
370
    35
100
AcDbVertex
100
AcDb2dVertex
 10
38.40429040131036
 20
216.8289088546579
 30
0.0
  0
VERTEX
  5
B8
330
95
100
AcDbEntity
  8
Layer 1
 62
     7
420
 16777215
370
    35
100
AcDbVertex
100
AcDb2dVertex
 10
37.54527396466449
 20
216.9516355197057
 30
0.0
  0
VERTEX
  5
B9
330
95
100
AcDbEntity
  8
Layer 1
 62
     7
420
 16777215
370
    35
100
AcDbVertex
100
AcDb2dVertex
 10
36.74762086054265
 20
217.0129910501534
 30
0.0
  0
VERTEX
  5
BA
330
95
100
AcDbEntity
  8
Layer 1
 62
     7
420
 16777215
370
    35
100
AcDbVertex
100
AcDb2dVertex
 10
35.88861222597401
 20
217.1970576414954
 30
0.0
  0
VERTEX
  5
BB
330
95
100
AcDbEntity
  8
Layer 1
 62
     7
420
 16777215
370
    35
100
AcDbVertex
100
AcDb2dVertex
 10
35.0909513197759
 20
217.3811398369906
 30
0.0
  0
VERTEX
  5
BC
330
95
100
AcDbEntity
  8
Layer 1
 62
     7
420
 16777215
370
    35
100
AcDbVertex
100
AcDb2dVertex
 10
34.29329821565375
 20
217.5652064283339
 30
0.0
  0
VERTEX
  5
BD
330
95
100
AcDbEntity
  8
Layer 1
 62
     7
420
 16777215
370
    35
100
AcDbVertex
100
AcDb2dVertex
 10
33.49564511153191
 20
217.7492886238278
 30
0.0
  0
VERTEX
  5
BE
330
95
100
AcDbEntity
  8
Layer 1
 62
     7
420
 16777215
370
    35
100
AcDbVertex
100
AcDb2dVertex
 10
32.6979920074104
 20
217.9947107456169
 30
0.0
  0
VERTEX
  5
BF
330
95
100
AcDbEntity
  8
Layer 1
 62
     7
420
 16777215
370
    35
100
AcDbVertex
100
AcDb2dVertex
 10
31.90033890328856
 20
218.3015040020061
 30
0.0
  0
VERTEX
  5
C0
330
95
100
AcDbEntity
  8
Layer 1
 62
     7
420
 16777215
370
    35
100
AcDbVertex
100
AcDb2dVertex
 10
31.16404132961481
 20
218.5469417279496
 30
0.0
  0
VERTEX
  5
C1
330
95
100
AcDbEntity
  8
Layer 1
 62
     7
420
 16777215
370
    35
100
AcDbVertex
100
AcDb2dVertex
 10
29.69144618226634
 20
219.2218837711766
 30
0.0
  0
VERTEX
  5
C2
330
95
100
AcDbEntity
  8
Layer 1
 62
     7
420
 16777215
370
    35
100
AcDbVertex
100
AcDb2dVertex
 10
28.21885883699447
 20
219.9581813448504
 30
0.0
  0
VERTEX
  5
C3
330
95
100
AcDbEntity
  8
Layer 1
 62
     7
420
 16777215
370
    35
100
AcDbVertex
100
AcDb2dVertex
 10
37.79071169060584
 20
232.2297867672179
 30
0.0
  0
SEQEND
  5
C4
330
95
100
AcDbEntity
  8
Layer 1
 62
     7
420
 16777215
370
    35
  0
POLYLINE
  5
C5
330
1F
100
AcDbEntity
  8
Layer 1
 62
     7
420
 16777215
370
    35
100
AcDb2dPolyline
 66
     1
 10
0.0
 20
0.0
 30
0.0
  0
VERTEX
  5
C6
330
C5
100
AcDbEntity
  8
Layer 1
 62
     7
420
 16777215
370
    35
100
AcDbVertex
100
AcDb2dVertex
 10
66.87441903828227
 20
248.1215089233566
 30
0.0
  0
VERTEX
  5
C7
330
C5
100
AcDbEntity
  8
Layer 1
 62
     7
420
 16777215
370
    35
100
AcDbVertex
100
AcDb2dVertex
 10
66.87441903828227
 20
248.1215089233566
 30
0.0
  0
VERTEX
  5
C8
330
C5
100
AcDbEntity
  8
Layer 1
 62
     7
420
 16777215
370
    35
100
AcDbVertex
100
AcDb2dVertex
 10
67.1198411600714
 20
246.8943358977963
 30
0.0
  0
VERTEX
  5
C9
330
C5
100
AcDbEntity
  8
Layer 1
 62
     7
420
 16777215
370
    35
100
AcDbVertex
100
AcDb2dVertex
 10
67.24255222096693
 20
245.6671784763907
 30
0.0
  0
VERTEX
  5
CA
330
C5
100
AcDbEntity
  8
Layer 1
 62
     7
420
 16777215
370
    35
100
AcDbVertex
100
AcDb2dVertex
 10
67.36527888601404
 20
244.3786655245368
 30
0.0
  0
VERTEX
  5
CB
330
C5
100
AcDbEntity
  8
Layer 1
 62
     7
420
 16777215
370
    35
100
AcDbVertex
100
AcDb2dVertex
 10
67.36527888601404
 20
243.1515081031316
 30
0.0
  0
VERTEX
  5
CC
330
C5
100
AcDbEntity
  8
Layer 1
 62
     7
420
 16777215
370
    35
100
AcDbVertex
100
AcDb2dVertex
 10
67.30392335556691
 20
241.74026848623
 30
0.0
  0
VERTEX
  5
CD
330
C5
100
AcDbEntity
  8
Layer 1
 62
     7
420
 16777215
370
    35
100
AcDbVertex
100
AcDb2dVertex
 10
67.24255222096693
 20
240.3290288693293
 30
0.0
  0
VERTEX
  5
CE
330
C5
100
AcDbEntity
  8
Layer 1
 62
     7
420
 16777215
370
    35
100
AcDbVertex
100
AcDb2dVertex
 10
67.05848562962524
 20
238.9791603870282
 30
0.0
  0
VERTEX
  5
CF
330
C5
100
AcDbEntity
  8
Layer 1
 62
     7
420
 16777215
370
    35
100
AcDbVertex
100
AcDb2dVertex
 10
66.81304790368165
 20
237.6292763005743
 30
0.0
  0
VERTEX
  5
D0
330
C5
100
AcDbEntity
  8
Layer 1
 62
     7
420
 16777215
370
    35
100
AcDbVertex
100
AcDb2dVertex
 10
66.50627025144507
 20
236.2794078182736
 30
0.0
  0
VERTEX
  5
D1
330
C5
100
AcDbEntity
  8
Layer 1
 62
     7
420
 16777215
370
    35
100
AcDbVertex
100
AcDb2dVertex
 10
66.07675033000854
 20
234.9908792622662
 30
0.0
  0
VERTEX
  5
D2
330
C5
100
AcDbEntity
  8
Layer 1
 62
     7
420
 16777215
370
    35
100
AcDbVertex
100
AcDb2dVertex
 10
65.64724601272262
 20
233.763721840861
 30
0.0
  0
VERTEX
  5
D3
330
C5
100
AcDbEntity
  8
Layer 1
 62
     7
420
 16777215
370
    35
100
AcDbVertex
100
AcDb2dVertex
 10
65.15638616499118
 20
232.4752088890074
 30
0.0
  0
VERTEX
  5
D4
330
C5
100
AcDbEntity
  8
Layer 1
 62
     7
420
 16777215
370
    35
100
AcDbVertex
100
AcDb2dVertex
 10
64.60417078681262
 20
231.309406998049
 30
0.0
  0
VERTEX
  5
D5
330
C5
100
AcDbEntity
  8
Layer 1
 62
     7
420
 16777215
370
    35
100
AcDbVertex
100
AcDb2dVertex
 10
63.99058427403278
 20
230.1436051070903
 30
0.0
  0
VERTEX
  5
D6
330
C5
100
AcDbEntity
  8
Layer 1
 62
     7
420
 16777215
370
    35
100
AcDbVertex
100
AcDb2dVertex
 10
63.25428670035807
 20
228.977803216131
 30
0.0
  0
VERTEX
  5
D7
330
C5
100
AcDbEntity
  8
Layer 1
 62
     7
420
 16777215
370
    35
100
AcDbVertex
100
AcDb2dVertex
 10
62.57934465713112
 20
227.9347123860674
 30
0.0
  0
VERTEX
  5
D8
330
C5
100
AcDbEntity
  8
Layer 1
 62
     7
420
 16777215
370
    35
100
AcDbVertex
100
AcDb2dVertex
 10
61.78169155300928
 20
226.8302660255562
 30
0.0
  0
VERTEX
  5
D9
330
C5
100
AcDbEntity
  8
Layer 1
 62
     7
420
 16777215
370
    35
100
AcDbVertex
100
AcDb2dVertex
 10
60.92268291844064
 20
225.8485307259388
 30
0.0
  0
VERTEX
  5
DA
330
C5
100
AcDbEntity
  8
Layer 1
 62
     7
420
 16777215
370
    35
100
AcDbVertex
100
AcDb2dVertex
 10
60.06367428387136
 20
224.866811030475
 30
0.0
  0
VERTEX
  5
DB
330
C5
100
AcDbEntity
  8
Layer 1
 62
     7
420
 16777215
370
    35
100
AcDbVertex
100
AcDb2dVertex
 10
59.14329451470081
 20
223.9464312613057
 30
0.0
  0
VERTEX
  5
DC
330
C5
100
AcDbEntity
  8
Layer 1
 62
     7
420
 16777215
370
    35
100
AcDbVertex
100
AcDb2dVertex
 10
50.43046589981223
 20
236.7089121355579
 30
0.0
  0
VERTEX
  5
DD
330
C5
100
AcDbEntity
  8
Layer 1
 62
     7
420
 16777215
370
    35
100
AcDbVertex
100
AcDb2dVertex
 10
50.24639150639203
 20
237.1384164528426
 30
0.0
  0
VERTEX
  5
DE
330
C5
100
AcDbEntity
  8
Layer 1
 62
     7
420
 16777215
370
    35
100
AcDbVertex
100
AcDb2dVertex
 10
50.06231711297568
 20
237.5679207701272
 30
0.0
  0
VERTEX
  5
DF
330
C5
100
AcDbEntity
  8
Layer 1
 62
     7
420
 16777215
370
    35
100
AcDbVertex
100
AcDb2dVertex
 10
49.93959825000356
 20
237.9974250874122
 30
0.0
  0
VERTEX
  5
E0
330
C5
100
AcDbEntity
  8
Layer 1
 62
     7
420
 16777215
370
    35
100
AcDbVertex
100
AcDb2dVertex
 10
49.8782427195574
 20
238.4269294046962
 30
0.0
  0
VERTEX
  5
E1
330
C5
100
AcDbEntity
  8
Layer 1
 62
     7
420
 16777215
370
    35
100
AcDbVertex
100
AcDb2dVertex
 10
49.8782427195574
 20
238.9178048565811
 30
0.0
  0
VERTEX
  5
E2
330
C5
100
AcDbEntity
  8
Layer 1
 62
     7
420
 16777215
370
    35
100
AcDbVertex
100
AcDb2dVertex
 10
49.93959825000356
 20
239.3473091738654
 30
0.0
  0
VERTEX
  5
E3
330
C5
100
AcDbEntity
  8
Layer 1
 62
     7
420
 16777215
370
    35
100
AcDbVertex
100
AcDb2dVertex
 10
50.00096158252695
 20
239.7768134911497
 30
0.0
  0
VERTEX
  5
E4
330
C5
100
AcDbEntity
  8
Layer 1
 62
     7
420
 16777215
370
    35
100
AcDbVertex
100
AcDb2dVertex
 10
50.18502817386928
 20
240.2063178084347
 30
0.0
  0
VERTEX
  5
E5
330
C5
100
AcDbEntity
  8
Layer 1
 62
     7
420
 16777215
370
    35
100
AcDbVertex
100
AcDb2dVertex
 10
50.3077470368414
 20
240.635822125719
 30
0.0
  0
VERTEX
  5
E6
330
C5
100
AcDbEntity
  8
Layer 1
 62
     7
420
 16777215
370
    35
100
AcDbVertex
100
AcDb2dVertex
 10
50.55317696070679
 20
241.0039709125566
 30
0.0
  0
VERTEX
  5
E7
330
C5
100
AcDbEntity
  8
Layer 1
 62
     7
420
 16777215
370
    35
100
AcDbVertex
100
AcDb2dVertex
 10
50.79861468664911
 20
241.310764168946
 30
0.0
  0
VERTEX
  5
E8
330
C5
100
AcDbEntity
  8
Layer 1
 62
     7
420
 16777215
370
    35
100
AcDbVertex
100
AcDb2dVertex
 10
51.10540014096195
 20
241.6175574253357
 30
0.0
  0
VERTEX
  5
E9
330
C5
100
AcDbEntity
  8
Layer 1
 62
     7
420
 16777215
370
    35
100
AcDbVertex
100
AcDb2dVertex
 10
51.41219339735299
 20
241.924335077572
 30
0.0
  0
VERTEX
  5
EA
330
C5
100
AcDbEntity
  8
Layer 1
 62
     7
420
 16777215
370
    35
100
AcDbVertex
100
AcDb2dVertex
 10
51.7803421841889
 20
242.1697728035143
 30
0.0
  0
VERTEX
  5
EB
330
C5
100
AcDbEntity
  8
Layer 1
 62
     7
420
 16777215
370
    35
100
AcDbVertex
100
AcDb2dVertex
 10
52.14849097102546
 20
242.3538393948576
 30
0.0
  0
VERTEX
  5
EC
330
C5
100
AcDbEntity
  8
Layer 1
 62
     7
420
 16777215
370
    35
100
AcDbVertex
100
AcDb2dVertex
 10
52.5166397578633
 20
242.5379215903518
 30
0.0
  0
VERTEX
  5
ED
330
C5
100
AcDbEntity
  8
Layer 1
 62
     7
420
 16777215
370
    35
100
AcDbVertex
100
AcDb2dVertex
 10
66.87441903828227
 20
248.1215089233566
 30
0.0
  0
SEQEND
  5
EE
330
C5
100
AcDbEntity
  8
Layer 1
 62
     7
420
 16777215
370
    35
  0
POLYLINE
  5
EF
330
1F
100
AcDbEntity
  8
Layer 1
 62
     7
420
 16777215
370
    35
100
AcDb2dPolyline
 66
     1
 10
0.0
 20
0.0
 30
0.0
  0
VERTEX
  5
F0
330
EF
100
AcDbEntity
  8
Layer 1
 62
     7
420
 16777215
370
    35
100
AcDbVertex
100
AcDb2dVertex
 10
44.91996857564644
 20
243.1515065803914
 30
0.0
  0
VERTEX
  5
F1
330
EF
100
AcDbEntity
  8
Layer 1
 62
     7
420
 16777215
370
    35
100
AcDbVertex
100
AcDb2dVertex
 10
44.91996857564644
 20
242.7564358594654
 30
0.0
  0
VERTEX
  5
F2
330
EF
100
AcDbEntity
  8
Layer 1
 62
     7
420
 16777215
370
    35
100
AcDbVertex
100
AcDb2dVertex
 10
44.82120089541541
 20
242.3613776972114
 30
0.0
  0
VERTEX
  5
F3
330
EF
100
AcDbEntity
  8
Layer 1
 62
     7
420
 16777215
370
    35
100
AcDbVertex
100
AcDb2dVertex
 10
44.72243321518375
 20
241.966319534958
 30
0.0
  0
VERTEX
  5
F4
330
EF
100
AcDbEntity
  8
Layer 1
 62
     7
420
 16777215
370
    35
100
AcDbVertex
100
AcDb2dVertex
 10
44.62367181428809
 20
241.571248814032
 30
0.0
  0
VERTEX
  5
F5
330
EF
100
AcDbEntity
  8
Layer 1
 62
     7
420
 16777215
370
    35
100
AcDbVertex
100
AcDb2dVertex
 10
44.42613645382508
 20
241.2255713522261
 30
0.0
  0
VERTEX
  5
F6
330
EF
100
AcDbEntity
  8
Layer 1
 62
     7
420
 16777215
370
    35
100
AcDbVertex
100
AcDb2dVertex
 10
44.22860737269905
 20
240.9292745908681
 30
0.0
  0
VERTEX
  5
F7
330
EF
100
AcDbEntity
  8
Layer 1
 62
     7
420
 16777215
370
    35
100
AcDbVertex
100
AcDb2dVertex
 10
44.03107829157172
 20
240.5835971290616
 30
0.0
  0
VERTEX
  5
F8
330
EF
100
AcDbEntity
  8
Layer 1
 62
     7
420
 16777215
370
    35
100
AcDbVertex
100
AcDb2dVertex
 10
43.7347815302137
 20
240.3366810681511
 30
0.0
  0
VERTEX
  5
F9
330
EF
100
AcDbEntity
  8
Layer 1
 62
     7
420
 16777215
370
    35
100
AcDbVertex
100
AcDb2dVertex
 10
43.48786546930221
 20
240.0403843067931
 30
0.0
  0
VERTEX
  5
FA
330
EF
100
AcDbEntity
  8
Layer 1
 62
     7
420
 16777215
370
    35
100
AcDbVertex
100
AcDb2dVertex
 10
43.14218800749669
 20
239.8428615050034
 30
0.0
  0
VERTEX
  5
FB
330
EF
100
AcDbEntity
  8
Layer 1
 62
     7
420
 16777215
370
    35
100
AcDbVertex
100
AcDb2dVertex
 10
42.8458912461393
 20
239.6453261445403
 30
0.0
  0
VERTEX
  5
FC
330
EF
100
AcDbEntity
  8
Layer 1
 62
     7
420
 16777215
370
    35
100
AcDbVertex
100
AcDb2dVertex
 10
42.50021378433281
 20
239.4478033427487
 30
0.0
  0
VERTEX
  5
FD
330
EF
100
AcDbEntity
  8
Layer 1
 62
     7
420
 16777215
370
    35
100
AcDbVertex
100
AcDb2dVertex
 10
42.10514934274344
 20
239.2996486827335
 30
0.0
  0
VERTEX
  5
FE
330
EF
100
AcDbEntity
  8
Layer 1
 62
     7
420
 16777215
370
    35
100
AcDbVertex
100
AcDb2dVertex
 10
41.71009118048975
 20
239.2008872818392
 30
0.0
  0
VERTEX
  5
FF
330
EF
100
AcDbEntity
  8
Layer 1
 62
     7
420
 16777215
370
    35
100
AcDbVertex
100
AcDb2dVertex
 10
41.31502673889975
 20
239.1515065813913
 30
0.0
  0
VERTEX
  5
100
330
EF
100
AcDbEntity
  8
Layer 1
 62
     7
420
 16777215
370
    35
100
AcDbVertex
100
AcDb2dVertex
 10
40.91996857664606
 20
239.1515065813913
 30
0.0
  0
VERTEX
  5
101
330
EF
100
AcDbEntity
  8
Layer 1
 62
     7
420
 16777215
370
    35
100
AcDbVertex
100
AcDb2dVertex
 10
40.52490413505701
 20
239.1515065813913
 30
0.0
  0
VERTEX
  5
102
330
EF
100
AcDbEntity
  8
Layer 1
 62
     7
420
 16777215
370
    35
100
AcDbVertex
100
AcDb2dVertex
 10
40.12983969346669
 20
239.2008872818392
 30
0.0
  0
VERTEX
  5
103
330
EF
100
AcDbEntity
  8
Layer 1
 62
     7
420
 16777215
370
    35
100
AcDbVertex
100
AcDb2dVertex
 10
39.734781531213
 20
239.2996486827335
 30
0.0
  0
VERTEX
  5
104
330
EF
100
AcDbEntity
  8
Layer 1
 62
     7
420
 16777215
370
    35
100
AcDbVertex
100
AcDb2dVertex
 10
39.33971708962331
 20
239.4478033427487
 30
0.0
  0
VERTEX
  5
105
330
EF
100
AcDbEntity
  8
Layer 1
 62
     7
420
 16777215
370
    35
100
AcDbVertex
100
AcDb2dVertex
 10
38.9940396278181
 20
239.6453261445403
 30
0.0
  0
VERTEX
  5
106
330
EF
100
AcDbEntity
  8
Layer 1
 62
     7
420
 16777215
370
    35
100
AcDbVertex
100
AcDb2dVertex
 10
38.6483621660116
 20
239.8428615050034
 30
0.0
  0
VERTEX
  5
107
330
EF
100
AcDbEntity
  8
Layer 1
 62
     7
420
 16777215
370
    35
100
AcDbVertex
100
AcDb2dVertex
 10
38.35206540465326
 20
240.0403843067931
 30
0.0
  0
VERTEX
  5
108
330
EF
100
AcDbEntity
  8
Layer 1
 62
     7
420
 16777215
370
    35
100
AcDbVertex
100
AcDb2dVertex
 10
38.05576864329523
 20
240.3366810681511
 30
0.0
  0
VERTEX
  5
109
330
EF
100
AcDbEntity
  8
Layer 1
 62
     7
420
 16777215
370
    35
100
AcDbVertex
100
AcDb2dVertex
 10
37.80885258238504
 20
240.5835971290616
 30
0.0
  0
VERTEX
  5
10A
330
EF
100
AcDbEntity
  8
Layer 1
 62
     7
420
 16777215
370
    35
100
AcDbVertex
100
AcDb2dVertex
 10
37.61132350125803
 20
240.9292745908681
 30
0.0
  0
VERTEX
  5
10B
330
EF
100
AcDbEntity
  8
Layer 1
 62
     7
420
 16777215
370
    35
100
AcDbVertex
100
AcDb2dVertex
 10
37.36441371968385
 20
241.2255713522261
 30
0.0
  0
VERTEX
  5
10C
330
EF
100
AcDbEntity
  8
Layer 1
 62
     7
420
 16777215
370
    35
100
AcDbVertex
100
AcDb2dVertex
 10
37.21626533900499
 20
241.571248814032
 30
0.0
  0
VERTEX
  5
10D
330
EF
100
AcDbEntity
  8
Layer 1
 62
     7
420
 16777215
370
    35
100
AcDbVertex
100
AcDb2dVertex
 10
37.06811695832486
 20
241.966319534958
 30
0.0
  0
VERTEX
  5
10E
330
EF
100
AcDbEntity
  8
Layer 1
 62
     7
420
 16777215
370
    35
100
AcDbVertex
100
AcDb2dVertex
 10
36.96934927809352
 20
242.3613776972114
 30
0.0
  0
VERTEX
  5
10F
330
EF
100
AcDbEntity
  8
Layer 1
 62
     7
420
 16777215
370
    35
100
AcDbVertex
100
AcDb2dVertex
 10
36.91996857764633
 20
242.7564358594654
 30
0.0
  0
VERTEX
  5
110
330
EF
100
AcDbEntity
  8
Layer 1
 62
     7
420
 16777215
370
    35
100
AcDbVertex
100
AcDb2dVertex
 10
36.91996857764633
 20
243.1515065803914
 30
0.0
  0
VERTEX
  5
111
330
EF
100
AcDbEntity
  8
Layer 1
 62
     7
420
 16777215
370
    35
100
AcDbVertex
100
AcDb2dVertex
 10
36.91996857764633
 20
243.5465647426447
 30
0.0
  0
VERTEX
  5
112
330
EF
100
AcDbEntity
  8
Layer 1
 62
     7
420
 16777215
370
    35
100
AcDbVertex
100
AcDb2dVertex
 10
36.96934927809352
 20
243.9416229048987
 30
0.0
  0
VERTEX
  5
113
330
EF
100
AcDbEntity
  8
Layer 1
 62
     7
420
 16777215
370
    35
100
AcDbVertex
100
AcDb2dVertex
 10
37.06811695832486
 20
244.3366810671531
 30
0.0
  0
VERTEX
  5
114
330
EF
100
AcDbEntity
  8
Layer 1
 62
     7
420
 16777215
370
    35
100
AcDbVertex
100
AcDb2dVertex
 10
37.21626533900499
 20
244.7317517880781
 30
0.0
  0
VERTEX
  5
115
330
EF
100
AcDbEntity
  8
Layer 1
 62
     7
420
 16777215
370
    35
100
AcDbVertex
100
AcDb2dVertex
 10
37.36441371968385
 20
245.0774292498833
 30
0.0
  0
VERTEX
  5
116
330
EF
100
AcDbEntity
  8
Layer 1
 62
     7
420
 16777215
370
    35
100
AcDbVertex
100
AcDb2dVertex
 10
37.61132350125803
 20
245.3737260112417
 30
0.0
  0
VERTEX
  5
117
330
EF
100
AcDbEntity
  8
Layer 1
 62
     7
420
 16777215
370
    35
100
AcDbVertex
100
AcDb2dVertex
 10
37.80885258238504
 20
245.7194034730482
 30
0.0
  0
VERTEX
  5
118
330
EF
100
AcDbEntity
  8
Layer 1
 62
     7
420
 16777215
370
    35
100
AcDbVertex
100
AcDb2dVertex
 10
38.05576864329523
 20
245.9663195339587
 30
0.0
  0
VERTEX
  5
119
330
EF
100
AcDbEntity
  8
Layer 1
 62
     7
420
 16777215
370
    35
100
AcDbVertex
100
AcDb2dVertex
 10
38.35206540465326
 20
246.262616295317
 30
0.0
  0
VERTEX
  5
11A
330
EF
100
AcDbEntity
  8
Layer 1
 62
     7
420
 16777215
370
    35
100
AcDbVertex
100
AcDb2dVertex
 10
38.6483621660116
 20
246.4601390971074
 30
0.0
  0
VERTEX
  5
11B
330
EF
100
AcDbEntity
  8
Layer 1
 62
     7
420
 16777215
370
    35
100
AcDbVertex
100
AcDb2dVertex
 10
38.9940396278181
 20
246.6576744575707
 30
0.0
  0
VERTEX
  5
11C
330
EF
100
AcDbEntity
  8
Layer 1
 62
     7
420
 16777215
370
    35
100
AcDbVertex
100
AcDb2dVertex
 10
39.33971708962331
 20
246.8552098180334
 30
0.0
  0
VERTEX
  5
11D
330
EF
100
AcDbEntity
  8
Layer 1
 62
     7
420
 16777215
370
    35
100
AcDbVertex
100
AcDb2dVertex
 10
39.734781531213
 20
247.0033519193753
 30
0.0
  0
VERTEX
  5
11E
330
EF
100
AcDbEntity
  8
Layer 1
 62
     7
420
 16777215
370
    35
100
AcDbVertex
100
AcDb2dVertex
 10
40.12983969346669
 20
247.1021133202716
 30
0.0
  0
VERTEX
  5
11F
330
EF
100
AcDbEntity
  8
Layer 1
 62
     7
420
 16777215
370
    35
100
AcDbVertex
100
AcDb2dVertex
 10
40.52490413505701
 20
247.1514940207188
 30
0.0
  0
VERTEX
  5
120
330
EF
100
AcDbEntity
  8
Layer 1
 62
     7
420
 16777215
370
    35
100
AcDbVertex
100
AcDb2dVertex
 10
40.91996857664606
 20
247.1514940207188
 30
0.0
  0
VERTEX
  5
121
330
EF
100
AcDbEntity
  8
Layer 1
 62
     7
420
 16777215
370
    35
100
AcDbVertex
100
AcDb2dVertex
 10
41.31502673889975
 20
247.1514940207188
 30
0.0
  0
VERTEX
  5
122
330
EF
100
AcDbEntity
  8
Layer 1
 62
     7
420
 16777215
370
    35
100
AcDbVertex
100
AcDb2dVertex
 10
41.71009118048975
 20
247.1021133202716
 30
0.0
  0
VERTEX
  5
123
330
EF
100
AcDbEntity
  8
Layer 1
 62
     7
420
 16777215
370
    35
100
AcDbVertex
100
AcDb2dVertex
 10
42.10514934274344
 20
247.0033519193753
 30
0.0
  0
VERTEX
  5
124
330
EF
100
AcDbEntity
  8
Layer 1
 62
     7
420
 16777215
370
    35
100
AcDbVertex
100
AcDb2dVertex
 10
42.50021378433281
 20
246.8552098180334
 30
0.0
  0
VERTEX
  5
125
330
EF
100
AcDbEntity
  8
Layer 1
 62
     7
420
 16777215
370
    35
100
AcDbVertex
100
AcDb2dVertex
 10
42.8458912461393
 20
246.6576744575707
 30
0.0
  0
VERTEX
  5
126
330
EF
100
AcDbEntity
  8
Layer 1
 62
     7
420
 16777215
370
    35
100
AcDbVertex
100
AcDb2dVertex
 10
43.14218800749669
 20
246.4601390971074
 30
0.0
  0
VERTEX
  5
127
330
EF
100
AcDbEntity
  8
Layer 1
 62
     7
420
 16777215
370
    35
100
AcDbVertex
100
AcDb2dVertex
 10
43.48786546930221
 20
246.262616295317
 30
0.0
  0
VERTEX
  5
128
330
EF
100
AcDbEntity
  8
Layer 1
 62
     7
420
 16777215
370
    35
100
AcDbVertex
100
AcDb2dVertex
 10
43.7347815302137
 20
245.9663195339587
 30
0.0
  0
VERTEX
  5
129
330
EF
100
AcDbEntity
  8
Layer 1
 62
     7
420
 16777215
370
    35
100
AcDbVertex
100
AcDb2dVertex
 10
44.03107829157172
 20
245.7194034730482
 30
0.0
  0
VERTEX
  5
12A
330
EF
100
AcDbEntity
  8
Layer 1
 62
     7
420
 16777215
370
    35
100
AcDbVertex
100
AcDb2dVertex
 10
44.22860737269905
 20
245.3737260112417
 30
0.0
  0
VERTEX
  5
12B
330
EF
100
AcDbEntity
  8
Layer 1
 62
     7
420
 16777215
370
    35
100
AcDbVertex
100
AcDb2dVertex
 10
44.42613645382508
 20
245.0774292498833
 30
0.0
  0
VERTEX
  5
12C
330
EF
100
AcDbEntity
  8
Layer 1
 62
     7
420
 16777215
370
    35
100
AcDbVertex
100
AcDb2dVertex
 10
44.62367181428809
 20
244.7317517880781
 30
0.0
  0
VERTEX
  5
12D
330
EF
100
AcDbEntity
  8
Layer 1
 62
     7
420
 16777215
370
    35
100
AcDbVertex
100
AcDb2dVertex
 10
44.72243321518375
 20
244.3366810671531
 30
0.0
  0
VERTEX
  5
12E
330
EF
100
AcDbEntity
  8
Layer 1
 62
     7
420
 16777215
370
    35
100
AcDbVertex
100
AcDb2dVertex
 10
44.82120089541541
 20
243.9416229048987
 30
0.0
  0
VERTEX
  5
12F
330
EF
100
AcDbEntity
  8
Layer 1
 62
     7
420
 16777215
370
    35
100
AcDbVertex
100
AcDb2dVertex
 10
44.91996857564644
 20
243.5465647426447
 30
0.0
  0
VERTEX
  5
130
330
EF
100
AcDbEntity
  8
Layer 1
 62
     7
420
 16777215
370
    35
100
AcDbVertex
100
AcDb2dVertex
 10
44.91996857564644
 20
243.1515065803914
 30
0.0
  0
SEQEND
  5
131
330
EF
100
AcDbEntity
  8
Layer 1
 62
     7
420
 16777215
370
    35
  0
POLYLINE
  5
132
330
1F
100
AcDbEntity
  8
Layer 1
 62
     7
420
 16777215
370
    35
100
AcDb2dPolyline
 66
     1
 10
0.0
 20
0.0
 30
0.0
  0
VERTEX
  5
133
330
132
100
AcDbEntity
  8
Layer 1
 62
     7
420
 16777215
370
    35
100
AcDbVertex
100
AcDb2dVertex
 10
70.86268455888985
 20
243.1515081031316
 30
0.0
  0
VERTEX
  5
134
330
132
100
AcDbEntity
  8
Layer 1
 62
     7
420
 16777215
370
    35
100
AcDbVertex
100
AcDb2dVertex
 10
70.80131342428922
 20
241.5561862907354
 30
0.0
  0
VERTEX
  5
135
330
132
100
AcDbEntity
  8
Layer 1
 62
     7
420
 16777215
370
    35
100
AcDbVertex
100
AcDb2dVertex
 10
70.67860236339563
 20
240.0836067475398
 30
0.0
  0
VERTEX
  5
136
330
132
100
AcDbEntity
  8
Layer 1
 62
     7
420
 16777215
370
    35
100
AcDbVertex
100
AcDb2dVertex
 10
70.49453577205426
 20
238.5496560697433
 30
0.0
  0
VERTEX
  5
137
330
132
100
AcDbEntity
  8
Layer 1
 62
     7
420
 16777215
370
    35
100
AcDbVertex
100
AcDb2dVertex
 10
70.24909804611033
 20
237.0770609223951
 30
0.0
  0
VERTEX
  5
138
330
132
100
AcDbEntity
  8
Layer 1
 62
     7
420
 16777215
370
    35
100
AcDbVertex
100
AcDb2dVertex
 10
69.94230478972027
 20
235.6658213054935
 30
0.0
  0
VERTEX
  5
139
330
132
100
AcDbEntity
  8
Layer 1
 62
     7
420
 16777215
370
    35
100
AcDbVertex
100
AcDb2dVertex
 10
69.51280047243627
 20
234.2545816885921
 30
0.0
  0
VERTEX
  5
13A
330
132
100
AcDbEntity
  8
Layer 1
 62
     7
420
 16777215
370
    35
100
AcDbVertex
100
AcDb2dVertex
 10
69.02194062470515
 20
232.8433576758443
 30
0.0
  0
VERTEX
  5
13B
330
132
100
AcDbEntity
  8
Layer 1
 62
     7
420
 16777215
370
    35
100
AcDbVertex
100
AcDb2dVertex
 10
68.53106517281891
 20
231.4934735893904
 30
0.0
  0
VERTEX
  5
13C
330
132
100
AcDbEntity
  8
Layer 1
 62
     7
420
 16777215
370
    35
100
AcDbVertex
100
AcDb2dVertex
 10
67.91749426419388
 20
230.1436051070903
 30
0.0
  0
VERTEX
  5
13D
330
132
100
AcDbEntity
  8
Layer 1
 62
     7
420
 16777215
370
    35
100
AcDbVertex
100
AcDb2dVertex
 10
67.24255222096693
 20
228.8550765510835
 30
0.0
  0
VERTEX
  5
13E
330
132
100
AcDbEntity
  8
Layer 1
 62
     7
420
 16777215
370
    35
100
AcDbVertex
100
AcDb2dVertex
 10
66.50625464729221
 20
227.6279191296774
 30
0.0
  0
VERTEX
  5
13F
330
132
100
AcDbEntity
  8
Layer 1
 62
     7
420
 16777215
370
    35
100
AcDbVertex
100
AcDb2dVertex
 10
65.76995707361846
 20
226.4007617082712
 30
0.0
  0
VERTEX
  5
140
330
132
100
AcDbEntity
  8
Layer 1
 62
     7
420
 16777215
370
    35
100
AcDbVertex
100
AcDb2dVertex
 10
64.91094843904887
 20
225.2349598173125
 30
0.0
  0
VERTEX
  5
141
330
132
100
AcDbEntity
  8
Layer 1
 62
     7
420
 16777215
370
    35
100
AcDbVertex
100
AcDb2dVertex
 10
64.05193980448087
 20
224.0691579263531
 30
0.0
  0
VERTEX
  5
142
330
132
100
AcDbEntity
  8
Layer 1
 62
     7
420
 16777215
370
    35
100
AcDbVertex
100
AcDb2dVertex
 10
63.07020450486255
 20
223.0260670962899
 30
0.0
  0
VERTEX
  5
143
330
132
100
AcDbEntity
  8
Layer 1
 62
     7
420
 16777215
370
    35
100
AcDbVertex
100
AcDb2dVertex
 10
62.08848480939999
 20
221.9829762662252
 30
0.0
  0
VERTEX
  5
144
330
132
100
AcDbEntity
  8
Layer 1
 62
     7
420
 16777215
370
    35
100
AcDbVertex
100
AcDb2dVertex
 10
61.04539397933585
 20
221.0012565707617
 30
0.0
  0
VERTEX
  5
145
330
132
100
AcDbEntity
  8
Layer 1
 62
     7
420
 16777215
370
    35
100
AcDbVertex
100
AcDb2dVertex
 10
60.00230314927106
 20
220.0195212711449
 30
0.0
  0
VERTEX
  5
146
330
132
100
AcDbEntity
  8
Layer 1
 62
     7
420
 16777215
370
    35
100
AcDbVertex
100
AcDb2dVertex
 10
58.83650125831235
 20
219.160512636576
 30
0.0
  0
VERTEX
  5
147
330
132
100
AcDbEntity
  8
Layer 1
 62
     7
420
 16777215
370
    35
100
AcDbVertex
100
AcDb2dVertex
 10
57.67069936735267
 20
218.3015040020061
 30
0.0
  0
VERTEX
  5
148
330
132
100
AcDbEntity
  8
Layer 1
 62
     7
420
 16777215
370
    35
100
AcDbVertex
100
AcDb2dVertex
 10
56.44354194594683
 20
217.5652064283339
 30
0.0
  0
VERTEX
  5
149
330
132
100
AcDbEntity
  8
Layer 1
 62
     7
420
 16777215
370
    35
100
AcDbVertex
100
AcDb2dVertex
 10
55.21638452454101
 20
216.8289088546579
 30
0.0
  0
VERTEX
  5
14A
330
132
100
AcDbEntity
  8
Layer 1
 62
     7
420
 16777215
370
    35
100
AcDbVertex
100
AcDb2dVertex
 10
53.92786377061081
 20
216.1539668114303
 30
0.0
  0
VERTEX
  5
14B
330
132
100
AcDbEntity
  8
Layer 1
 62
     7
420
 16777215
370
    35
100
AcDbVertex
100
AcDb2dVertex
 10
52.57798748623446
 20
215.5403959028046
 30
0.0
  0
VERTEX
  5
14C
330
132
100
AcDbEntity
  8
Layer 1
 62
     7
420
 16777215
370
    35
100
AcDbVertex
100
AcDb2dVertex
 10
51.22811120185619
 20
215.0495204509194
 30
0.0
  0
VERTEX
  5
14D
330
132
100
AcDbEntity
  8
Layer 1
 62
     7
420
 16777215
370
    35
100
AcDbVertex
100
AcDb2dVertex
 10
49.81687938703208
 20
214.5586606031883
 30
0.0
  0
VERTEX
  5
14E
330
132
100
AcDbEntity
  8
Layer 1
 62
     7
420
 16777215
370
    35
100
AcDbVertex
100
AcDb2dVertex
 10
48.40563977013105
 20
214.1291562859039
 30
0.0
  0
VERTEX
  5
14F
330
132
100
AcDbEntity
  8
Layer 1
 62
     7
420
 16777215
370
    35
100
AcDbVertex
100
AcDb2dVertex
 10
46.99440795530502
 20
213.8223630295132
 30
0.0
  0
VERTEX
  5
150
330
132
100
AcDbEntity
  8
Layer 1
 62
     7
420
 16777215
370
    35
100
AcDbVertex
100
AcDb2dVertex
 10
45.52181280795655
 20
213.5769253035719
 30
0.0
  0
VERTEX
  5
151
330
132
100
AcDbEntity
  8
Layer 1
 62
     7
420
 16777215
370
    35
100
AcDbVertex
100
AcDb2dVertex
 10
43.98786213016128
 20
213.3928587122292
 30
0.0
  0
VERTEX
  5
152
330
132
100
AcDbEntity
  8
Layer 1
 62
     7
420
 16777215
370
    35
100
AcDbVertex
100
AcDb2dVertex
 10
42.51527478488909
 20
213.2701476513343
 30
0.0
  0
VERTEX
  5
153
330
132
100
AcDbEntity
  8
Layer 1
 62
     7
420
 16777215
370
    35
100
AcDbVertex
100
AcDb2dVertex
 10
40.91996077457043
 20
213.208776516734
 30
0.0
  0
VERTEX
  5
154
330
132
100
AcDbEntity
  8
Layer 1
 62
     7
420
 16777215
370
    35
100
AcDbVertex
100
AcDb2dVertex
 10
39.3860100967742
 20
213.2701476513343
 30
0.0
  0
VERTEX
  5
155
330
132
100
AcDbEntity
  8
Layer 1
 62
     7
420
 16777215
370
    35
100
AcDbVertex
100
AcDb2dVertex
 10
37.91342275150168
 20
213.3928587122292
 30
0.0
  0
VERTEX
  5
156
330
132
100
AcDbEntity
  8
Layer 1
 62
     7
420
 16777215
370
    35
100
AcDbVertex
100
AcDb2dVertex
 10
36.37947207370545
 20
213.5769253035719
 30
0.0
  0
VERTEX
  5
157
330
132
100
AcDbEntity
  8
Layer 1
 62
     7
420
 16777215
370
    35
100
AcDbVertex
100
AcDb2dVertex
 10
34.90687692635731
 20
213.8223630295132
 30
0.0
  0
VERTEX
  5
158
330
132
100
AcDbEntity
  8
Layer 1
 62
     7
420
 16777215
370
    35
100
AcDbVertex
100
AcDb2dVertex
 10
33.49564511153191
 20
214.1291562859039
 30
0.0
  0
VERTEX
  5
159
330
132
100
AcDbEntity
  8
Layer 1
 62
     7
420
 16777215
370
    35
100
AcDbVertex
100
AcDb2dVertex
 10
32.08440549463249
 20
214.5586606031883
 30
0.0
  0
VERTEX
  5
15A
330
132
100
AcDbEntity
  8
Layer 1
 62
     7
420
 16777215
370
    35
100
AcDbVertex
100
AcDb2dVertex
 10
30.67317367980645
 20
215.0495204509194
 30
0.0
  0
VERTEX
  5
15B
330
132
100
AcDbEntity
  8
Layer 1
 62
     7
420
 16777215
370
    35
100
AcDbVertex
100
AcDb2dVertex
 10
29.32329739542882
 20
215.5403959028046
 30
0.0
  0
VERTEX
  5
15C
330
132
100
AcDbEntity
  8
Layer 1
 62
     7
420
 16777215
370
    35
100
AcDbVertex
100
AcDb2dVertex
 10
27.97342111105215
 20
216.1539668114303
 30
0.0
  0
VERTEX
  5
15D
330
132
100
AcDbEntity
  8
Layer 1
 62
     7
420
 16777215
370
    35
100
AcDbVertex
100
AcDb2dVertex
 10
26.68490035712196
 20
216.8289088546579
 30
0.0
  0
VERTEX
  5
15E
330
132
100
AcDbEntity
  8
Layer 1
 62
     7
420
 16777215
370
    35
100
AcDbVertex
100
AcDb2dVertex
 10
25.45774293571517
 20
217.5652064283339
 30
0.0
  0
VERTEX
  5
15F
330
132
100
AcDbEntity
  8
Layer 1
 62
     7
420
 16777215
370
    35
100
AcDbVertex
100
AcDb2dVertex
 10
24.2305777122337
 20
218.3015040020061
 30
0.0
  0
VERTEX
  5
160
330
132
100
AcDbEntity
  8
Layer 1
 62
     7
420
 16777215
370
    35
100
AcDbVertex
100
AcDb2dVertex
 10
23.06477582127467
 20
219.160512636576
 30
0.0
  0
VERTEX
  5
161
330
132
100
AcDbEntity
  8
Layer 1
 62
     7
420
 16777215
370
    35
100
AcDbVertex
100
AcDb2dVertex
 10
21.89897393031596
 20
220.0195212711449
 30
0.0
  0
VERTEX
  5
162
330
132
100
AcDbEntity
  8
Layer 1
 62
     7
420
 16777215
370
    35
100
AcDbVertex
100
AcDb2dVertex
 10
20.85589090232712
 20
221.0012565707617
 30
0.0
  0
VERTEX
  5
163
330
132
100
AcDbEntity
  8
Layer 1
 62
     7
420
 16777215
370
    35
100
AcDbVertex
100
AcDb2dVertex
 10
19.81280787434053
 20
221.9829762662252
 30
0.0
  0
VERTEX
  5
164
330
132
100
AcDbEntity
  8
Layer 1
 62
     7
420
 16777215
370
    35
100
AcDbVertex
100
AcDb2dVertex
 10
18.83108037680009
 20
223.0260670962899
 30
0.0
  0
VERTEX
  5
165
330
132
100
AcDbEntity
  8
Layer 1
 62
     7
420
 16777215
370
    35
100
AcDbVertex
100
AcDb2dVertex
 10
17.84934507718306
 20
224.0691579263531
 30
0.0
  0
VERTEX
  5
166
330
132
100
AcDbEntity
  8
Layer 1
 62
     7
420
 16777215
370
    35
100
AcDbVertex
100
AcDb2dVertex
 10
16.99033644261443
 20
225.2349598173125
 30
0.0
  0
VERTEX
  5
167
330
132
100
AcDbEntity
  8
Layer 1
 62
     7
420
 16777215
370
    35
100
AcDbVertex
100
AcDb2dVertex
 10
16.13132000596823
 20
226.4007617082712
 30
0.0
  0
VERTEX
  5
168
330
132
100
AcDbEntity
  8
Layer 1
 62
     7
420
 16777215
370
    35
100
AcDbVertex
100
AcDb2dVertex
 10
15.39502243229416
 20
227.6279191296774
 30
0.0
  0
VERTEX
  5
169
330
132
100
AcDbEntity
  8
Layer 1
 62
     7
420
 16777215
370
    35
100
AcDbVertex
100
AcDb2dVertex
 10
14.65873266069732
 20
228.8550765510835
 30
0.0
  0
VERTEX
  5
16A
330
132
100
AcDbEntity
  8
Layer 1
 62
     7
420
 16777215
370
    35
100
AcDbVertex
100
AcDb2dVertex
 10
13.98379061747005
 20
230.1436051070903
 30
0.0
  0
VERTEX
  5
16B
330
132
100
AcDbEntity
  8
Layer 1
 62
     7
420
 16777215
370
    35
100
AcDbVertex
100
AcDb2dVertex
 10
13.37021190676681
 20
231.4934735893904
 30
0.0
  0
VERTEX
  5
16C
330
132
100
AcDbEntity
  8
Layer 1
 62
     7
420
 16777215
370
    35
100
AcDbVertex
100
AcDb2dVertex
 10
12.87934425695846
 20
232.8433576758443
 30
0.0
  0
VERTEX
  5
16D
330
132
100
AcDbEntity
  8
Layer 1
 62
     7
420
 16777215
370
    35
100
AcDbVertex
100
AcDb2dVertex
 10
12.38848440922606
 20
234.2545816885921
 30
0.0
  0
VERTEX
  5
16E
330
132
100
AcDbEntity
  8
Layer 1
 62
     7
420
 16777215
370
    35
100
AcDbVertex
100
AcDb2dVertex
 10
11.95897228986675
 20
235.6658213054935
 30
0.0
  0
VERTEX
  5
16F
330
132
100
AcDbEntity
  8
Layer 1
 62
     7
420
 16777215
370
    35
100
AcDbVertex
100
AcDb2dVertex
 10
11.65218683555295
 20
237.0770609223951
 30
0.0
  0
VERTEX
  5
170
330
132
100
AcDbEntity
  8
Layer 1
 62
     7
420
 16777215
370
    35
100
AcDbVertex
100
AcDb2dVertex
 10
11.40675691168659
 20
238.5496560697433
 30
0.0
  0
VERTEX
  5
171
330
132
100
AcDbEntity
  8
Layer 1
 62
     7
420
 16777215
370
    35
100
AcDbVertex
100
AcDb2dVertex
 10
11.22267471619204
 20
240.0836067475398
 30
0.0
  0
VERTEX
  5
172
330
132
100
AcDbEntity
  8
Layer 1
 62
     7
420
 16777215
370
    35
100
AcDbVertex
100
AcDb2dVertex
 10
11.09996365529715
 20
241.5561862907354
 30
0.0
  0
VERTEX
  5
173
330
132
100
AcDbEntity
  8
Layer 1
 62
     7
420
 16777215
370
    35
100
AcDbVertex
100
AcDb2dVertex
 10
11.03860812484907
 20
243.1515081031316
 30
0.0
  0
VERTEX
  5
174
330
132
100
AcDbEntity
  8
Layer 1
 62
     7
420
 16777215
370
    35
100
AcDbVertex
100
AcDb2dVertex
 10
11.09996365529715
 20
244.6854587809275
 30
0.0
  0
VERTEX
  5
175
330
132
100
AcDbEntity
  8
Layer 1
 62
     7
420
 16777215
370
    35
100
AcDbVertex
100
AcDb2dVertex
 10
11.22267471619204
 20
246.1580383241231
 30
0.0
  0
VERTEX
  5
176
330
132
100
AcDbEntity
  8
Layer 1
 62
     7
420
 16777215
370
    35
100
AcDbVertex
100
AcDb2dVertex
 10
11.40675691168659
 20
247.6919890019194
 30
0.0
  0
VERTEX
  5
177
330
132
100
AcDbEntity
  8
Layer 1
 62
     7
420
 16777215
370
    35
100
AcDbVertex
100
AcDb2dVertex
 10
11.65218683555295
 20
249.1645841492675
 30
0.0
  0
VERTEX
  5
178
330
132
100
AcDbEntity
  8
Layer 1
 62
     7
420
 16777215
370
    35
100
AcDbVertex
100
AcDb2dVertex
 10
11.95897228986675
 20
250.5758237661682
 30
0.0
  0
VERTEX
  5
179
330
132
100
AcDbEntity
  8
Layer 1
 62
     7
420
 16777215
370
    35
100
AcDbVertex
100
AcDb2dVertex
 10
12.38848440922606
 20
251.9870633830709
 30
0.0
  0
VERTEX
  5
17A
330
132
100
AcDbEntity
  8
Layer 1
 62
     7
420
 16777215
370
    35
100
AcDbVertex
100
AcDb2dVertex
 10
12.87934425695846
 20
253.3982873958177
 30
0.0
  0
VERTEX
  5
17B
330
132
100
AcDbEntity
  8
Layer 1
 62
     7
420
 16777215
370
    35
100
AcDbVertex
100
AcDb2dVertex
 10
13.37021190676681
 20
254.7481714822723
 30
0.0
  0
VERTEX
  5
17C
330
132
100
AcDbEntity
  8
Layer 1
 62
     7
420
 16777215
370
    35
100
AcDbVertex
100
AcDb2dVertex
 10
13.98379061747005
 20
256.098039964573
 30
0.0
  0
VERTEX
  5
17D
330
132
100
AcDbEntity
  8
Layer 1
 62
     7
420
 16777215
370
    35
100
AcDbVertex
100
AcDb2dVertex
 10
14.65873266069732
 20
257.3865685205791
 30
0.0
  0
VERTEX
  5
17E
330
132
100
AcDbEntity
  8
Layer 1
 62
     7
420
 16777215
370
    35
100
AcDbVertex
100
AcDb2dVertex
 10
15.39502243229416
 20
258.6137259419853
 30
0.0
  0
VERTEX
  5
17F
330
132
100
AcDbEntity
  8
Layer 1
 62
     7
420
 16777215
370
    35
100
AcDbVertex
100
AcDb2dVertex
 10
16.13132000596823
 20
259.8408833633921
 30
0.0
  0
VERTEX
  5
180
330
132
100
AcDbEntity
  8
Layer 1
 62
     7
420
 16777215
370
    35
100
AcDbVertex
100
AcDb2dVertex
 10
16.99033644261443
 20
261.0066852543499
 30
0.0
  0
VERTEX
  5
181
330
132
100
AcDbEntity
  8
Layer 1
 62
     7
420
 16777215
370
    35
100
AcDbVertex
100
AcDb2dVertex
 10
17.84934507718306
 20
262.1724871453092
 30
0.0
  0
VERTEX
  5
182
330
132
100
AcDbEntity
  8
Layer 1
 62
     7
420
 16777215
370
    35
100
AcDbVertex
100
AcDb2dVertex
 10
18.83108037680009
 20
263.2155779753737
 30
0.0
  0
VERTEX
  5
183
330
132
100
AcDbEntity
  8
Layer 1
 62
     7
420
 16777215
370
    35
100
AcDbVertex
100
AcDb2dVertex
 10
19.81280787434053
 20
264.2586688054378
 30
0.0
  0
VERTEX
  5
184
330
132
100
AcDbEntity
  8
Layer 1
 62
     7
420
 16777215
370
    35
100
AcDbVertex
100
AcDb2dVertex
 10
20.85589090232712
 20
265.240388500901
 30
0.0
  0
VERTEX
  5
185
330
132
100
AcDbEntity
  8
Layer 1
 62
     7
420
 16777215
370
    35
100
AcDbVertex
100
AcDb2dVertex
 10
21.89897393031596
 20
266.2221238005174
 30
0.0
  0
VERTEX
  5
186
330
132
100
AcDbEntity
  8
Layer 1
 62
     7
420
 16777215
370
    35
100
AcDbVertex
100
AcDb2dVertex
 10
23.06477582127467
 20
267.0811324350867
 30
0.0
  0
VERTEX
  5
187
330
132
100
AcDbEntity
  8
Layer 1
 62
     7
420
 16777215
370
    35
100
AcDbVertex
100
AcDb2dVertex
 10
24.2305777122337
 20
267.940141069656
 30
0.0
  0
VERTEX
  5
188
330
132
100
AcDbEntity
  8
Layer 1
 62
     7
420
 16777215
370
    35
100
AcDbVertex
100
AcDb2dVertex
 10
25.45774293571517
 20
268.6764386433304
 30
0.0
  0
VERTEX
  5
189
330
132
100
AcDbEntity
  8
Layer 1
 62
     7
420
 16777215
370
    35
100
AcDbVertex
100
AcDb2dVertex
 10
26.68490035712196
 20
269.4127362170044
 30
0.0
  0
VERTEX
  5
18A
330
132
100
AcDbEntity
  8
Layer 1
 62
     7
420
 16777215
370
    35
100
AcDbVertex
100
AcDb2dVertex
 10
27.97342111105215
 20
270.0876782602311
 30
0.0
  0
VERTEX
  5
18B
330
132
100
AcDbEntity
  8
Layer 1
 62
     7
420
 16777215
370
    35
100
AcDbVertex
100
AcDb2dVertex
 10
29.32329739542882
 20
270.7012491688574
 30
0.0
  0
VERTEX
  5
18C
330
132
100
AcDbEntity
  8
Layer 1
 62
     7
420
 16777215
370
    35
100
AcDbVertex
100
AcDb2dVertex
 10
30.67317367980645
 20
271.1921246207423
 30
0.0
  0
VERTEX
  5
18D
330
132
100
AcDbEntity
  8
Layer 1
 62
     7
420
 16777215
370
    35
100
AcDbVertex
100
AcDb2dVertex
 10
32.08440549463249
 20
271.6829844684744
 30
0.0
  0
VERTEX
  5
18E
330
132
100
AcDbEntity
  8
Layer 1
 62
     7
420
 16777215
370
    35
100
AcDbVertex
100
AcDb2dVertex
 10
33.49564511153191
 20
272.1124887857587
 30
0.0
  0
VERTEX
  5
18F
330
132
100
AcDbEntity
  8
Layer 1
 62
     7
420
 16777215
370
    35
100
AcDbVertex
100
AcDb2dVertex
 10
34.90687692635731
 20
272.4192820421482
 30
0.0
  0
VERTEX
  5
190
330
132
100
AcDbEntity
  8
Layer 1
 62
     7
420
 16777215
370
    35
100
AcDbVertex
100
AcDb2dVertex
 10
36.37947207370545
 20
272.6647041639389
 30
0.0
  0
VERTEX
  5
191
330
132
100
AcDbEntity
  8
Layer 1
 62
     7
420
 16777215
370
    35
100
AcDbVertex
100
AcDb2dVertex
 10
37.91342275150168
 20
272.8487863594335
 30
0.0
  0
VERTEX
  5
192
330
132
100
AcDbEntity
  8
Layer 1
 62
     7
420
 16777215
370
    35
100
AcDbVertex
100
AcDb2dVertex
 10
39.3860100967742
 20
272.9714974203283
 30
0.0
  0
VERTEX
  5
193
330
132
100
AcDbEntity
  8
Layer 1
 62
     7
420
 16777215
370
    35
100
AcDbVertex
100
AcDb2dVertex
 10
40.91996077457043
 20
273.0328529507751
 30
0.0
  0
VERTEX
  5
194
330
132
100
AcDbEntity
  8
Layer 1
 62
     7
420
 16777215
370
    35
100
AcDbVertex
100
AcDb2dVertex
 10
42.51527478488909
 20
272.9714974203283
 30
0.0
  0
VERTEX
  5
195
330
132
100
AcDbEntity
  8
Layer 1
 62
     7
420
 16777215
370
    35
100
AcDbVertex
100
AcDb2dVertex
 10
43.98786213016128
 20
272.8487863594335
 30
0.0
  0
VERTEX
  5
196
330
132
100
AcDbEntity
  8
Layer 1
 62
     7
420
 16777215
370
    35
100
AcDbVertex
100
AcDb2dVertex
 10
45.52181280795655
 20
272.6647041639389
 30
0.0
  0
VERTEX
  5
197
330
132
100
AcDbEntity
  8
Layer 1
 62
     7
420
 16777215
370
    35
100
AcDbVertex
100
AcDb2dVertex
 10
46.99440795530502
 20
272.4192820421482
 30
0.0
  0
VERTEX
  5
198
330
132
100
AcDbEntity
  8
Layer 1
 62
     7
420
 16777215
370
    35
100
AcDbVertex
100
AcDb2dVertex
 10
48.40563977013105
 20
272.1124887857587
 30
0.0
  0
VERTEX
  5
199
330
132
100
AcDbEntity
  8
Layer 1
 62
     7
420
 16777215
370
    35
100
AcDbVertex
100
AcDb2dVertex
 10
49.81687938703208
 20
271.6829844684744
 30
0.0
  0
VERTEX
  5
19A
330
132
100
AcDbEntity
  8
Layer 1
 62
     7
420
 16777215
370
    35
100
AcDbVertex
100
AcDb2dVertex
 10
51.22811120185619
 20
271.1921246207423
 30
0.0
  0
VERTEX
  5
19B
330
132
100
AcDbEntity
  8
Layer 1
 62
     7
420
 16777215
370
    35
100
AcDbVertex
100
AcDb2dVertex
 10
52.57798748623446
 20
270.7012491688574
 30
0.0
  0
VERTEX
  5
19C
330
132
100
AcDbEntity
  8
Layer 1
 62
     7
420
 16777215
370
    35
100
AcDbVertex
100
AcDb2dVertex
 10
53.92786377061081
 20
270.0876782602311
 30
0.0
  0
VERTEX
  5
19D
330
132
100
AcDbEntity
  8
Layer 1
 62
     7
420
 16777215
370
    35
100
AcDbVertex
100
AcDb2dVertex
 10
55.21638452454101
 20
269.4127362170044
 30
0.0
  0
VERTEX
  5
19E
330
132
100
AcDbEntity
  8
Layer 1
 62
     7
420
 16777215
370
    35
100
AcDbVertex
100
AcDb2dVertex
 10
56.44354194594683
 20
268.6764386433304
 30
0.0
  0
VERTEX
  5
19F
330
132
100
AcDbEntity
  8
Layer 1
 62
     7
420
 16777215
370
    35
100
AcDbVertex
100
AcDb2dVertex
 10
57.67069936735267
 20
267.940141069656
 30
0.0
  0
VERTEX
  5
1A0
330
132
100
AcDbEntity
  8
Layer 1
 62
     7
420
 16777215
370
    35
100
AcDbVertex
100
AcDb2dVertex
 10
58.83650125831235
 20
267.0811324350867
 30
0.0
  0
VERTEX
  5
1A1
330
132
100
AcDbEntity
  8
Layer 1
 62
     7
420
 16777215
370
    35
100
AcDbVertex
100
AcDb2dVertex
 10
60.00230314927106
 20
266.2221238005174
 30
0.0
  0
VERTEX
  5
1A2
330
132
100
AcDbEntity
  8
Layer 1
 62
     7
420
 16777215
370
    35
100
AcDbVertex
100
AcDb2dVertex
 10
61.04539397933585
 20
265.240388500901
 30
0.0
  0
VERTEX
  5
1A3
330
132
100
AcDbEntity
  8
Layer 1
 62
     7
420
 16777215
370
    35
100
AcDbVertex
100
AcDb2dVertex
 10
62.08848480939999
 20
264.2586688054378
 30
0.0
  0
VERTEX
  5
1A4
330
132
100
AcDbEntity
  8
Layer 1
 62
     7
420
 16777215
370
    35
100
AcDbVertex
100
AcDb2dVertex
 10
63.07020450486255
 20
263.2155779753737
 30
0.0
  0
VERTEX
  5
1A5
330
132
100
AcDbEntity
  8
Layer 1
 62
     7
420
 16777215
370
    35
100
AcDbVertex
100
AcDb2dVertex
 10
64.05193980448087
 20
262.1724871453092
 30
0.0
  0
VERTEX
  5
1A6
330
132
100
AcDbEntity
  8
Layer 1
 62
     7
420
 16777215
370
    35
100
AcDbVertex
100
AcDb2dVertex
 10
64.91094843904887
 20
261.0066852543499
 30
0.0
  0
VERTEX
  5
1A7
330
132
100
AcDbEntity
  8
Layer 1
 62
     7
420
 16777215
370
    35
100
AcDbVertex
100
AcDb2dVertex
 10
65.76995707361846
 20
259.8408833633921
 30
0.0
  0
VERTEX
  5
1A8
330
132
100
AcDbEntity
  8
Layer 1
 62
     7
420
 16777215
370
    35
100
AcDbVertex
100
AcDb2dVertex
 10
66.50625464729221
 20
258.6137259419853
 30
0.0
  0
VERTEX
  5
1A9
330
132
100
AcDbEntity
  8
Layer 1
 62
     7
420
 16777215
370
    35
100
AcDbVertex
100
AcDb2dVertex
 10
67.24255222096693
 20
257.3865685205791
 30
0.0
  0
VERTEX
  5
1AA
330
132
100
AcDbEntity
  8
Layer 1
 62
     7
420
 16777215
370
    35
100
AcDbVertex
100
AcDb2dVertex
 10
67.91749426419388
 20
256.098039964573
 30
0.0
  0
VERTEX
  5
1AB
330
132
100
AcDbEntity
  8
Layer 1
 62
     7
420
 16777215
370
    35
100
AcDbVertex
100
AcDb2dVertex
 10
68.53106517281891
 20
254.7481714822723
 30
0.0
  0
VERTEX
  5
1AC
330
132
100
AcDbEntity
  8
Layer 1
 62
     7
420
 16777215
370
    35
100
AcDbVertex
100
AcDb2dVertex
 10
69.02194062470515
 20
253.3982873958177
 30
0.0
  0
VERTEX
  5
1AD
330
132
100
AcDbEntity
  8
Layer 1
 62
     7
420
 16777215
370
    35
100
AcDbVertex
100
AcDb2dVertex
 10
69.51280047243627
 20
251.9870633830709
 30
0.0
  0
VERTEX
  5
1AE
330
132
100
AcDbEntity
  8
Layer 1
 62
     7
420
 16777215
370
    35
100
AcDbVertex
100
AcDb2dVertex
 10
69.94230478972027
 20
250.5758237661682
 30
0.0
  0
VERTEX
  5
1AF
330
132
100
AcDbEntity
  8
Layer 1
 62
     7
420
 16777215
370
    35
100
AcDbVertex
100
AcDb2dVertex
 10
70.24909804611033
 20
249.1645841492675
 30
0.0
  0
VERTEX
  5
1B0
330
132
100
AcDbEntity
  8
Layer 1
 62
     7
420
 16777215
370
    35
100
AcDbVertex
100
AcDb2dVertex
 10
70.49453577205426
 20
247.6919890019194
 30
0.0
  0
VERTEX
  5
1B1
330
132
100
AcDbEntity
  8
Layer 1
 62
     7
420
 16777215
370
    35
100
AcDbVertex
100
AcDb2dVertex
 10
70.67860236339563
 20
246.1580383241231
 30
0.0
  0
VERTEX
  5
1B2
330
132
100
AcDbEntity
  8
Layer 1
 62
     7
420
 16777215
370
    35
100
AcDbVertex
100
AcDb2dVertex
 10
70.80131342428922
 20
244.6854587809275
 30
0.0
  0
VERTEX
  5
1B3
330
132
100
AcDbEntity
  8
Layer 1
 62
     7
420
 16777215
370
    35
100
AcDbVertex
100
AcDb2dVertex
 10
70.86268455888985
 20
243.1515081031316
 30
0.0
  0
SEQEND
  5
1B4
330
132
100
AcDbEntity
  8
Layer 1
 62
     7
420
 16777215
370
    35
  0
POLYLINE
  5
1B5
330
1F
100
AcDbEntity
  8
Layer 1
 62
     7
420
 16777215
370
    35
100
AcDb2dPolyline
 66
     1
 10
0.0
 20
0.0
 30
0.0
  0
VERTEX
  5
1B6
330
1B5
100
AcDbEntity
  8
Layer 1
 62
     7
420
 16777215
370
    35
100
AcDbVertex
100
AcDb2dVertex
 10
64.97231957364917
 20
254.1345849694925
 30
0.0
  0
VERTEX
  5
1B7
330
1B5
100
AcDbEntity
  8
Layer 1
 62
     7
420
 16777215
370
    35
100
AcDbVertex
100
AcDb2dVertex
 10
64.60417078681262
 20
254.8708669390133
 30
0.0
  0
VERTEX
  5
1B8
330
1B5
100
AcDbEntity
  8
Layer 1
 62
     7
420
 16777215
370
    35
100
AcDbVertex
100
AcDb2dVertex
 10
64.2360219999751
 20
255.668535647289
 30
0.0
  0
VERTEX
  5
1B9
330
1B5
100
AcDbEntity
  8
Layer 1
 62
     7
420
 16777215
370
    35
100
AcDbVertex
100
AcDb2dVertex
 10
63.37699776125327
 20
257.0797596600359
 30
0.0
  0
VERTEX
  5
1BA
330
1B5
100
AcDbEntity
  8
Layer 1
 62
     7
420
 16777215
370
    35
100
AcDbVertex
100
AcDb2dVertex
 10
62.45663359623816
 20
258.4909992769372
 30
0.0
  0
VERTEX
  5
1BB
330
1B5
100
AcDbEntity
  8
Layer 1
 62
     7
420
 16777215
370
    35
100
AcDbVertex
100
AcDb2dVertex
 10
61.47489829661952
 20
259.7795122287915
 30
0.0
  0
VERTEX
  5
1BC
330
1B5
100
AcDbEntity
  8
Layer 1
 62
     7
420
 16777215
370
    35
100
AcDbVertex
100
AcDb2dVertex
 10
60.37046754026208
 20
261.0680407847983
 30
0.0
  0
VERTEX
  5
1BD
330
1B5
100
AcDbEntity
  8
Layer 1
 62
     7
420
 16777215
370
    35
100
AcDbVertex
100
AcDb2dVertex
 10
59.20465004514826
 20
262.2338426757566
 30
0.0
  0
VERTEX
  5
1BE
330
1B5
100
AcDbEntity
  8
Layer 1
 62
     7
420
 16777215
370
    35
100
AcDbVertex
100
AcDb2dVertex
 10
57.97749262374275
 20
263.3382890362686
 30
0.0
  0
VERTEX
  5
1BF
330
1B5
100
AcDbEntity
  8
Layer 1
 62
     7
420
 16777215
370
    35
100
AcDbVertex
100
AcDb2dVertex
 10
56.68897967189011
 20
264.3813642621792
 30
0.0
  0
VERTEX
  5
1C0
330
1B5
100
AcDbEntity
  8
Layer 1
 62
     7
420
 16777215
370
    35
100
AcDbVertex
100
AcDb2dVertex
 10
55.27774785706472
 20
265.3017440313478
 30
0.0
  0
VERTEX
  5
1C1
330
1B5
100
AcDbEntity
  8
Layer 1
 62
     7
420
 16777215
370
    35
100
AcDbVertex
100
AcDb2dVertex
 10
53.86651604224157
 20
266.1607526659171
 30
0.0
  0
VERTEX
  5
1C2
330
1B5
100
AcDbEntity
  8
Layer 1
 62
     7
420
 16777215
370
    35
100
AcDbVertex
100
AcDb2dVertex
 10
52.39392089489278
 20
266.9584057700392
 30
0.0
  0
VERTEX
  5
1C3
330
1B5
100
AcDbEntity
  8
Layer 1
 62
     7
420
 16777215
370
    35
100
AcDbVertex
100
AcDb2dVertex
 10
51.65762332121775
 20
267.265199026429
 30
0.0
  0
VERTEX
  5
1C4
330
1B5
100
AcDbEntity
  8
Layer 1
 62
     7
420
 16777215
370
    35
100
AcDbVertex
100
AcDb2dVertex
 10
50.85997021709687
 20
267.6333478132652
 30
0.0
  0
VERTEX
  5
1C5
330
1B5
100
AcDbEntity
  8
Layer 1
 62
     7
420
 16777215
370
    35
100
AcDbVertex
100
AcDb2dVertex
 10
50.06231711297568
 20
267.940141069656
 30
0.0
  0
VERTEX
  5
1C6
330
1B5
100
AcDbEntity
  8
Layer 1
 62
     7
420
 16777215
370
    35
100
AcDbVertex
100
AcDb2dVertex
 10
49.2646640088516
 20
268.1855631914448
 30
0.0
  0
VERTEX
  5
1C7
330
1B5
100
AcDbEntity
  8
Layer 1
 62
     7
420
 16777215
370
    35
100
AcDbVertex
100
AcDb2dVertex
 10
48.46700310265413
 20
268.4310009173874
 30
0.0
  0
VERTEX
  5
1C8
330
1B5
100
AcDbEntity
  8
Layer 1
 62
     7
420
 16777215
370
    35
100
AcDbVertex
100
AcDb2dVertex
 10
47.60799446808517
 20
268.6764230391768
 30
0.0
  0
VERTEX
  5
1C9
330
1B5
100
AcDbEntity
  8
Layer 1
 62
     7
420
 16777215
370
    35
100
AcDbVertex
100
AcDb2dVertex
 10
46.81034136396398
 20
268.860505234672
 30
0.0
  0
VERTEX
  5
1CA
330
1B5
100
AcDbEntity
  8
Layer 1
 62
     7
420
 16777215
370
    35
100
AcDbVertex
100
AcDb2dVertex
 10
45.95132492731939
 20
269.0445718260137
 30
0.0
  0
VERTEX
  5
1CB
330
1B5
100
AcDbEntity
  8
Layer 1
 62
     7
420
 16777215
370
    35
100
AcDbVertex
100
AcDb2dVertex
 10
45.09231629275075
 20
269.2286540215092
 30
0.0
  0
VERTEX
  5
1CC
330
1B5
100
AcDbEntity
  8
Layer 1
 62
     7
420
 16777215
370
    35
100
AcDbVertex
100
AcDb2dVertex
 10
44.23329985610456
 20
269.3513650824034
 30
0.0
  0
VERTEX
  5
1CD
330
1B5
100
AcDbEntity
  8
Layer 1
 62
     7
420
 16777215
370
    35
100
AcDbVertex
100
AcDb2dVertex
 10
44.96959742977799
 20
254.0118583044444
 30
0.0
  0
VERTEX
  5
1CE
330
1B5
100
AcDbEntity
  8
Layer 1
 62
     7
420
 16777215
370
    35
100
AcDbVertex
100
AcDb2dVertex
 10
44.96959742977799
 20
253.5823539871591
 30
0.0
  0
VERTEX
  5
1CF
330
1B5
100
AcDbEntity
  8
Layer 1
 62
     7
420
 16777215
370
    35
100
AcDbVertex
100
AcDb2dVertex
 10
45.09231629275075
 20
253.1528496698761
 30
0.0
  0
VERTEX
  5
1D0
330
1B5
100
AcDbEntity
  8
Layer 1
 62
     7
420
 16777215
370
    35
100
AcDbVertex
100
AcDb2dVertex
 10
45.21502735364403
 20
252.7847008830385
 30
0.0
  0
VERTEX
  5
1D1
330
1B5
100
AcDbEntity
  8
Layer 1
 62
     7
420
 16777215
370
    35
100
AcDbVertex
100
AcDb2dVertex
 10
45.39910174706295
 20
252.3551965657539
 30
0.0
  0
VERTEX
  5
1D2
330
1B5
100
AcDbEntity
  8
Layer 1
 62
     7
420
 16777215
370
    35
100
AcDbVertex
100
AcDb2dVertex
 10
45.58317614047962
 20
251.987047778917
 30
0.0
  0
VERTEX
  5
1D3
330
1B5
100
AcDbEntity
  8
Layer 1
 62
     7
420
 16777215
370
    35
100
AcDbVertex
100
AcDb2dVertex
 10
45.82861386642323
 20
251.6802545225273
 30
0.0
  0
VERTEX
  5
1D4
330
1B5
100
AcDbEntity
  8
Layer 1
 62
     7
420
 16777215
370
    35
100
AcDbVertex
100
AcDb2dVertex
 10
46.13539932073702
 20
251.3734612661372
 30
0.0
  0
VERTEX
  5
1D5
330
1B5
100
AcDbEntity
  8
Layer 1
 62
     7
420
 16777215
370
    35
100
AcDbVertex
100
AcDb2dVertex
 10
46.44219257712678
 20
251.0666836139006
 30
0.0
  0
VERTEX
  5
1D6
330
1B5
100
AcDbEntity
  8
Layer 1
 62
     7
420
 16777215
370
    35
100
AcDbVertex
100
AcDb2dVertex
 10
46.81034136396398
 20
250.821245887958
 30
0.0
  0
VERTEX
  5
1D7
330
1B5
100
AcDbEntity
  8
Layer 1
 62
     7
420
 16777215
370
    35
100
AcDbVertex
100
AcDb2dVertex
 10
47.23984568124798
 20
250.5758081620157
 30
0.0
  0
VERTEX
  5
1D8
330
1B5
100
AcDbEntity
  8
Layer 1
 62
     7
420
 16777215
370
    35
100
AcDbVertex
100
AcDb2dVertex
 10
47.66934999853294
 20
250.3917415706737
 30
0.0
  0
VERTEX
  5
1D9
330
1B5
100
AcDbEntity
  8
Layer 1
 62
     7
420
 16777215
370
    35
100
AcDbVertex
100
AcDb2dVertex
 10
48.09886211789449
 20
250.2690149056262
 30
0.0
  0
VERTEX
  5
1DA
330
1B5
100
AcDbEntity
  8
Layer 1
 62
     7
420
 16777215
370
    35
100
AcDbVertex
100
AcDb2dVertex
 10
48.52836643517945
 20
250.2076593751779
 30
0.0
  0
VERTEX
  5
1DB
330
1B5
100
AcDbEntity
  8
Layer 1
 62
     7
420
 16777215
370
    35
100
AcDbVertex
100
AcDb2dVertex
 10
48.9578707524628
 20
250.2076593751779
 30
0.0
  0
VERTEX
  5
1DC
330
1B5
100
AcDbEntity
  8
Layer 1
 62
     7
420
 16777215
370
    35
100
AcDbVertex
100
AcDb2dVertex
 10
49.44873840227051
 20
250.2076593751779
 30
0.0
  0
VERTEX
  5
1DD
330
1B5
100
AcDbEntity
  8
Layer 1
 62
     7
420
 16777215
370
    35
100
AcDbVertex
100
AcDb2dVertex
 10
49.8782427195574
 20
250.3303860402266
 30
0.0
  0
VERTEX
  5
1DE
330
1B5
100
AcDbEntity
  8
Layer 1
 62
     7
420
 16777215
370
    35
100
AcDbVertex
100
AcDb2dVertex
 10
64.97231957364917
 20
254.1345849694925
 30
0.0
  0
SEQEND
  5
1DF
330
1B5
100
AcDbEntity
  8
Layer 1
 62
     7
420
 16777215
370
    35
  0
POLYLINE
  5
1E0
330
1F
100
AcDbEntity
  8
Layer 1
 62
     7
420
 16777215
370
    35
100
AcDb2dPolyline
 66
     1
 10
0.0
 20
0.0
 30
0.0
  0
VERTEX
  5
1E1
330
1E0
100
AcDbEntity
  8
Layer 1
 62
     7
420
 16777215
370
    35
100
AcDbVertex
100
AcDb2dVertex
 10
78.31605296941842
 20
252.618778101759
 30
0.0
  0
VERTEX
  5
1E2
330
1E0
100
AcDbEntity
  8
Layer 1
 62
     7
420
 16777215
370
    35
100
AcDbVertex
100
AcDb2dVertex
 10
93.41012202143489
 20
248.9372902333874
 30
0.0
  0
VERTEX
  5
1E3
330
1E0
100
AcDbEntity
  8
Layer 1
 62
     7
420
 16777215
370
    35
100
AcDbVertex
100
AcDb2dVertex
 10
93.83962633871953
 20
248.8145791724918
 30
0.0
  0
VERTEX
  5
1E4
330
1E0
100
AcDbEntity
  8
Layer 1
 62
     7
420
 16777215
370
    35
100
AcDbVertex
100
AcDb2dVertex
 10
94.26913845808107
 20
248.8145791724918
 30
0.0
  0
VERTEX
  5
1E5
330
1E0
100
AcDbEntity
  8
Layer 1
 62
     7
420
 16777215
370
    35
100
AcDbVertex
100
AcDb2dVertex
 10
94.6986427753654
 20
248.8145791724918
 30
0.0
  0
VERTEX
  5
1E6
330
1E0
100
AcDbEntity
  8
Layer 1
 62
     7
420
 16777215
370
    35
100
AcDbVertex
100
AcDb2dVertex
 10
95.12814709265035
 20
248.8759347029409
 30
0.0
  0
VERTEX
  5
1E7
330
1E0
100
AcDbEntity
  8
Layer 1
 62
     7
420
 16777215
370
    35
100
AcDbVertex
100
AcDb2dVertex
 10
95.49629587948627
 20
248.9372902333874
 30
0.0
  0
VERTEX
  5
1E8
330
1E0
100
AcDbEntity
  8
Layer 1
 62
     7
420
 16777215
370
    35
100
AcDbVertex
100
AcDb2dVertex
 10
95.92580019677155
 20
249.1213568247297
 30
0.0
  0
VERTEX
  5
1E9
330
1E0
100
AcDbEntity
  8
Layer 1
 62
     7
420
 16777215
370
    35
100
AcDbVertex
100
AcDb2dVertex
 10
96.2939489836081
 20
249.3054390202239
 30
0.0
  0
VERTEX
  5
1EA
330
1E0
100
AcDbEntity
  8
Layer 1
 62
     7
420
 16777215
370
    35
100
AcDbVertex
100
AcDb2dVertex
 10
96.6620977704453
 20
249.5508767461672
 30
0.0
  0
VERTEX
  5
1EB
330
1E0
100
AcDbEntity
  8
Layer 1
 62
     7
420
 16777215
370
    35
100
AcDbVertex
100
AcDb2dVertex
 10
97.03024655728443
 20
249.796298867956
 30
0.0
  0
VERTEX
  5
1EC
330
1E0
100
AcDbEntity
  8
Layer 1
 62
     7
420
 16777215
370
    35
100
AcDbVertex
100
AcDb2dVertex
 10
97.33703981367225
 20
250.1030921243458
 30
0.0
  0
VERTEX
  5
1ED
330
1E0
100
AcDbEntity
  8
Layer 1
 62
     7
420
 16777215
370
    35
100
AcDbVertex
100
AcDb2dVertex
 10
97.6438252679851
 20
250.471240911183
 30
0.0
  0
VERTEX
  5
1EE
330
1E0
100
AcDbEntity
  8
Layer 1
 62
     7
420
 16777215
370
    35
100
AcDbVertex
100
AcDb2dVertex
 10
97.88926299392934
 20
250.9007452284679
 30
0.0
  0
VERTEX
  5
1EF
330
1E0
100
AcDbEntity
  8
Layer 1
 62
     7
420
 16777215
370
    35
100
AcDbVertex
100
AcDb2dVertex
 10
98.07333738734633
 20
251.2688940153051
 30
0.0
  0
VERTEX
  5
1F0
330
1E0
100
AcDbEntity
  8
Layer 1
 62
     7
420
 16777215
370
    35
100
AcDbVertex
100
AcDb2dVertex
 10
98.19604844824121
 20
251.698398332591
 30
0.0
  0
VERTEX
  5
1F1
330
1E0
100
AcDbEntity
  8
Layer 1
 62
     7
420
 16777215
370
    35
100
AcDbVertex
100
AcDb2dVertex
 10
98.31876731121204
 20
252.1892581803209
 30
0.0
  0
VERTEX
  5
1F2
330
1E0
100
AcDbEntity
  8
Layer 1
 62
     7
420
 16777215
370
    35
100
AcDbVertex
100
AcDb2dVertex
 10
98.38012284166045
 20
252.618778101759
 30
0.0
  0
VERTEX
  5
1F3
330
1E0
100
AcDbEntity
  8
Layer 1
 62
     7
420
 16777215
370
    35
100
AcDbVertex
100
AcDb2dVertex
 10
99.11642041533452
 20
267.7742026842223
 30
0.0
  0
VERTEX
  5
1F4
330
1E0
100
AcDbEntity
  8
Layer 1
 62
     7
420
 16777215
370
    35
100
AcDbVertex
100
AcDb2dVertex
 10
98.25741178076557
 20
267.651491623329
 30
0.0
  0
VERTEX
  5
1F5
330
1E0
100
AcDbEntity
  8
Layer 1
 62
     7
420
 16777215
370
    35
100
AcDbVertex
100
AcDb2dVertex
 10
97.39839534411969
 20
267.5287649582809
 30
0.0
  0
VERTEX
  5
1F6
330
1E0
100
AcDbEntity
  8
Layer 1
 62
     7
420
 16777215
370
    35
100
AcDbVertex
100
AcDb2dVertex
 10
96.60074223999914
 20
267.3446983669393
 30
0.0
  0
VERTEX
  5
1F7
330
1E0
100
AcDbEntity
  8
Layer 1
 62
     7
420
 16777215
370
    35
100
AcDbVertex
100
AcDb2dVertex
 10
95.74172580335326
 20
267.1606161714437
 30
0.0
  0
VERTEX
  5
1F8
330
1E0
100
AcDbEntity
  8
Layer 1
 62
     7
420
 16777215
370
    35
100
AcDbVertex
100
AcDb2dVertex
 10
94.94407269923111
 20
266.915194049654
 30
0.0
  0
VERTEX
  5
1F9
330
1E0
100
AcDbEntity
  8
Layer 1
 62
     7
420
 16777215
370
    35
100
AcDbVertex
100
AcDb2dVertex
 10
94.0850640646612
 20
266.6697563237117
 30
0.0
  0
VERTEX
  5
1FA
330
1E0
100
AcDbEntity
  8
Layer 1
 62
     7
420
 16777215
370
    35
100
AcDbVertex
100
AcDb2dVertex
 10
93.28741096054031
 20
266.3629630673219
 30
0.0
  0
VERTEX
  5
1FB
330
1E0
100
AcDbEntity
  8
Layer 1
 62
     7
420
 16777215
370
    35
100
AcDbVertex
100
AcDb2dVertex
 10
92.48975005434221
 20
266.056185415085
 30
0.0
  0
VERTEX
  5
1FC
330
1E0
100
AcDbEntity
  8
Layer 1
 62
     7
420
 16777215
370
    35
100
AcDbVertex
100
AcDb2dVertex
 10
91.75346028274441
 20
265.7493921586949
 30
0.0
  0
VERTEX
  5
1FD
330
1E0
100
AcDbEntity
  8
Layer 1
 62
     7
420
 16777215
370
    35
100
AcDbVertex
100
AcDb2dVertex
 10
90.95579937654534
 20
265.3812433718577
 30
0.0
  0
VERTEX
  5
1FE
330
1E0
100
AcDbEntity
  8
Layer 1
 62
     7
420
 16777215
370
    35
100
AcDbVertex
100
AcDb2dVertex
 10
89.48321203127475
 20
264.6449457981834
 30
0.0
  0
VERTEX
  5
1FF
330
1E0
100
AcDbEntity
  8
Layer 1
 62
     7
420
 16777215
370
    35
100
AcDbVertex
100
AcDb2dVertex
 10
88.07197241437277
 20
263.785937163615
 30
0.0
  0
VERTEX
  5
200
330
1E0
100
AcDbEntity
  8
Layer 1
 62
     7
420
 16777215
370
    35
100
AcDbVertex
100
AcDb2dVertex
 10
86.66074059954865
 20
262.8042018639977
 30
0.0
  0
VERTEX
  5
201
330
1E0
100
AcDbEntity
  8
Layer 1
 62
     7
420
 16777215
370
    35
100
AcDbVertex
100
AcDb2dVertex
 10
85.37221984561846
 20
261.7611110339348
 30
0.0
  0
VERTEX
  5
202
330
1E0
100
AcDbEntity
  8
Layer 1
 62
     7
420
 16777215
370
    35
100
AcDbVertex
100
AcDb2dVertex
 10
84.14506242421263
 20
260.6566646734226
 30
0.0
  0
VERTEX
  5
203
330
1E0
100
AcDbEntity
  8
Layer 1
 62
     7
420
 16777215
370
    35
100
AcDbVertex
100
AcDb2dVertex
 10
82.97926053325263
 20
259.4908627824642
 30
0.0
  0
VERTEX
  5
204
330
1E0
100
AcDbEntity
  8
Layer 1
 62
     7
420
 16777215
370
    35
100
AcDbVertex
100
AcDb2dVertex
 10
81.87481417274168
 20
258.2637053610577
 30
0.0
  0
VERTEX
  5
205
330
1E0
100
AcDbEntity
  8
Layer 1
 62
     7
420
 16777215
370
    35
100
AcDbVertex
100
AcDb2dVertex
 10
80.83173114475413
 20
256.9138368787567
 30
0.0
  0
VERTEX
  5
206
330
1E0
100
AcDbEntity
  8
Layer 1
 62
     7
420
 16777215
370
    35
100
AcDbVertex
100
AcDb2dVertex
 10
79.91135917766114
 20
255.5639527923028
 30
0.0
  0
VERTEX
  5
207
330
1E0
100
AcDbEntity
  8
Layer 1
 62
     7
420
 16777215
370
    35
100
AcDbVertex
100
AcDb2dVertex
 10
79.0523427410159
 20
254.0913576449546
 30
0.0
  0
VERTEX
  5
208
330
1E0
100
AcDbEntity
  8
Layer 1
 62
     7
420
 16777215
370
    35
100
AcDbVertex
100
AcDb2dVertex
 10
78.68419395417871
 20
253.3550600712793
 30
0.0
  0
VERTEX
  5
209
330
1E0
100
AcDbEntity
  8
Layer 1
 62
     7
420
 16777215
370
    35
100
AcDbVertex
100
AcDb2dVertex
 10
78.31605296941842
 20
252.618778101759
 30
0.0
  0
SEQEND
  5
20A
330
1E0
100
AcDbEntity
  8
Layer 1
 62
     7
420
 16777215
370
    35
  0
POLYLINE
  5
20B
330
1F
100
AcDbEntity
  8
Layer 1
 62
     7
420
 16777215
370
    35
100
AcDb2dPolyline
 66
     1
 10
0.0
 20
0.0
 30
0.0
  0
VERTEX
  5
20C
330
20B
100
AcDbEntity
  8
Layer 1
 62
     7
420
 16777215
370
    35
100
AcDbVertex
100
AcDb2dVertex
 10
83.89963250034627
 20
222.6760621195152
 30
0.0
  0
VERTEX
  5
20D
330
20B
100
AcDbEntity
  8
Layer 1
 62
     7
420
 16777215
370
    35
100
AcDbVertex
100
AcDb2dVertex
 10
92.42839452389413
 20
234.9476675418819
 30
0.0
  0
VERTEX
  5
20E
330
20B
100
AcDbEntity
  8
Layer 1
 62
     7
420
 16777215
370
    35
100
AcDbVertex
100
AcDb2dVertex
 10
92.67382444776145
 20
235.2544451941184
 30
0.0
  0
VERTEX
  5
20F
330
20B
100
AcDbEntity
  8
Layer 1
 62
     7
420
 16777215
370
    35
100
AcDbVertex
100
AcDb2dVertex
 10
92.8578988411794
 20
235.6839495114034
 30
0.0
  0
VERTEX
  5
210
330
20B
100
AcDbEntity
  8
Layer 1
 62
     7
420
 16777215
370
    35
100
AcDbVertex
100
AcDb2dVertex
 10
93.041973234598
 20
236.0520982982403
 30
0.0
  0
VERTEX
  5
211
330
20B
100
AcDbEntity
  8
Layer 1
 62
     7
420
 16777215
370
    35
100
AcDbVertex
100
AcDb2dVertex
 10
93.10333656712108
 20
236.4816182196771
 30
0.0
  0
VERTEX
  5
212
330
20B
100
AcDbEntity
  8
Layer 1
 62
     7
420
 16777215
370
    35
100
AcDbVertex
100
AcDb2dVertex
 10
93.22604762801596
 20
236.8497514023621
 30
0.0
  0
VERTEX
  5
213
330
20B
100
AcDbEntity
  8
Layer 1
 62
     7
420
 16777215
370
    35
100
AcDbVertex
100
AcDb2dVertex
 10
93.22604762801596
 20
237.2792713237999
 30
0.0
  0
VERTEX
  5
214
330
20B
100
AcDbEntity
  8
Layer 1
 62
     7
420
 16777215
370
    35
100
AcDbVertex
100
AcDb2dVertex
 10
93.22604762801596
 20
237.7087756410839
 30
0.0
  0
VERTEX
  5
215
330
20B
100
AcDbEntity
  8
Layer 1
 62
     7
420
 16777215
370
    35
100
AcDbVertex
100
AcDb2dVertex
 10
93.10333656712108
 20
238.1382799583686
 30
0.0
  0
VERTEX
  5
216
330
20B
100
AcDbEntity
  8
Layer 1
 62
     7
420
 16777215
370
    35
100
AcDbVertex
100
AcDb2dVertex
 10
92.98061770414961
 20
238.5677842756529
 30
0.0
  0
VERTEX
  5
217
330
20B
100
AcDbEntity
  8
Layer 1
 62
     7
420
 16777215
370
    35
100
AcDbVertex
100
AcDb2dVertex
 10
92.8578988411794
 20
238.9972885929375
 30
0.0
  0
VERTEX
  5
218
330
20B
100
AcDbEntity
  8
Layer 1
 62
     7
420
 16777215
370
    35
100
AcDbVertex
100
AcDb2dVertex
 10
92.612468917314
 20
239.4267929102225
 30
0.0
  0
VERTEX
  5
219
330
20B
100
AcDbEntity
  8
Layer 1
 62
     7
420
 16777215
370
    35
100
AcDbVertex
100
AcDb2dVertex
 10
92.36703899344796
 20
239.794941697059
 30
0.0
  0
VERTEX
  5
21A
330
20B
100
AcDbEntity
  8
Layer 1
 62
     7
420
 16777215
370
    35
100
AcDbVertex
100
AcDb2dVertex
 10
92.0602457370579
 20
240.1017349534485
 30
0.0
  0
VERTEX
  5
21B
330
20B
100
AcDbEntity
  8
Layer 1
 62
     7
420
 16777215
370
    35
100
AcDbVertex
100
AcDb2dVertex
 10
91.69209695022037
 20
240.4085282098389
 30
0.0
  0
VERTEX
  5
21C
330
20B
100
AcDbEntity
  8
Layer 1
 62
     7
420
 16777215
370
    35
100
AcDbVertex
100
AcDb2dVertex
 10
91.32394816338349
 20
240.715321466228
 30
0.0
  0
VERTEX
  5
21D
330
20B
100
AcDbEntity
  8
Layer 1
 62
     7
420
 16777215
370
    35
100
AcDbVertex
100
AcDb2dVertex
 10
90.89444384609854
 20
240.8993880575709
 30
0.0
  0
VERTEX
  5
21E
330
20B
100
AcDbEntity
  8
Layer 1
 62
     7
420
 16777215
370
    35
100
AcDbVertex
100
AcDb2dVertex
 10
76.41394570270808
 20
246.4829753905751
 30
0.0
  0
VERTEX
  5
21F
330
20B
100
AcDbEntity
  8
Layer 1
 62
     7
420
 16777215
370
    35
100
AcDbVertex
100
AcDb2dVertex
 10
76.16851577884333
 20
245.317173499616
 30
0.0
  0
VERTEX
  5
220
330
20B
100
AcDbEntity
  8
Layer 1
 62
     7
420
 16777215
370
    35
100
AcDbVertex
100
AcDb2dVertex
 10
76.0458047179478
 20
244.0900004740567
 30
0.0
  0
VERTEX
  5
221
330
20B
100
AcDbEntity
  8
Layer 1
 62
     7
420
 16777215
370
    35
100
AcDbVertex
100
AcDb2dVertex
 10
75.92308585497665
 20
242.8014875222028
 30
0.0
  0
VERTEX
  5
222
330
20B
100
AcDbEntity
  8
Layer 1
 62
     7
420
 16777215
370
    35
100
AcDbVertex
100
AcDb2dVertex
 10
75.92308585497665
 20
241.5743301007976
 30
0.0
  0
VERTEX
  5
223
330
20B
100
AcDbEntity
  8
Layer 1
 62
     7
420
 16777215
370
    35
100
AcDbVertex
100
AcDb2dVertex
 10
75.98444138542376
 20
240.1630904838959
 30
0.0
  0
VERTEX
  5
224
330
20B
100
AcDbEntity
  8
Layer 1
 62
     7
420
 16777215
370
    35
100
AcDbVertex
100
AcDb2dVertex
 10
76.0458047179478
 20
238.8132220015952
 30
0.0
  0
VERTEX
  5
225
330
20B
100
AcDbEntity
  8
Layer 1
 62
     7
420
 16777215
370
    35
100
AcDbVertex
100
AcDb2dVertex
 10
76.2298791113664
 20
237.4633379151419
 30
0.0
  0
VERTEX
  5
226
330
20B
100
AcDbEntity
  8
Layer 1
 62
     7
420
 16777215
370
    35
100
AcDbVertex
100
AcDb2dVertex
 10
76.47530903523275
 20
236.1134694328409
 30
0.0
  0
VERTEX
  5
227
330
20B
100
AcDbEntity
  8
Layer 1
 62
     7
420
 16777215
370
    35
100
AcDbVertex
100
AcDb2dVertex
 10
76.78209448954463
 20
234.8249408768335
 30
0.0
  0
VERTEX
  5
228
330
20B
100
AcDbEntity
  8
Layer 1
 62
     7
420
 16777215
370
    35
100
AcDbVertex
100
AcDb2dVertex
 10
77.15024327638376
 20
233.5977834554283
 30
0.0
  0
VERTEX
  5
229
330
20B
100
AcDbEntity
  8
Layer 1
 62
     7
420
 16777215
370
    35
100
AcDbVertex
100
AcDb2dVertex
 10
77.57975539574403
 20
232.309270503575
 30
0.0
  0
VERTEX
  5
22A
330
20B
100
AcDbEntity
  8
Layer 1
 62
     7
420
 16777215
370
    35
100
AcDbVertex
100
AcDb2dVertex
 10
78.07061524347515
 20
231.143468612616
 30
0.0
  0
VERTEX
  5
22B
330
20B
100
AcDbEntity
  8
Layer 1
 62
     7
420
 16777215
370
    35
100
AcDbVertex
100
AcDb2dVertex
 10
78.62283842373127
 20
229.9162955870563
 30
0.0
  0
VERTEX
  5
22C
330
20B
100
AcDbEntity
  8
Layer 1
 62
     7
420
 16777215
370
    35
100
AcDbVertex
100
AcDb2dVertex
 10
79.17506160398803
 20
228.8118648306982
 30
0.0
  0
VERTEX
  5
22D
330
20B
100
AcDbEntity
  8
Layer 1
 62
     7
420
 16777215
370
    35
100
AcDbVertex
100
AcDb2dVertex
 10
79.84999584513774
 20
227.6460473355863
 30
0.0
  0
VERTEX
  5
22E
330
20B
100
AcDbEntity
  8
Layer 1
 62
     7
420
 16777215
370
    35
100
AcDbVertex
100
AcDb2dVertex
 10
80.58629341881246
 20
226.6029721096754
 30
0.0
  0
VERTEX
  5
22F
330
20B
100
AcDbEntity
  8
Layer 1
 62
     7
420
 16777215
370
    35
100
AcDbVertex
100
AcDb2dVertex
 10
81.32259099248556
 20
225.5598812796109
 30
0.0
  0
VERTEX
  5
230
330
20B
100
AcDbEntity
  8
Layer 1
 62
     7
420
 16777215
370
    35
100
AcDbVertex
100
AcDb2dVertex
 10
82.12024409660675
 20
224.5167904495474
 30
0.0
  0
VERTEX
  5
231
330
20B
100
AcDbEntity
  8
Layer 1
 62
     7
420
 16777215
370
    35
100
AcDbVertex
100
AcDb2dVertex
 10
82.97926053325263
 20
223.5964262845307
 30
0.0
  0
VERTEX
  5
232
330
20B
100
AcDbEntity
  8
Layer 1
 62
     7
420
 16777215
370
    35
100
AcDbVertex
100
AcDb2dVertex
 10
83.89963250034627
 20
222.6760621195152
 30
0.0
  0
SEQEND
  5
233
330
20B
100
AcDbEntity
  8
Layer 1
 62
     7
420
 16777215
370
    35
  0
POLYLINE
  5
234
330
1F
100
AcDbEntity
  8
Layer 1
 62
     7
420
 16777215
370
    35
100
AcDb2dPolyline
 66
     1
 10
0.0
 20
0.0
 30
0.0
  0
VERTEX
  5
235
330
234
100
AcDbEntity
  8
Layer 1
 62
     7
420
 16777215
370
    35
100
AcDbVertex
100
AcDb2dVertex
 10
99.17779154993354
 20
230.6526087648839
 30
0.0
  0
VERTEX
  5
236
330
234
100
AcDbEntity
  8
Layer 1
 62
     7
420
 16777215
370
    35
100
AcDbVertex
100
AcDb2dVertex
 10
99.484577004248
 20
230.9593864171208
 30
0.0
  0
VERTEX
  5
237
330
234
100
AcDbEntity
  8
Layer 1
 62
     7
420
 16777215
370
    35
100
AcDbVertex
100
AcDb2dVertex
 10
99.85272579108423
 20
231.2048241430628
 30
0.0
  0
VERTEX
  5
238
330
234
100
AcDbEntity
  8
Layer 1
 62
     7
420
 16777215
370
    35
100
AcDbVertex
100
AcDb2dVertex
 10
100.2822301083698
 20
231.4502618690061
 30
0.0
  0
VERTEX
  5
239
330
234
100
AcDbEntity
  8
Layer 1
 62
     7
420
 16777215
370
    35
100
AcDbVertex
100
AcDb2dVertex
 10
100.7117422277304
 20
231.6343284603481
 30
0.0
  0
VERTEX
  5
23A
330
234
100
AcDbEntity
  8
Layer 1
 62
     7
420
 16777215
370
    35
100
AcDbVertex
100
AcDb2dVertex
 10
101.1412465450154
 20
231.8184106558426
 30
0.0
  0
VERTEX
  5
23B
330
234
100
AcDbEntity
  8
Layer 1
 62
     7
420
 16777215
370
    35
100
AcDbVertex
100
AcDb2dVertex
 10
101.5707508623003
 20
231.8797661862904
 30
0.0
  0
VERTEX
  5
23C
330
234
100
AcDbEntity
  8
Layer 1
 62
     7
420
 16777215
370
    35
100
AcDbVertex
100
AcDb2dVertex
 10
102.000255179584
 20
231.9411217167375
 30
0.0
  0
VERTEX
  5
23D
330
234
100
AcDbEntity
  8
Layer 1
 62
     7
420
 16777215
370
    35
100
AcDbVertex
100
AcDb2dVertex
 10
102.491122829393
 20
231.8797661862904
 30
0.0
  0
VERTEX
  5
23E
330
234
100
AcDbEntity
  8
Layer 1
 62
     7
420
 16777215
370
    35
100
AcDbVertex
100
AcDb2dVertex
 10
102.920627146677
 20
231.8184106558426
 30
0.0
  0
VERTEX
  5
23F
330
234
100
AcDbEntity
  8
Layer 1
 62
     7
420
 16777215
370
    35
100
AcDbVertex
100
AcDb2dVertex
 10
103.2887759335142
 20
231.757039521242
 30
0.0
  0
VERTEX
  5
240
330
234
100
AcDbEntity
  8
Layer 1
 62
     7
420
 16777215
370
    35
100
AcDbVertex
100
AcDb2dVertex
 10
103.7182802507982
 20
231.5729729299006
 30
0.0
  0
VERTEX
  5
241
330
234
100
AcDbEntity
  8
Layer 1
 62
     7
420
 16777215
370
    35
100
AcDbVertex
100
AcDb2dVertex
 10
104.0864290376357
 20
231.3888907344048
 30
0.0
  0
VERTEX
  5
242
330
234
100
AcDbEntity
  8
Layer 1
 62
     7
420
 16777215
370
    35
100
AcDbVertex
100
AcDb2dVertex
 10
104.4545778244729
 20
231.143468612616
 30
0.0
  0
VERTEX
  5
243
330
234
100
AcDbEntity
  8
Layer 1
 62
     7
420
 16777215
370
    35
100
AcDbVertex
100
AcDb2dVertex
 10
104.7613710808633
 20
230.8980308866733
 30
0.0
  0
VERTEX
  5
244
330
234
100
AcDbEntity
  8
Layer 1
 62
     7
420
 16777215
370
    35
100
AcDbVertex
100
AcDb2dVertex
 10
105.0681565351755
 20
230.5912376302836
 30
0.0
  0
VERTEX
  5
245
330
234
100
AcDbEntity
  8
Layer 1
 62
     7
420
 16777215
370
    35
100
AcDbVertex
100
AcDb2dVertex
 10
105.3749497915662
 20
230.284459978047
 30
0.0
  0
VERTEX
  5
246
330
234
100
AcDbEntity
  8
Layer 1
 62
     7
420
 16777215
370
    35
100
AcDbVertex
100
AcDb2dVertex
 10
115.008158175626
 20
218.319632207916
 30
0.0
  0
VERTEX
  5
247
330
234
100
AcDbEntity
  8
Layer 1
 62
     7
420
 16777215
370
    35
100
AcDbVertex
100
AcDb2dVertex
 10
113.5355630282779
 20
217.6447057688426
 30
0.0
  0
VERTEX
  5
248
330
234
100
AcDbEntity
  8
Layer 1
 62
     7
420
 16777215
370
    35
100
AcDbVertex
100
AcDb2dVertex
 10
112.062975683005
 20
216.9697637256156
 30
0.0
  0
VERTEX
  5
249
330
234
100
AcDbEntity
  8
Layer 1
 62
     7
420
 16777215
370
    35
100
AcDbVertex
100
AcDb2dVertex
 10
110.5290250052085
 20
216.4175327432829
 30
0.0
  0
VERTEX
  5
24A
330
234
100
AcDbEntity
  8
Layer 1
 62
     7
420
 16777215
370
    35
100
AcDbVertex
100
AcDb2dVertex
 10
109.7313719010876
 20
216.1721106214937
 30
0.0
  0
VERTEX
  5
24B
330
234
100
AcDbEntity
  8
Layer 1
 62
     7
420
 16777215
370
    35
100
AcDbVertex
100
AcDb2dVertex
 10
108.9950743274132
 20
215.9880284259999
 30
0.0
  0
VERTEX
  5
24C
330
234
100
AcDbEntity
  8
Layer 1
 62
     7
420
 16777215
370
    35
100
AcDbVertex
100
AcDb2dVertex
 10
108.1974212232917
 20
215.7426063042091
 30
0.0
  0
VERTEX
  5
24D
330
234
100
AcDbEntity
  8
Layer 1
 62
     7
420
 16777215
370
    35
100
AcDbVertex
100
AcDb2dVertex
 10
107.3384047866471
 20
215.6198796391614
 30
0.0
  0
VERTEX
  5
24E
330
234
100
AcDbEntity
  8
Layer 1
 62
     7
420
 16777215
370
    35
100
AcDbVertex
100
AcDb2dVertex
 10
106.5407516825246
 20
215.4358130478194
 30
0.0
  0
VERTEX
  5
24F
330
234
100
AcDbEntity
  8
Layer 1
 62
     7
420
 16777215
370
    35
100
AcDbVertex
100
AcDb2dVertex
 10
105.7430985784034
 20
215.3131019869248
 30
0.0
  0
VERTEX
  5
250
330
234
100
AcDbEntity
  8
Layer 1
 62
     7
420
 16777215
370
    35
100
AcDbVertex
100
AcDb2dVertex
 10
104.8840821417579
 20
215.2517308523238
 30
0.0
  0
VERTEX
  5
251
330
234
100
AcDbEntity
  8
Layer 1
 62
     7
420
 16777215
370
    35
100
AcDbVertex
100
AcDb2dVertex
 10
104.0250735071889
 20
215.1903753218767
 30
0.0
  0
VERTEX
  5
252
330
234
100
AcDbEntity
  8
Layer 1
 62
     7
420
 16777215
370
    35
100
AcDbVertex
100
AcDb2dVertex
 10
103.166057070543
 20
215.1290197914302
 30
0.0
  0
VERTEX
  5
253
330
234
100
AcDbEntity
  8
Layer 1
 62
     7
420
 16777215
370
    35
100
AcDbVertex
100
AcDb2dVertex
 10
102.3070484359738
 20
215.1290197914302
 30
0.0
  0
VERTEX
  5
254
330
234
100
AcDbEntity
  8
Layer 1
 62
     7
420
 16777215
370
    35
100
AcDbVertex
100
AcDb2dVertex
 10
101.4480319993289
 20
215.1290197914302
 30
0.0
  0
VERTEX
  5
255
330
234
100
AcDbEntity
  8
Layer 1
 62
     7
420
 16777215
370
    35
100
AcDbVertex
100
AcDb2dVertex
 10
100.6503788952057
 20
215.1903753218767
 30
0.0
  0
VERTEX
  5
256
330
234
100
AcDbEntity
  8
Layer 1
 62
     7
420
 16777215
370
    35
100
AcDbVertex
100
AcDb2dVertex
 10
99.79137026063775
 20
215.2517308523238
 30
0.0
  0
VERTEX
  5
257
330
234
100
AcDbEntity
  8
Layer 1
 62
     7
420
 16777215
370
    35
100
AcDbVertex
100
AcDb2dVertex
 10
98.9323538239922
 20
215.3744575173716
 30
0.0
  0
VERTEX
  5
258
330
234
100
AcDbEntity
  8
Layer 1
 62
     7
420
 16777215
370
    35
100
AcDbVertex
100
AcDb2dVertex
 10
98.13470071987037
 20
215.4358130478194
 30
0.0
  0
VERTEX
  5
259
330
234
100
AcDbEntity
  8
Layer 1
 62
     7
420
 16777215
370
    35
100
AcDbVertex
100
AcDb2dVertex
 10
97.27569208530173
 20
215.6198796391614
 30
0.0
  0
VERTEX
  5
25A
330
234
100
AcDbEntity
  8
Layer 1
 62
     7
420
 16777215
370
    35
100
AcDbVertex
100
AcDb2dVertex
 10
96.47803117910361
 20
215.8039618346569
 30
0.0
  0
VERTEX
  5
25B
330
234
100
AcDbEntity
  8
Layer 1
 62
     7
420
 16777215
370
    35
100
AcDbVertex
100
AcDb2dVertex
 10
95.68037807498146
 20
215.9880284259999
 30
0.0
  0
VERTEX
  5
25C
330
234
100
AcDbEntity
  8
Layer 1
 62
     7
420
 16777215
370
    35
100
AcDbVertex
100
AcDb2dVertex
 10
94.88272497085963
 20
216.1721106214937
 30
0.0
  0
VERTEX
  5
25D
330
234
100
AcDbEntity
  8
Layer 1
 62
     7
420
 16777215
370
    35
100
AcDbVertex
100
AcDb2dVertex
 10
94.0850718667381
 20
216.4175327432829
 30
0.0
  0
VERTEX
  5
25E
330
234
100
AcDbEntity
  8
Layer 1
 62
     7
420
 16777215
370
    35
100
AcDbVertex
100
AcDb2dVertex
 10
93.28741876261627
 20
216.724325999672
 30
0.0
  0
VERTEX
  5
25F
330
234
100
AcDbEntity
  8
Layer 1
 62
     7
420
 16777215
370
    35
100
AcDbVertex
100
AcDb2dVertex
 10
92.55112118894252
 20
216.9697637256156
 30
0.0
  0
VERTEX
  5
260
330
234
100
AcDbEntity
  8
Layer 1
 62
     7
420
 16777215
370
    35
100
AcDbVertex
100
AcDb2dVertex
 10
91.07852604159405
 20
217.6447057688426
 30
0.0
  0
VERTEX
  5
261
330
234
100
AcDbEntity
  8
Layer 1
 62
     7
420
 16777215
370
    35
100
AcDbVertex
100
AcDb2dVertex
 10
89.60593869632218
 20
218.3810033425163
 30
0.0
  0
VERTEX
  5
262
330
234
100
AcDbEntity
  8
Layer 1
 62
     7
420
 16777215
370
    35
100
AcDbVertex
100
AcDb2dVertex
 10
99.17779154993354
 20
230.6526087648839
 30
0.0
  0
SEQEND
  5
263
330
234
100
AcDbEntity
  8
Layer 1
 62
     7
420
 16777215
370
    35
  0
POLYLINE
  5
264
330
1F
100
AcDbEntity
  8
Layer 1
 62
     7
420
 16777215
370
    35
100
AcDb2dPolyline
 66
     1
 10
0.0
 20
0.0
 30
0.0
  0
VERTEX
  5
265
330
264
100
AcDbEntity
  8
Layer 1
 62
     7
420
 16777215
370
    35
100
AcDbVertex
100
AcDb2dVertex
 10
128.26149889761
 20
246.5443309210225
 30
0.0
  0
VERTEX
  5
266
330
264
100
AcDbEntity
  8
Layer 1
 62
     7
420
 16777215
370
    35
100
AcDbVertex
100
AcDb2dVertex
 10
128.26149889761
 20
246.5443309210225
 30
0.0
  0
VERTEX
  5
267
330
264
100
AcDbEntity
  8
Layer 1
 62
     7
420
 16777215
370
    35
100
AcDbVertex
100
AcDb2dVertex
 10
128.5069210193991
 20
245.3171578954622
 30
0.0
  0
VERTEX
  5
268
330
264
100
AcDbEntity
  8
Layer 1
 62
     7
420
 16777215
370
    35
100
AcDbVertex
100
AcDb2dVertex
 10
128.6296320802946
 20
244.0900004740567
 30
0.0
  0
VERTEX
  5
269
330
264
100
AcDbEntity
  8
Layer 1
 62
     7
420
 16777215
370
    35
100
AcDbVertex
100
AcDb2dVertex
 10
128.7523587453414
 20
242.8014875222028
 30
0.0
  0
VERTEX
  5
26A
330
264
100
AcDbEntity
  8
Layer 1
 62
     7
420
 16777215
370
    35
100
AcDbVertex
100
AcDb2dVertex
 10
128.7523587453414
 20
241.5743301007976
 30
0.0
  0
VERTEX
  5
26B
330
264
100
AcDbEntity
  8
Layer 1
 62
     7
420
 16777215
370
    35
100
AcDbVertex
100
AcDb2dVertex
 10
128.6910032148949
 20
240.1630904838959
 30
0.0
  0
VERTEX
  5
26C
330
264
100
AcDbEntity
  8
Layer 1
 62
     7
420
 16777215
370
    35
100
AcDbVertex
100
AcDb2dVertex
 10
128.6296320802946
 20
238.7518508669952
 30
0.0
  0
VERTEX
  5
26D
330
264
100
AcDbEntity
  8
Layer 1
 62
     7
420
 16777215
370
    35
100
AcDbVertex
100
AcDb2dVertex
 10
128.4455654889526
 20
237.4019823846942
 30
0.0
  0
VERTEX
  5
26E
330
264
100
AcDbEntity
  8
Layer 1
 62
     7
420
 16777215
370
    35
100
AcDbVertex
100
AcDb2dVertex
 10
128.200127763009
 20
236.0520982982403
 30
0.0
  0
VERTEX
  5
26F
330
264
100
AcDbEntity
  8
Layer 1
 62
     7
420
 16777215
370
    35
100
AcDbVertex
100
AcDb2dVertex
 10
127.8933501107728
 20
234.7022298159395
 30
0.0
  0
VERTEX
  5
270
330
264
100
AcDbEntity
  8
Layer 1
 62
     7
420
 16777215
370
    35
100
AcDbVertex
100
AcDb2dVertex
 10
127.4638301893359
 20
233.4137012599321
 30
0.0
  0
VERTEX
  5
271
330
264
100
AcDbEntity
  8
Layer 1
 62
     7
420
 16777215
370
    35
100
AcDbVertex
100
AcDb2dVertex
 10
127.0343258720503
 20
232.1865438385269
 30
0.0
  0
VERTEX
  5
272
330
264
100
AcDbEntity
  8
Layer 1
 62
     7
420
 16777215
370
    35
100
AcDbVertex
100
AcDb2dVertex
 10
126.5434660243189
 20
230.8980308866733
 30
0.0
  0
VERTEX
  5
273
330
264
100
AcDbEntity
  8
Layer 1
 62
     7
420
 16777215
370
    35
100
AcDbVertex
100
AcDb2dVertex
 10
125.9912506461403
 20
229.7322289957149
 30
0.0
  0
VERTEX
  5
274
330
264
100
AcDbEntity
  8
Layer 1
 62
     7
420
 16777215
370
    35
100
AcDbVertex
100
AcDb2dVertex
 10
125.3776641333602
 20
228.5664271047559
 30
0.0
  0
VERTEX
  5
275
330
264
100
AcDbEntity
  8
Layer 1
 62
     7
420
 16777215
370
    35
100
AcDbVertex
100
AcDb2dVertex
 10
124.6413665596858
 20
227.4006252137969
 30
0.0
  0
VERTEX
  5
276
330
264
100
AcDbEntity
  8
Layer 1
 62
     7
420
 16777215
370
    35
100
AcDbVertex
100
AcDb2dVertex
 10
123.9664245164591
 20
226.3575343837334
 30
0.0
  0
VERTEX
  5
277
330
264
100
AcDbEntity
  8
Layer 1
 62
     7
420
 16777215
370
    35
100
AcDbVertex
100
AcDb2dVertex
 10
123.168771412337
 20
225.2530880232221
 30
0.0
  0
VERTEX
  5
278
330
264
100
AcDbEntity
  8
Layer 1
 62
     7
420
 16777215
370
    35
100
AcDbVertex
100
AcDb2dVertex
 10
122.3097627777684
 20
224.2713527236048
 30
0.0
  0
VERTEX
  5
279
330
264
100
AcDbEntity
  8
Layer 1
 62
     7
420
 16777215
370
    35
100
AcDbVertex
100
AcDb2dVertex
 10
121.4507541431991
 20
223.2896330281409
 30
0.0
  0
VERTEX
  5
27A
330
264
100
AcDbEntity
  8
Layer 1
 62
     7
420
 16777215
370
    35
100
AcDbVertex
100
AcDb2dVertex
 10
120.5303743740289
 20
222.3692532589716
 30
0.0
  0
VERTEX
  5
27B
330
264
100
AcDbEntity
  8
Layer 1
 62
     7
420
 16777215
370
    35
100
AcDbVertex
100
AcDb2dVertex
 10
111.8175457591393
 20
235.1317341332239
 30
0.0
  0
VERTEX
  5
27C
330
264
100
AcDbEntity
  8
Layer 1
 62
     7
420
 16777215
370
    35
100
AcDbVertex
100
AcDb2dVertex
 10
111.6334713657201
 20
235.5612384505082
 30
0.0
  0
VERTEX
  5
27D
330
264
100
AcDbEntity
  8
Layer 1
 62
     7
420
 16777215
370
    35
100
AcDbVertex
100
AcDb2dVertex
 10
111.4493969723034
 20
235.9907427677931
 30
0.0
  0
VERTEX
  5
27E
330
264
100
AcDbEntity
  8
Layer 1
 62
     7
420
 16777215
370
    35
100
AcDbVertex
100
AcDb2dVertex
 10
111.3266781093313
 20
236.4202470850781
 30
0.0
  0
VERTEX
  5
27F
330
264
100
AcDbEntity
  8
Layer 1
 62
     7
420
 16777215
370
    35
100
AcDbVertex
100
AcDb2dVertex
 10
111.2653225788848
 20
236.8497514023621
 30
0.0
  0
VERTEX
  5
280
330
264
100
AcDbEntity
  8
Layer 1
 62
     7
420
 16777215
370
    35
100
AcDbVertex
100
AcDb2dVertex
 10
111.2653225788848
 20
237.3406268542471
 30
0.0
  0
VERTEX
  5
281
330
264
100
AcDbEntity
  8
Layer 1
 62
     7
420
 16777215
370
    35
100
AcDbVertex
100
AcDb2dVertex
 10
111.3266781093313
 20
237.7701311715314
 30
0.0
  0
VERTEX
  5
282
330
264
100
AcDbEntity
  8
Layer 1
 62
     7
420
 16777215
370
    35
100
AcDbVertex
100
AcDb2dVertex
 10
111.3880414418543
 20
238.1996354888157
 30
0.0
  0
VERTEX
  5
283
330
264
100
AcDbEntity
  8
Layer 1
 62
     7
420
 16777215
370
    35
100
AcDbVertex
100
AcDb2dVertex
 10
111.572108033197
 20
238.6291398061007
 30
0.0
  0
VERTEX
  5
284
330
264
100
AcDbEntity
  8
Layer 1
 62
     7
420
 16777215
370
    35
100
AcDbVertex
100
AcDb2dVertex
 10
111.6948268961691
 20
239.058644123385
 30
0.0
  0
VERTEX
  5
285
330
264
100
AcDbEntity
  8
Layer 1
 62
     7
420
 16777215
370
    35
100
AcDbVertex
100
AcDb2dVertex
 10
111.9402568200348
 20
239.4267929102225
 30
0.0
  0
VERTEX
  5
286
330
264
100
AcDbEntity
  8
Layer 1
 62
     7
420
 16777215
370
    35
100
AcDbVertex
100
AcDb2dVertex
 10
112.1856945459765
 20
239.7335861666119
 30
0.0
  0
VERTEX
  5
287
330
264
100
AcDbEntity
  8
Layer 1
 62
     7
420
 16777215
370
    35
100
AcDbVertex
100
AcDb2dVertex
 10
112.49248000029
 20
240.0403794230017
 30
0.0
  0
VERTEX
  5
288
330
264
100
AcDbEntity
  8
Layer 1
 62
     7
420
 16777215
370
    35
100
AcDbVertex
100
AcDb2dVertex
 10
112.7992732566807
 20
240.3471570752376
 30
0.0
  0
VERTEX
  5
289
330
264
100
AcDbEntity
  8
Layer 1
 62
     7
420
 16777215
370
    35
100
AcDbVertex
100
AcDb2dVertex
 10
113.1674220435166
 20
240.5925948011806
 30
0.0
  0
VERTEX
  5
28A
330
264
100
AcDbEntity
  8
Layer 1
 62
     7
420
 16777215
370
    35
100
AcDbVertex
100
AcDb2dVertex
 10
113.5355708303525
 20
240.7766613925235
 30
0.0
  0
VERTEX
  5
28B
330
264
100
AcDbEntity
  8
Layer 1
 62
     7
420
 16777215
370
    35
100
AcDbVertex
100
AcDb2dVertex
 10
113.903719617191
 20
240.9607435880177
 30
0.0
  0
VERTEX
  5
28C
330
264
100
AcDbEntity
  8
Layer 1
 62
     7
420
 16777215
370
    35
100
AcDbVertex
100
AcDb2dVertex
 10
128.26149889761
 20
246.5443309210225
 30
0.0
  0
SEQEND
  5
28D
330
264
100
AcDbEntity
  8
Layer 1
 62
     7
420
 16777215
370
    35
  0
POLYLINE
  5
28E
330
1F
100
AcDbEntity
  8
Layer 1
 62
     7
420
 16777215
370
    35
100
AcDb2dPolyline
 66
     1
 10
0.0
 20
0.0
 30
0.0
  0
VERTEX
  5
28F
330
28E
100
AcDbEntity
  8
Layer 1
 62
     7
420
 16777215
370
    35
100
AcDbVertex
100
AcDb2dVertex
 10
106.3070484349741
 20
241.5743285780573
 30
0.0
  0
VERTEX
  5
290
330
28E
100
AcDbEntity
  8
Layer 1
 62
     7
420
 16777215
370
    35
100
AcDbVertex
100
AcDb2dVertex
 10
106.3070484349741
 20
241.1792578571319
 30
0.0
  0
VERTEX
  5
291
330
28E
100
AcDbEntity
  8
Layer 1
 62
     7
420
 16777215
370
    35
100
AcDbVertex
100
AcDb2dVertex
 10
106.2082807547428
 20
240.7841996948776
 30
0.0
  0
VERTEX
  5
292
330
28E
100
AcDbEntity
  8
Layer 1
 62
     7
420
 16777215
370
    35
100
AcDbVertex
100
AcDb2dVertex
 10
106.1095130745115
 20
240.3891415326239
 30
0.0
  0
VERTEX
  5
293
330
28E
100
AcDbEntity
  8
Layer 1
 62
     7
420
 16777215
370
    35
100
AcDbVertex
100
AcDb2dVertex
 10
106.0107516736158
 20
239.9940708116979
 30
0.0
  0
VERTEX
  5
294
330
28E
100
AcDbEntity
  8
Layer 1
 62
     7
420
 16777215
370
    35
100
AcDbVertex
100
AcDb2dVertex
 10
105.8132163131531
 20
239.6483933498921
 30
0.0
  0
VERTEX
  5
295
330
28E
100
AcDbEntity
  8
Layer 1
 62
     7
420
 16777215
370
    35
100
AcDbVertex
100
AcDb2dVertex
 10
105.6156872320264
 20
239.352096588534
 30
0.0
  0
VERTEX
  5
296
330
28E
100
AcDbEntity
  8
Layer 1
 62
     7
420
 16777215
370
    35
100
AcDbVertex
100
AcDb2dVertex
 10
105.4181581508994
 20
239.0064191267275
 30
0.0
  0
VERTEX
  5
297
330
28E
100
AcDbEntity
  8
Layer 1
 62
     7
420
 16777215
370
    35
100
AcDbVertex
100
AcDb2dVertex
 10
105.1218613895411
 20
238.759503065817
 30
0.0
  0
VERTEX
  5
298
330
28E
100
AcDbEntity
  8
Layer 1
 62
     7
420
 16777215
370
    35
100
AcDbVertex
100
AcDb2dVertex
 10
104.8749453286299
 20
238.463206304459
 30
0.0
  0
VERTEX
  5
299
330
28E
100
AcDbEntity
  8
Layer 1
 62
     7
420
 16777215
370
    35
100
AcDbVertex
100
AcDb2dVertex
 10
104.5292678668244
 20
238.265683502669
 30
0.0
  0
VERTEX
  5
29A
330
28E
100
AcDbEntity
  8
Layer 1
 62
     7
420
 16777215
370
    35
100
AcDbVertex
100
AcDb2dVertex
 10
104.232971105467
 20
238.068148142206
 30
0.0
  0
VERTEX
  5
29B
330
28E
100
AcDbEntity
  8
Layer 1
 62
     7
420
 16777215
370
    35
100
AcDbVertex
100
AcDb2dVertex
 10
103.8872936436605
 20
237.8706253404153
 30
0.0
  0
VERTEX
  5
29C
330
28E
100
AcDbEntity
  8
Layer 1
 62
     7
420
 16777215
370
    35
100
AcDbVertex
100
AcDb2dVertex
 10
103.4922292020715
 20
237.7224706803995
 30
0.0
  0
VERTEX
  5
29D
330
28E
100
AcDbEntity
  8
Layer 1
 62
     7
420
 16777215
370
    35
100
AcDbVertex
100
AcDb2dVertex
 10
103.0971710398175
 20
237.6237092795045
 30
0.0
  0
VERTEX
  5
29E
330
28E
100
AcDbEntity
  8
Layer 1
 62
     7
420
 16777215
370
    35
100
AcDbVertex
100
AcDb2dVertex
 10
102.7021065982275
 20
237.5743285790573
 30
0.0
  0
VERTEX
  5
29F
330
28E
100
AcDbEntity
  8
Layer 1
 62
     7
420
 16777215
370
    35
100
AcDbVertex
100
AcDb2dVertex
 10
102.3070484359738
 20
237.5743285790573
 30
0.0
  0
VERTEX
  5
2A0
330
28E
100
AcDbEntity
  8
Layer 1
 62
     7
420
 16777215
370
    35
100
AcDbVertex
100
AcDb2dVertex
 10
101.9119839943847
 20
237.5743285790573
 30
0.0
  0
VERTEX
  5
2A1
330
28E
100
AcDbEntity
  8
Layer 1
 62
     7
420
 16777215
370
    35
100
AcDbVertex
100
AcDb2dVertex
 10
101.5169195527944
 20
237.6237092795045
 30
0.0
  0
VERTEX
  5
2A2
330
28E
100
AcDbEntity
  8
Layer 1
 62
     7
420
 16777215
370
    35
100
AcDbVertex
100
AcDb2dVertex
 10
101.1218613905407
 20
237.7224706803995
 30
0.0
  0
VERTEX
  5
2A3
330
28E
100
AcDbEntity
  8
Layer 1
 62
     7
420
 16777215
370
    35
100
AcDbVertex
100
AcDb2dVertex
 10
100.726796948951
 20
237.8706253404153
 30
0.0
  0
VERTEX
  5
2A4
330
28E
100
AcDbEntity
  8
Layer 1
 62
     7
420
 16777215
370
    35
100
AcDbVertex
100
AcDb2dVertex
 10
100.3811194871455
 20
238.068148142206
 30
0.0
  0
VERTEX
  5
2A5
330
28E
100
AcDbEntity
  8
Layer 1
 62
     7
420
 16777215
370
    35
100
AcDbVertex
100
AcDb2dVertex
 10
100.0354420253393
 20
238.265683502669
 30
0.0
  0
VERTEX
  5
2A6
330
28E
100
AcDbEntity
  8
Layer 1
 62
     7
420
 16777215
370
    35
100
AcDbVertex
100
AcDb2dVertex
 10
99.73914526398097
 20
238.463206304459
 30
0.0
  0
VERTEX
  5
2A7
330
28E
100
AcDbEntity
  8
Layer 1
 62
     7
420
 16777215
370
    35
100
AcDbVertex
100
AcDb2dVertex
 10
99.44284850262295
 20
238.759503065817
 30
0.0
  0
VERTEX
  5
2A8
330
28E
100
AcDbEntity
  8
Layer 1
 62
     7
420
 16777215
370
    35
100
AcDbVertex
100
AcDb2dVertex
 10
99.19593244171243
 20
239.0064191267275
 30
0.0
  0
VERTEX
  5
2A9
330
28E
100
AcDbEntity
  8
Layer 1
 62
     7
420
 16777215
370
    35
100
AcDbVertex
100
AcDb2dVertex
 10
98.99840336058575
 20
239.352096588534
 30
0.0
  0
VERTEX
  5
2AA
330
28E
100
AcDbEntity
  8
Layer 1
 62
     7
420
 16777215
370
    35
100
AcDbVertex
100
AcDb2dVertex
 10
98.75149357901155
 20
239.6483933498921
 30
0.0
  0
VERTEX
  5
2AB
330
28E
100
AcDbEntity
  8
Layer 1
 62
     7
420
 16777215
370
    35
100
AcDbVertex
100
AcDb2dVertex
 10
98.60334519833303
 20
239.9940708116979
 30
0.0
  0
VERTEX
  5
2AC
330
28E
100
AcDbEntity
  8
Layer 1
 62
     7
420
 16777215
370
    35
100
AcDbVertex
100
AcDb2dVertex
 10
98.45519681765289
 20
240.3891415326239
 30
0.0
  0
VERTEX
  5
2AD
330
28E
100
AcDbEntity
  8
Layer 1
 62
     7
420
 16777215
370
    35
100
AcDbVertex
100
AcDb2dVertex
 10
98.35642913742123
 20
240.7841996948776
 30
0.0
  0
VERTEX
  5
2AE
330
28E
100
AcDbEntity
  8
Layer 1
 62
     7
420
 16777215
370
    35
100
AcDbVertex
100
AcDb2dVertex
 10
98.30704843697404
 20
241.1792578571319
 30
0.0
  0
VERTEX
  5
2AF
330
28E
100
AcDbEntity
  8
Layer 1
 62
     7
420
 16777215
370
    35
100
AcDbVertex
100
AcDb2dVertex
 10
98.30704843697404
 20
241.5743285780573
 30
0.0
  0
VERTEX
  5
2B0
330
28E
100
AcDbEntity
  8
Layer 1
 62
     7
420
 16777215
370
    35
100
AcDbVertex
100
AcDb2dVertex
 10
98.30704843697404
 20
241.9693867403107
 30
0.0
  0
VERTEX
  5
2B1
330
28E
100
AcDbEntity
  8
Layer 1
 62
     7
420
 16777215
370
    35
100
AcDbVertex
100
AcDb2dVertex
 10
98.35642913742123
 20
242.3644449025647
 30
0.0
  0
VERTEX
  5
2B2
330
28E
100
AcDbEntity
  8
Layer 1
 62
     7
420
 16777215
370
    35
100
AcDbVertex
100
AcDb2dVertex
 10
98.45519681765289
 20
242.7595030648187
 30
0.0
  0
VERTEX
  5
2B3
330
28E
100
AcDbEntity
  8
Layer 1
 62
     7
420
 16777215
370
    35
100
AcDbVertex
100
AcDb2dVertex
 10
98.60334519833303
 20
243.1545737857437
 30
0.0
  0
VERTEX
  5
2B4
330
28E
100
AcDbEntity
  8
Layer 1
 62
     7
420
 16777215
370
    35
100
AcDbVertex
100
AcDb2dVertex
 10
98.75149357901155
 20
243.5002512475493
 30
0.0
  0
VERTEX
  5
2B5
330
28E
100
AcDbEntity
  8
Layer 1
 62
     7
420
 16777215
370
    35
100
AcDbVertex
100
AcDb2dVertex
 10
98.99840336058575
 20
243.7965480089076
 30
0.0
  0
VERTEX
  5
2B6
330
28E
100
AcDbEntity
  8
Layer 1
 62
     7
420
 16777215
370
    35
100
AcDbVertex
100
AcDb2dVertex
 10
99.19593244171243
 20
244.1422254707141
 30
0.0
  0
VERTEX
  5
2B7
330
28E
100
AcDbEntity
  8
Layer 1
 62
     7
420
 16777215
370
    35
100
AcDbVertex
100
AcDb2dVertex
 10
99.44284850262295
 20
244.3891415316243
 30
0.0
  0
VERTEX
  5
2B8
330
28E
100
AcDbEntity
  8
Layer 1
 62
     7
420
 16777215
370
    35
100
AcDbVertex
100
AcDb2dVertex
 10
99.73914526398097
 20
244.685438292983
 30
0.0
  0
VERTEX
  5
2B9
330
28E
100
AcDbEntity
  8
Layer 1
 62
     7
420
 16777215
370
    35
100
AcDbVertex
100
AcDb2dVertex
 10
100.0354420253393
 20
244.8829610947733
 30
0.0
  0
VERTEX
  5
2BA
330
28E
100
AcDbEntity
  8
Layer 1
 62
     7
420
 16777215
370
    35
100
AcDbVertex
100
AcDb2dVertex
 10
100.3811194871455
 20
245.0804964552363
 30
0.0
  0
VERTEX
  5
2BB
330
28E
100
AcDbEntity
  8
Layer 1
 62
     7
420
 16777215
370
    35
100
AcDbVertex
100
AcDb2dVertex
 10
100.726796948951
 20
245.2780318156993
 30
0.0
  0
VERTEX
  5
2BC
330
28E
100
AcDbEntity
  8
Layer 1
 62
     7
420
 16777215
370
    35
100
AcDbVertex
100
AcDb2dVertex
 10
101.1218613905407
 20
245.4261739170412
 30
0.0
  0
VERTEX
  5
2BD
330
28E
100
AcDbEntity
  8
Layer 1
 62
     7
420
 16777215
370
    35
100
AcDbVertex
100
AcDb2dVertex
 10
101.5169195527944
 20
245.5249353179375
 30
0.0
  0
VERTEX
  5
2BE
330
28E
100
AcDbEntity
  8
Layer 1
 62
     7
420
 16777215
370
    35
100
AcDbVertex
100
AcDb2dVertex
 10
101.9119839943847
 20
245.5743160183847
 30
0.0
  0
VERTEX
  5
2BF
330
28E
100
AcDbEntity
  8
Layer 1
 62
     7
420
 16777215
370
    35
100
AcDbVertex
100
AcDb2dVertex
 10
102.3070484359738
 20
245.5743160183847
 30
0.0
  0
VERTEX
  5
2C0
330
28E
100
AcDbEntity
  8
Layer 1
 62
     7
420
 16777215
370
    35
100
AcDbVertex
100
AcDb2dVertex
 10
102.7021065982275
 20
245.5743160183847
 30
0.0
  0
VERTEX
  5
2C1
330
28E
100
AcDbEntity
  8
Layer 1
 62
     7
420
 16777215
370
    35
100
AcDbVertex
100
AcDb2dVertex
 10
103.0971710398175
 20
245.5249353179375
 30
0.0
  0
VERTEX
  5
2C2
330
28E
100
AcDbEntity
  8
Layer 1
 62
     7
420
 16777215
370
    35
100
AcDbVertex
100
AcDb2dVertex
 10
103.4922292020715
 20
245.4261739170412
 30
0.0
  0
VERTEX
  5
2C3
330
28E
100
AcDbEntity
  8
Layer 1
 62
     7
420
 16777215
370
    35
100
AcDbVertex
100
AcDb2dVertex
 10
103.8872936436605
 20
245.2780318156993
 30
0.0
  0
VERTEX
  5
2C4
330
28E
100
AcDbEntity
  8
Layer 1
 62
     7
420
 16777215
370
    35
100
AcDbVertex
100
AcDb2dVertex
 10
104.232971105467
 20
245.0804964552363
 30
0.0
  0
VERTEX
  5
2C5
330
28E
100
AcDbEntity
  8
Layer 1
 62
     7
420
 16777215
370
    35
100
AcDbVertex
100
AcDb2dVertex
 10
104.5292678668244
 20
244.8829610947733
 30
0.0
  0
VERTEX
  5
2C6
330
28E
100
AcDbEntity
  8
Layer 1
 62
     7
420
 16777215
370
    35
100
AcDbVertex
100
AcDb2dVertex
 10
104.8749453286299
 20
244.685438292983
 30
0.0
  0
VERTEX
  5
2C7
330
28E
100
AcDbEntity
  8
Layer 1
 62
     7
420
 16777215
370
    35
100
AcDbVertex
100
AcDb2dVertex
 10
105.1218613895411
 20
244.3891415316243
 30
0.0
  0
VERTEX
  5
2C8
330
28E
100
AcDbEntity
  8
Layer 1
 62
     7
420
 16777215
370
    35
100
AcDbVertex
100
AcDb2dVertex
 10
105.4181581508994
 20
244.1422254707141
 30
0.0
  0
VERTEX
  5
2C9
330
28E
100
AcDbEntity
  8
Layer 1
 62
     7
420
 16777215
370
    35
100
AcDbVertex
100
AcDb2dVertex
 10
105.6156872320264
 20
243.7965480089076
 30
0.0
  0
VERTEX
  5
2CA
330
28E
100
AcDbEntity
  8
Layer 1
 62
     7
420
 16777215
370
    35
100
AcDbVertex
100
AcDb2dVertex
 10
105.8132163131531
 20
243.5002512475493
 30
0.0
  0
VERTEX
  5
2CB
330
28E
100
AcDbEntity
  8
Layer 1
 62
     7
420
 16777215
370
    35
100
AcDbVertex
100
AcDb2dVertex
 10
106.0107516736158
 20
243.1545737857437
 30
0.0
  0
VERTEX
  5
2CC
330
28E
100
AcDbEntity
  8
Layer 1
 62
     7
420
 16777215
370
    35
100
AcDbVertex
100
AcDb2dVertex
 10
106.1095130745115
 20
242.7595030648187
 30
0.0
  0
VERTEX
  5
2CD
330
28E
100
AcDbEntity
  8
Layer 1
 62
     7
420
 16777215
370
    35
100
AcDbVertex
100
AcDb2dVertex
 10
106.2082807547428
 20
242.3644449025647
 30
0.0
  0
VERTEX
  5
2CE
330
28E
100
AcDbEntity
  8
Layer 1
 62
     7
420
 16777215
370
    35
100
AcDbVertex
100
AcDb2dVertex
 10
106.3070484349741
 20
241.9693867403107
 30
0.0
  0
VERTEX
  5
2CF
330
28E
100
AcDbEntity
  8
Layer 1
 62
     7
420
 16777215
370
    35
100
AcDbVertex
100
AcDb2dVertex
 10
106.3070484349741
 20
241.5743285780573
 30
0.0
  0
SEQEND
  5
2D0
330
28E
100
AcDbEntity
  8
Layer 1
 62
     7
420
 16777215
370
    35
  0
POLYLINE
  5
2D1
330
1F
100
AcDbEntity
  8
Layer 1
 62
     7
420
 16777215
370
    35
100
AcDb2dPolyline
 66
     1
 10
0.0
 20
0.0
 30
0.0
  0
VERTEX
  5
2D2
330
2D1
100
AcDbEntity
  8
Layer 1
 62
     7
420
 16777215
370
    35
100
AcDbVertex
100
AcDb2dVertex
 10
132.2497644182176
 20
241.5743301007976
 30
0.0
  0
VERTEX
  5
2D3
330
2D1
100
AcDbEntity
  8
Layer 1
 62
     7
420
 16777215
370
    35
100
AcDbVertex
100
AcDb2dVertex
 10
132.1883932836172
 20
239.9790082884014
 30
0.0
  0
VERTEX
  5
2D4
330
2D1
100
AcDbEntity
  8
Layer 1
 62
     7
420
 16777215
370
    35
100
AcDbVertex
100
AcDb2dVertex
 10
132.065682222723
 20
238.5064287452058
 30
0.0
  0
VERTEX
  5
2D5
330
2D1
100
AcDbEntity
  8
Layer 1
 62
     7
420
 16777215
370
    35
100
AcDbVertex
100
AcDb2dVertex
 10
131.8816156313823
 20
236.9724780674095
 30
0.0
  0
VERTEX
  5
2D6
330
2D1
100
AcDbEntity
  8
Layer 1
 62
     7
420
 16777215
370
    35
100
AcDbVertex
100
AcDb2dVertex
 10
131.636177905438
 20
235.4998829200614
 30
0.0
  0
VERTEX
  5
2D7
330
2D1
100
AcDbEntity
  8
Layer 1
 62
     7
420
 16777215
370
    35
100
AcDbVertex
100
AcDb2dVertex
 10
131.329384649048
 20
234.0886433031594
 30
0.0
  0
VERTEX
  5
2D8
330
2D1
100
AcDbEntity
  8
Layer 1
 62
     7
420
 16777215
370
    35
100
AcDbVertex
100
AcDb2dVertex
 10
130.8998803317637
 20
232.6774036862581
 30
0.0
  0
VERTEX
  5
2D9
330
2D1
100
AcDbEntity
  8
Layer 1
 62
     7
420
 16777215
370
    35
100
AcDbVertex
100
AcDb2dVertex
 10
130.4090204840335
 20
231.2661796735102
 30
0.0
  0
VERTEX
  5
2DA
330
2D1
100
AcDbEntity
  8
Layer 1
 62
     7
420
 16777215
370
    35
100
AcDbVertex
100
AcDb2dVertex
 10
129.9181450321463
 20
229.9162955870563
 30
0.0
  0
VERTEX
  5
2DB
330
2D1
100
AcDbEntity
  8
Layer 1
 62
     7
420
 16777215
370
    35
100
AcDbVertex
100
AcDb2dVertex
 10
129.3045741235219
 20
228.5664271047559
 30
0.0
  0
VERTEX
  5
2DC
330
2D1
100
AcDbEntity
  8
Layer 1
 62
     7
420
 16777215
370
    35
100
AcDbVertex
100
AcDb2dVertex
 10
128.6296320802946
 20
227.2778985487491
 30
0.0
  0
VERTEX
  5
2DD
330
2D1
100
AcDbEntity
  8
Layer 1
 62
     7
420
 16777215
370
    35
100
AcDbVertex
100
AcDb2dVertex
 10
127.8933345066196
 20
226.0507411273433
 30
0.0
  0
VERTEX
  5
2DE
330
2D1
100
AcDbEntity
  8
Layer 1
 62
     7
420
 16777215
370
    35
100
AcDbVertex
100
AcDb2dVertex
 10
127.1570369329465
 20
224.8235837059372
 30
0.0
  0
VERTEX
  5
2DF
330
2D1
100
AcDbEntity
  8
Layer 1
 62
     7
420
 16777215
370
    35
100
AcDbVertex
100
AcDb2dVertex
 10
126.2980282983766
 20
223.6577818149784
 30
0.0
  0
VERTEX
  5
2E0
330
2D1
100
AcDbEntity
  8
Layer 1
 62
     7
420
 16777215
370
    35
100
AcDbVertex
100
AcDb2dVertex
 10
125.4390196638086
 20
222.4919799240197
 30
0.0
  0
VERTEX
  5
2E1
330
2D1
100
AcDbEntity
  8
Layer 1
 62
     7
420
 16777215
370
    35
100
AcDbVertex
100
AcDb2dVertex
 10
124.4572843641906
 20
221.4488890939559
 30
0.0
  0
VERTEX
  5
2E2
330
2D1
100
AcDbEntity
  8
Layer 1
 62
     7
420
 16777215
370
    35
100
AcDbVertex
100
AcDb2dVertex
 10
123.4755646687277
 20
220.4057982638911
 30
0.0
  0
VERTEX
  5
2E3
330
2D1
100
AcDbEntity
  8
Layer 1
 62
     7
420
 16777215
370
    35
100
AcDbVertex
100
AcDb2dVertex
 10
122.4324738386632
 20
219.4240785684279
 30
0.0
  0
VERTEX
  5
2E4
330
2D1
100
AcDbEntity
  8
Layer 1
 62
     7
420
 16777215
370
    35
100
AcDbVertex
100
AcDb2dVertex
 10
121.3893830085988
 20
218.4423432688109
 30
0.0
  0
VERTEX
  5
2E5
330
2D1
100
AcDbEntity
  8
Layer 1
 62
     7
420
 16777215
370
    35
100
AcDbVertex
100
AcDb2dVertex
 10
120.2235811176401
 20
217.5833346342416
 30
0.0
  0
VERTEX
  5
2E6
330
2D1
100
AcDbEntity
  8
Layer 1
 62
     7
420
 16777215
370
    35
100
AcDbVertex
100
AcDb2dVertex
 10
119.0577792266801
 20
216.724325999672
 30
0.0
  0
VERTEX
  5
2E7
330
2D1
100
AcDbEntity
  8
Layer 1
 62
     7
420
 16777215
370
    35
100
AcDbVertex
100
AcDb2dVertex
 10
117.8306218052749
 20
215.9880284259999
 30
0.0
  0
VERTEX
  5
2E8
330
2D1
100
AcDbEntity
  8
Layer 1
 62
     7
420
 16777215
370
    35
100
AcDbVertex
100
AcDb2dVertex
 10
116.6034643838684
 20
215.2517308523238
 30
0.0
  0
VERTEX
  5
2E9
330
2D1
100
AcDbEntity
  8
Layer 1
 62
     7
420
 16777215
370
    35
100
AcDbVertex
100
AcDb2dVertex
 10
115.3149436299388
 20
214.5767888090963
 30
0.0
  0
VERTEX
  5
2EA
330
2D1
100
AcDbEntity
  8
Layer 1
 62
     7
420
 16777215
370
    35
100
AcDbVertex
100
AcDb2dVertex
 10
113.9650673455622
 20
213.9632179004706
 30
0.0
  0
VERTEX
  5
2EB
330
2D1
100
AcDbEntity
  8
Layer 1
 62
     7
420
 16777215
370
    35
100
AcDbVertex
100
AcDb2dVertex
 10
112.6151910611842
 20
213.4723424485853
 30
0.0
  0
VERTEX
  5
2EC
330
2D1
100
AcDbEntity
  8
Layer 1
 62
     7
420
 16777215
370
    35
100
AcDbVertex
100
AcDb2dVertex
 10
111.2039592463598
 20
212.9814826008542
 30
0.0
  0
VERTEX
  5
2ED
330
2D1
100
AcDbEntity
  8
Layer 1
 62
     7
420
 16777215
370
    35
100
AcDbVertex
100
AcDb2dVertex
 10
109.7927196294588
 20
212.5519782835699
 30
0.0
  0
VERTEX
  5
2EE
330
2D1
100
AcDbEntity
  8
Layer 1
 62
     7
420
 16777215
370
    35
100
AcDbVertex
100
AcDb2dVertex
 10
108.381487814633
 20
212.2451850271792
 30
0.0
  0
VERTEX
  5
2EF
330
2D1
100
AcDbEntity
  8
Layer 1
 62
     7
420
 16777215
370
    35
100
AcDbVertex
100
AcDb2dVertex
 10
106.9088926672846
 20
211.9997473012378
 30
0.0
  0
VERTEX
  5
2F0
330
2D1
100
AcDbEntity
  8
Layer 1
 62
     7
420
 16777215
370
    35
100
AcDbVertex
100
AcDb2dVertex
 10
105.374941989489
 20
211.8156807098952
 30
0.0
  0
VERTEX
  5
2F1
330
2D1
100
AcDbEntity
  8
Layer 1
 62
     7
420
 16777215
370
    35
100
AcDbVertex
100
AcDb2dVertex
 10
103.9023546442168
 20
211.692969649
 30
0.0
  0
VERTEX
  5
2F2
330
2D1
100
AcDbEntity
  8
Layer 1
 62
     7
420
 16777215
370
    35
100
AcDbVertex
100
AcDb2dVertex
 10
102.3070406338981
 20
211.6315985144
 30
0.0
  0
VERTEX
  5
2F3
330
2D1
100
AcDbEntity
  8
Layer 1
 62
     7
420
 16777215
370
    35
100
AcDbVertex
100
AcDb2dVertex
 10
100.7730899561019
 20
211.692969649
 30
0.0
  0
VERTEX
  5
2F4
330
2D1
100
AcDbEntity
  8
Layer 1
 62
     7
420
 16777215
370
    35
100
AcDbVertex
100
AcDb2dVertex
 10
99.3005026108294
 20
211.8156807098952
 30
0.0
  0
VERTEX
  5
2F5
330
2D1
100
AcDbEntity
  8
Layer 1
 62
     7
420
 16777215
370
    35
100
AcDbVertex
100
AcDb2dVertex
 10
97.76655193303317
 20
211.9997473012378
 30
0.0
  0
VERTEX
  5
2F6
330
2D1
100
AcDbEntity
  8
Layer 1
 62
     7
420
 16777215
370
    35
100
AcDbVertex
100
AcDb2dVertex
 10
96.29395678568501
 20
212.2451850271792
 30
0.0
  0
VERTEX
  5
2F7
330
2D1
100
AcDbEntity
  8
Layer 1
 62
     7
420
 16777215
370
    35
100
AcDbVertex
100
AcDb2dVertex
 10
94.88272497085963
 20
212.5519782835699
 30
0.0
  0
VERTEX
  5
2F8
330
2D1
100
AcDbEntity
  8
Layer 1
 62
     7
420
 16777215
370
    35
100
AcDbVertex
100
AcDb2dVertex
 10
93.4714853539602
 20
212.9814826008542
 30
0.0
  0
VERTEX
  5
2F9
330
2D1
100
AcDbEntity
  8
Layer 1
 62
     7
420
 16777215
370
    35
100
AcDbVertex
100
AcDb2dVertex
 10
92.06025353913417
 20
213.4723424485853
 30
0.0
  0
VERTEX
  5
2FA
330
2D1
100
AcDbEntity
  8
Layer 1
 62
     7
420
 16777215
370
    35
100
AcDbVertex
100
AcDb2dVertex
 10
90.71037725475654
 20
213.9632179004706
 30
0.0
  0
VERTEX
  5
2FB
330
2D1
100
AcDbEntity
  8
Layer 1
 62
     7
420
 16777215
370
    35
100
AcDbVertex
100
AcDb2dVertex
 10
89.36050097037986
 20
214.5767888090963
 30
0.0
  0
VERTEX
  5
2FC
330
2D1
100
AcDbEntity
  8
Layer 1
 62
     7
420
 16777215
370
    35
100
AcDbVertex
100
AcDb2dVertex
 10
88.07198021644967
 20
215.2517308523238
 30
0.0
  0
VERTEX
  5
2FD
330
2D1
100
AcDbEntity
  8
Layer 1
 62
     7
420
 16777215
370
    35
100
AcDbVertex
100
AcDb2dVertex
 10
86.84482279504289
 20
215.9880284259999
 30
0.0
  0
VERTEX
  5
2FE
330
2D1
100
AcDbEntity
  8
Layer 1
 62
     7
420
 16777215
370
    35
100
AcDbVertex
100
AcDb2dVertex
 10
85.61765757156141
 20
216.724325999672
 30
0.0
  0
VERTEX
  5
2FF
330
2D1
100
AcDbEntity
  8
Layer 1
 62
     7
420
 16777215
370
    35
100
AcDbVertex
100
AcDb2dVertex
 10
84.45185568060238
 20
217.5833346342416
 30
0.0
  0
VERTEX
  5
300
330
2D1
100
AcDbEntity
  8
Layer 1
 62
     7
420
 16777215
370
    35
100
AcDbVertex
100
AcDb2dVertex
 10
83.28605378964399
 20
218.4423432688109
 30
0.0
  0
VERTEX
  5
301
330
2D1
100
AcDbEntity
  8
Layer 1
 62
     7
420
 16777215
370
    35
100
AcDbVertex
100
AcDb2dVertex
 10
82.24297076165483
 20
219.4240785684279
 30
0.0
  0
VERTEX
  5
302
330
2D1
100
AcDbEntity
  8
Layer 1
 62
     7
420
 16777215
370
    35
100
AcDbVertex
100
AcDb2dVertex
 10
81.19988773366823
 20
220.4057982638911
 30
0.0
  0
VERTEX
  5
303
330
2D1
100
AcDbEntity
  8
Layer 1
 62
     7
420
 16777215
370
    35
100
AcDbVertex
100
AcDb2dVertex
 10
80.2181602361278
 20
221.4488890939559
 30
0.0
  0
VERTEX
  5
304
330
2D1
100
AcDbEntity
  8
Layer 1
 62
     7
420
 16777215
370
    35
100
AcDbVertex
100
AcDb2dVertex
 10
79.23642493651077
 20
222.4919799240197
 30
0.0
  0
VERTEX
  5
305
330
2D1
100
AcDbEntity
  8
Layer 1
 62
     7
420
 16777215
370
    35
100
AcDbVertex
100
AcDb2dVertex
 10
78.37741630194213
 20
223.6577818149784
 30
0.0
  0
VERTEX
  5
306
330
2D1
100
AcDbEntity
  8
Layer 1
 62
     7
420
 16777215
370
    35
100
AcDbVertex
100
AcDb2dVertex
 10
77.51839986529595
 20
224.8235837059372
 30
0.0
  0
VERTEX
  5
307
330
2D1
100
AcDbEntity
  8
Layer 1
 62
     7
420
 16777215
370
    35
100
AcDbVertex
100
AcDb2dVertex
 10
76.78210229162187
 20
226.0507411273433
 30
0.0
  0
VERTEX
  5
308
330
2D1
100
AcDbEntity
  8
Layer 1
 62
     7
420
 16777215
370
    35
100
AcDbVertex
100
AcDb2dVertex
 10
76.04581252002504
 20
227.2778985487491
 30
0.0
  0
VERTEX
  5
309
330
2D1
100
AcDbEntity
  8
Layer 1
 62
     7
420
 16777215
370
    35
100
AcDbVertex
100
AcDb2dVertex
 10
75.37087047679776
 20
228.5664271047559
 30
0.0
  0
VERTEX
  5
30A
330
2D1
100
AcDbEntity
  8
Layer 1
 62
     7
420
 16777215
370
    35
100
AcDbVertex
100
AcDb2dVertex
 10
74.75729176609485
 20
229.9162955870563
 30
0.0
  0
VERTEX
  5
30B
330
2D1
100
AcDbEntity
  8
Layer 1
 62
     7
420
 16777215
370
    35
100
AcDbVertex
100
AcDb2dVertex
 10
74.26642411628617
 20
231.2661796735102
 30
0.0
  0
VERTEX
  5
30C
330
2D1
100
AcDbEntity
  8
Layer 1
 62
     7
420
 16777215
370
    35
100
AcDbVertex
100
AcDb2dVertex
 10
73.77556426855377
 20
232.6774036862581
 30
0.0
  0
VERTEX
  5
30D
330
2D1
100
AcDbEntity
  8
Layer 1
 62
     7
420
 16777215
370
    35
100
AcDbVertex
100
AcDb2dVertex
 10
73.34605214919446
 20
234.0886433031594
 30
0.0
  0
VERTEX
  5
30E
330
2D1
100
AcDbEntity
  8
Layer 1
 62
     7
420
 16777215
370
    35
100
AcDbVertex
100
AcDb2dVertex
 10
73.03926669488067
 20
235.4998829200614
 30
0.0
  0
VERTEX
  5
30F
330
2D1
100
AcDbEntity
  8
Layer 1
 62
     7
420
 16777215
370
    35
100
AcDbVertex
100
AcDb2dVertex
 10
72.7938367710143
 20
236.9724780674095
 30
0.0
  0
VERTEX
  5
310
330
2D1
100
AcDbEntity
  8
Layer 1
 62
     7
420
 16777215
370
    35
100
AcDbVertex
100
AcDb2dVertex
 10
72.60975457551974
 20
238.5064287452058
 30
0.0
  0
VERTEX
  5
311
330
2D1
100
AcDbEntity
  8
Layer 1
 62
     7
420
 16777215
370
    35
100
AcDbVertex
100
AcDb2dVertex
 10
72.48704351462486
 20
239.9790082884014
 30
0.0
  0
VERTEX
  5
312
330
2D1
100
AcDbEntity
  8
Layer 1
 62
     7
420
 16777215
370
    35
100
AcDbVertex
100
AcDb2dVertex
 10
72.42568798417678
 20
241.5743301007976
 30
0.0
  0
VERTEX
  5
313
330
2D1
100
AcDbEntity
  8
Layer 1
 62
     7
420
 16777215
370
    35
100
AcDbVertex
100
AcDb2dVertex
 10
72.48704351462486
 20
243.1082807785935
 30
0.0
  0
VERTEX
  5
314
330
2D1
100
AcDbEntity
  8
Layer 1
 62
     7
420
 16777215
370
    35
100
AcDbVertex
100
AcDb2dVertex
 10
72.60975457551974
 20
244.5808603217891
 30
0.0
  0
VERTEX
  5
315
330
2D1
100
AcDbEntity
  8
Layer 1
 62
     7
420
 16777215
370
    35
100
AcDbVertex
100
AcDb2dVertex
 10
72.7938367710143
 20
246.1148109995853
 30
0.0
  0
VERTEX
  5
316
330
2D1
100
AcDbEntity
  8
Layer 1
 62
     7
420
 16777215
370
    35
100
AcDbVertex
100
AcDb2dVertex
 10
73.03926669488067
 20
247.5874061469335
 30
0.0
  0
VERTEX
  5
317
330
2D1
100
AcDbEntity
  8
Layer 1
 62
     7
420
 16777215
370
    35
100
AcDbVertex
100
AcDb2dVertex
 10
73.34605214919446
 20
248.9986457638342
 30
0.0
  0
VERTEX
  5
318
330
2D1
100
AcDbEntity
  8
Layer 1
 62
     7
420
 16777215
370
    35
100
AcDbVertex
100
AcDb2dVertex
 10
73.77556426855377
 20
250.4098853807362
 30
0.0
  0
VERTEX
  5
319
330
2D1
100
AcDbEntity
  8
Layer 1
 62
     7
420
 16777215
370
    35
100
AcDbVertex
100
AcDb2dVertex
 10
74.26642411628617
 20
251.8211093934837
 30
0.0
  0
VERTEX
  5
31A
330
2D1
100
AcDbEntity
  8
Layer 1
 62
     7
420
 16777215
370
    35
100
AcDbVertex
100
AcDb2dVertex
 10
74.75729176609485
 20
253.1709934799382
 30
0.0
  0
VERTEX
  5
31B
330
2D1
100
AcDbEntity
  8
Layer 1
 62
     7
420
 16777215
370
    35
100
AcDbVertex
100
AcDb2dVertex
 10
75.37087047679776
 20
254.5208619622389
 30
0.0
  0
VERTEX
  5
31C
330
2D1
100
AcDbEntity
  8
Layer 1
 62
     7
420
 16777215
370
    35
100
AcDbVertex
100
AcDb2dVertex
 10
76.04581252002504
 20
255.8093905182454
 30
0.0
  0
VERTEX
  5
31D
330
2D1
100
AcDbEntity
  8
Layer 1
 62
     7
420
 16777215
370
    35
100
AcDbVertex
100
AcDb2dVertex
 10
76.78210229162187
 20
257.0365479396513
 30
0.0
  0
VERTEX
  5
31E
330
2D1
100
AcDbEntity
  8
Layer 1
 62
     7
420
 16777215
370
    35
100
AcDbVertex
100
AcDb2dVertex
 10
77.51839986529595
 20
258.2637053610577
 30
0.0
  0
VERTEX
  5
31F
330
2D1
100
AcDbEntity
  8
Layer 1
 62
     7
420
 16777215
370
    35
100
AcDbVertex
100
AcDb2dVertex
 10
78.37741630194213
 20
259.4295072520158
 30
0.0
  0
VERTEX
  5
320
330
2D1
100
AcDbEntity
  8
Layer 1
 62
     7
420
 16777215
370
    35
100
AcDbVertex
100
AcDb2dVertex
 10
79.23642493651077
 20
260.5953091429745
 30
0.0
  0
VERTEX
  5
321
330
2D1
100
AcDbEntity
  8
Layer 1
 62
     7
420
 16777215
370
    35
100
AcDbVertex
100
AcDb2dVertex
 10
80.2181602361278
 20
261.6383999730396
 30
0.0
  0
VERTEX
  5
322
330
2D1
100
AcDbEntity
  8
Layer 1
 62
     7
420
 16777215
370
    35
100
AcDbVertex
100
AcDb2dVertex
 10
81.19988773366823
 20
262.6814908031034
 30
0.0
  0
VERTEX
  5
323
330
2D1
100
AcDbEntity
  8
Layer 1
 62
     7
420
 16777215
370
    35
100
AcDbVertex
100
AcDb2dVertex
 10
82.24297076165483
 20
263.663210498567
 30
0.0
  0
VERTEX
  5
324
330
2D1
100
AcDbEntity
  8
Layer 1
 62
     7
420
 16777215
370
    35
100
AcDbVertex
100
AcDb2dVertex
 10
83.28605378964399
 20
264.6449457981834
 30
0.0
  0
VERTEX
  5
325
330
2D1
100
AcDbEntity
  8
Layer 1
 62
     7
420
 16777215
370
    35
100
AcDbVertex
100
AcDb2dVertex
 10
84.45185568060238
 20
265.5039544327529
 30
0.0
  0
VERTEX
  5
326
330
2D1
100
AcDbEntity
  8
Layer 1
 62
     7
420
 16777215
370
    35
100
AcDbVertex
100
AcDb2dVertex
 10
85.61765757156141
 20
266.3629630673219
 30
0.0
  0
VERTEX
  5
327
330
2D1
100
AcDbEntity
  8
Layer 1
 62
     7
420
 16777215
370
    35
100
AcDbVertex
100
AcDb2dVertex
 10
86.84482279504289
 20
267.0992606409963
 30
0.0
  0
VERTEX
  5
328
330
2D1
100
AcDbEntity
  8
Layer 1
 62
     7
420
 16777215
370
    35
100
AcDbVertex
100
AcDb2dVertex
 10
88.07198021644967
 20
267.8355582146704
 30
0.0
  0
VERTEX
  5
329
330
2D1
100
AcDbEntity
  8
Layer 1
 62
     7
420
 16777215
370
    35
100
AcDbVertex
100
AcDb2dVertex
 10
89.36050097037986
 20
268.5105002578977
 30
0.0
  0
VERTEX
  5
32A
330
2D1
100
AcDbEntity
  8
Layer 1
 62
     7
420
 16777215
370
    35
100
AcDbVertex
100
AcDb2dVertex
 10
90.71037725475654
 20
269.1240711665233
 30
0.0
  0
VERTEX
  5
32B
330
2D1
100
AcDbEntity
  8
Layer 1
 62
     7
420
 16777215
370
    35
100
AcDbVertex
100
AcDb2dVertex
 10
92.06025353913417
 20
269.6149466184083
 30
0.0
  0
VERTEX
  5
32C
330
2D1
100
AcDbEntity
  8
Layer 1
 62
     7
420
 16777215
370
    35
100
AcDbVertex
100
AcDb2dVertex
 10
93.4714853539602
 20
270.1058064661403
 30
0.0
  0
VERTEX
  5
32D
330
2D1
100
AcDbEntity
  8
Layer 1
 62
     7
420
 16777215
370
    35
100
AcDbVertex
100
AcDb2dVertex
 10
94.88272497085963
 20
270.5353107834247
 30
0.0
  0
VERTEX
  5
32E
330
2D1
100
AcDbEntity
  8
Layer 1
 62
     7
420
 16777215
370
    35
100
AcDbVertex
100
AcDb2dVertex
 10
96.29395678568501
 20
270.8421040398141
 30
0.0
  0
VERTEX
  5
32F
330
2D1
100
AcDbEntity
  8
Layer 1
 62
     7
420
 16777215
370
    35
100
AcDbVertex
100
AcDb2dVertex
 10
97.76655193303317
 20
271.0875261616048
 30
0.0
  0
VERTEX
  5
330
330
2D1
100
AcDbEntity
  8
Layer 1
 62
     7
420
 16777215
370
    35
100
AcDbVertex
100
AcDb2dVertex
 10
99.3005026108294
 20
271.2716083571
 30
0.0
  0
VERTEX
  5
331
330
2D1
100
AcDbEntity
  8
Layer 1
 62
     7
420
 16777215
370
    35
100
AcDbVertex
100
AcDb2dVertex
 10
100.7730899561019
 20
271.3943194179943
 30
0.0
  0
VERTEX
  5
332
330
2D1
100
AcDbEntity
  8
Layer 1
 62
     7
420
 16777215
370
    35
100
AcDbVertex
100
AcDb2dVertex
 10
102.3070406338981
 20
271.4556749484411
 30
0.0
  0
VERTEX
  5
333
330
2D1
100
AcDbEntity
  8
Layer 1
 62
     7
420
 16777215
370
    35
100
AcDbVertex
100
AcDb2dVertex
 10
103.9023546442168
 20
271.3943194179943
 30
0.0
  0
VERTEX
  5
334
330
2D1
100
AcDbEntity
  8
Layer 1
 62
     7
420
 16777215
370
    35
100
AcDbVertex
100
AcDb2dVertex
 10
105.374941989489
 20
271.2716083571
 30
0.0
  0
VERTEX
  5
335
330
2D1
100
AcDbEntity
  8
Layer 1
 62
     7
420
 16777215
370
    35
100
AcDbVertex
100
AcDb2dVertex
 10
106.9088926672846
 20
271.0875261616048
 30
0.0
  0
VERTEX
  5
336
330
2D1
100
AcDbEntity
  8
Layer 1
 62
     7
420
 16777215
370
    35
100
AcDbVertex
100
AcDb2dVertex
 10
108.381487814633
 20
270.8421040398141
 30
0.0
  0
VERTEX
  5
337
330
2D1
100
AcDbEntity
  8
Layer 1
 62
     7
420
 16777215
370
    35
100
AcDbVertex
100
AcDb2dVertex
 10
109.7927196294588
 20
270.5353107834247
 30
0.0
  0
VERTEX
  5
338
330
2D1
100
AcDbEntity
  8
Layer 1
 62
     7
420
 16777215
370
    35
100
AcDbVertex
100
AcDb2dVertex
 10
111.2039592463598
 20
270.1058064661403
 30
0.0
  0
VERTEX
  5
339
330
2D1
100
AcDbEntity
  8
Layer 1
 62
     7
420
 16777215
370
    35
100
AcDbVertex
100
AcDb2dVertex
 10
112.6151910611842
 20
269.6149466184083
 30
0.0
  0
VERTEX
  5
33A
330
2D1
100
AcDbEntity
  8
Layer 1
 62
     7
420
 16777215
370
    35
100
AcDbVertex
100
AcDb2dVertex
 10
113.9650673455622
 20
269.1240711665233
 30
0.0
  0
VERTEX
  5
33B
330
2D1
100
AcDbEntity
  8
Layer 1
 62
     7
420
 16777215
370
    35
100
AcDbVertex
100
AcDb2dVertex
 10
115.3149436299388
 20
268.5105002578977
 30
0.0
  0
VERTEX
  5
33C
330
2D1
100
AcDbEntity
  8
Layer 1
 62
     7
420
 16777215
370
    35
100
AcDbVertex
100
AcDb2dVertex
 10
116.6034643838684
 20
267.8355582146704
 30
0.0
  0
VERTEX
  5
33D
330
2D1
100
AcDbEntity
  8
Layer 1
 62
     7
420
 16777215
370
    35
100
AcDbVertex
100
AcDb2dVertex
 10
117.8306218052749
 20
267.0992606409963
 30
0.0
  0
VERTEX
  5
33E
330
2D1
100
AcDbEntity
  8
Layer 1
 62
     7
420
 16777215
370
    35
100
AcDbVertex
100
AcDb2dVertex
 10
119.0577792266801
 20
266.3629630673219
 30
0.0
  0
VERTEX
  5
33F
330
2D1
100
AcDbEntity
  8
Layer 1
 62
     7
420
 16777215
370
    35
100
AcDbVertex
100
AcDb2dVertex
 10
120.2235811176401
 20
265.5039544327529
 30
0.0
  0
VERTEX
  5
340
330
2D1
100
AcDbEntity
  8
Layer 1
 62
     7
420
 16777215
370
    35
100
AcDbVertex
100
AcDb2dVertex
 10
121.3893830085988
 20
264.6449457981834
 30
0.0
  0
VERTEX
  5
341
330
2D1
100
AcDbEntity
  8
Layer 1
 62
     7
420
 16777215
370
    35
100
AcDbVertex
100
AcDb2dVertex
 10
122.4324738386632
 20
263.663210498567
 30
0.0
  0
VERTEX
  5
342
330
2D1
100
AcDbEntity
  8
Layer 1
 62
     7
420
 16777215
370
    35
100
AcDbVertex
100
AcDb2dVertex
 10
123.4755646687277
 20
262.6814908031034
 30
0.0
  0
VERTEX
  5
343
330
2D1
100
AcDbEntity
  8
Layer 1
 62
     7
420
 16777215
370
    35
100
AcDbVertex
100
AcDb2dVertex
 10
124.4572843641906
 20
261.6383999730396
 30
0.0
  0
VERTEX
  5
344
330
2D1
100
AcDbEntity
  8
Layer 1
 62
     7
420
 16777215
370
    35
100
AcDbVertex
100
AcDb2dVertex
 10
125.4390196638086
 20
260.5953091429745
 30
0.0
  0
VERTEX
  5
345
330
2D1
100
AcDbEntity
  8
Layer 1
 62
     7
420
 16777215
370
    35
100
AcDbVertex
100
AcDb2dVertex
 10
126.2980282983766
 20
259.4295072520158
 30
0.0
  0
VERTEX
  5
346
330
2D1
100
AcDbEntity
  8
Layer 1
 62
     7
420
 16777215
370
    35
100
AcDbVertex
100
AcDb2dVertex
 10
127.1570369329465
 20
258.2637053610577
 30
0.0
  0
VERTEX
  5
347
330
2D1
100
AcDbEntity
  8
Layer 1
 62
     7
420
 16777215
370
    35
100
AcDbVertex
100
AcDb2dVertex
 10
127.8933345066196
 20
257.0365479396513
 30
0.0
  0
VERTEX
  5
348
330
2D1
100
AcDbEntity
  8
Layer 1
 62
     7
420
 16777215
370
    35
100
AcDbVertex
100
AcDb2dVertex
 10
128.6296320802946
 20
255.8093905182454
 30
0.0
  0
VERTEX
  5
349
330
2D1
100
AcDbEntity
  8
Layer 1
 62
     7
420
 16777215
370
    35
100
AcDbVertex
100
AcDb2dVertex
 10
129.3045741235219
 20
254.5208619622389
 30
0.0
  0
VERTEX
  5
34A
330
2D1
100
AcDbEntity
  8
Layer 1
 62
     7
420
 16777215
370
    35
100
AcDbVertex
100
AcDb2dVertex
 10
129.9181450321463
 20
253.1709934799382
 30
0.0
  0
VERTEX
  5
34B
330
2D1
100
AcDbEntity
  8
Layer 1
 62
     7
420
 16777215
370
    35
100
AcDbVertex
100
AcDb2dVertex
 10
130.4090204840335
 20
251.8211093934837
 30
0.0
  0
VERTEX
  5
34C
330
2D1
100
AcDbEntity
  8
Layer 1
 62
     7
420
 16777215
370
    35
100
AcDbVertex
100
AcDb2dVertex
 10
130.8998803317637
 20
250.4098853807362
 30
0.0
  0
VERTEX
  5
34D
330
2D1
100
AcDbEntity
  8
Layer 1
 62
     7
420
 16777215
370
    35
100
AcDbVertex
100
AcDb2dVertex
 10
131.329384649048
 20
248.9986457638342
 30
0.0
  0
VERTEX
  5
34E
330
2D1
100
AcDbEntity
  8
Layer 1
 62
     7
420
 16777215
370
    35
100
AcDbVertex
100
AcDb2dVertex
 10
131.636177905438
 20
247.5874061469335
 30
0.0
  0
VERTEX
  5
34F
330
2D1
100
AcDbEntity
  8
Layer 1
 62
     7
420
 16777215
370
    35
100
AcDbVertex
100
AcDb2dVertex
 10
131.8816156313823
 20
246.1148109995853
 30
0.0
  0
VERTEX
  5
350
330
2D1
100
AcDbEntity
  8
Layer 1
 62
     7
420
 16777215
370
    35
100
AcDbVertex
100
AcDb2dVertex
 10
132.065682222723
 20
244.5808603217891
 30
0.0
  0
VERTEX
  5
351
330
2D1
100
AcDbEntity
  8
Layer 1
 62
     7
420
 16777215
370
    35
100
AcDbVertex
100
AcDb2dVertex
 10
132.1883932836172
 20
243.1082807785935
 30
0.0
  0
VERTEX
  5
352
330
2D1
100
AcDbEntity
  8
Layer 1
 62
     7
420
 16777215
370
    35
100
AcDbVertex
100
AcDb2dVertex
 10
132.2497644182176
 20
241.5743301007976
 30
0.0
  0
SEQEND
  5
353
330
2D1
100
AcDbEntity
  8
Layer 1
 62
     7
420
 16777215
370
    35
  0
POLYLINE
  5
354
330
1F
100
AcDbEntity
  8
Layer 1
 62
     7
420
 16777215
370
    35
100
AcDb2dPolyline
 66
     1
 10
0.0
 20
0.0
 30
0.0
  0
VERTEX
  5
355
330
354
100
AcDbEntity
  8
Layer 1
 62
     7
420
 16777215
370
    35
100
AcDbVertex
100
AcDb2dVertex
 10
126.3593994329769
 20
252.5574069671584
 30
0.0
  0
VERTEX
  5
356
330
354
100
AcDbEntity
  8
Layer 1
 62
     7
420
 16777215
370
    35
100
AcDbVertex
100
AcDb2dVertex
 10
125.9912506461403
 20
253.2936889366793
 30
0.0
  0
VERTEX
  5
357
330
354
100
AcDbEntity
  8
Layer 1
 62
     7
420
 16777215
370
    35
100
AcDbVertex
100
AcDb2dVertex
 10
125.6231018593031
 20
254.0913576449546
 30
0.0
  0
VERTEX
  5
358
330
354
100
AcDbEntity
  8
Layer 1
 62
     7
420
 16777215
370
    35
100
AcDbVertex
100
AcDb2dVertex
 10
124.7640776205813
 20
255.5025816577018
 30
0.0
  0
VERTEX
  5
359
330
354
100
AcDbEntity
  8
Layer 1
 62
     7
420
 16777215
370
    35
100
AcDbVertex
100
AcDb2dVertex
 10
123.8437134555662
 20
256.9138212746032
 30
0.0
  0
VERTEX
  5
35A
330
354
100
AcDbEntity
  8
Layer 1
 62
     7
420
 16777215
370
    35
100
AcDbVertex
100
AcDb2dVertex
 10
122.8619781559476
 20
258.2023342264574
 30
0.0
  0
VERTEX
  5
35B
330
354
100
AcDbEntity
  8
Layer 1
 62
     7
420
 16777215
370
    35
100
AcDbVertex
100
AcDb2dVertex
 10
121.7575473995898
 20
259.4908627824642
 30
0.0
  0
VERTEX
  5
35C
330
354
100
AcDbEntity
  8
Layer 1
 62
     7
420
 16777215
370
    35
100
AcDbVertex
100
AcDb2dVertex
 10
120.591729904476
 20
260.6566646734226
 30
0.0
  0
VERTEX
  5
35D
330
354
100
AcDbEntity
  8
Layer 1
 62
     7
420
 16777215
370
    35
100
AcDbVertex
100
AcDb2dVertex
 10
119.3645724830708
 20
261.7611110339348
 30
0.0
  0
VERTEX
  5
35E
330
354
100
AcDbEntity
  8
Layer 1
 62
     7
420
 16777215
370
    35
100
AcDbVertex
100
AcDb2dVertex
 10
118.0760595312178
 20
262.8041862598454
 30
0.0
  0
VERTEX
  5
35F
330
354
100
AcDbEntity
  8
Layer 1
 62
     7
420
 16777215
370
    35
100
AcDbVertex
100
AcDb2dVertex
 10
116.6648277163921
 20
263.7245660290138
 30
0.0
  0
VERTEX
  5
360
330
354
100
AcDbEntity
  8
Layer 1
 62
     7
420
 16777215
370
    35
100
AcDbVertex
100
AcDb2dVertex
 10
115.2535959015696
 20
264.583574663583
 30
0.0
  0
VERTEX
  5
361
330
354
100
AcDbEntity
  8
Layer 1
 62
     7
420
 16777215
370
    35
100
AcDbVertex
100
AcDb2dVertex
 10
113.7810007542208
 20
265.3812277677052
 30
0.0
  0
VERTEX
  5
362
330
354
100
AcDbEntity
  8
Layer 1
 62
     7
420
 16777215
370
    35
100
AcDbVertex
100
AcDb2dVertex
 10
113.0447031805451
 20
265.688021024095
 30
0.0
  0
VERTEX
  5
363
330
354
100
AcDbEntity
  8
Layer 1
 62
     7
420
 16777215
370
    35
100
AcDbVertex
100
AcDb2dVertex
 10
112.2470500764243
 20
266.0561698109312
 30
0.0
  0
VERTEX
  5
364
330
354
100
AcDbEntity
  8
Layer 1
 62
     7
420
 16777215
370
    35
100
AcDbVertex
100
AcDb2dVertex
 10
111.4493969723034
 20
266.3629630673219
 30
0.0
  0
VERTEX
  5
365
330
354
100
AcDbEntity
  8
Layer 1
 62
     7
420
 16777215
370
    35
100
AcDbVertex
100
AcDb2dVertex
 10
110.6517438681793
 20
266.6083851891107
 30
0.0
  0
VERTEX
  5
366
330
354
100
AcDbEntity
  8
Layer 1
 62
     7
420
 16777215
370
    35
100
AcDbVertex
100
AcDb2dVertex
 10
109.8540829619818
 20
266.8538229150533
 30
0.0
  0
VERTEX
  5
367
330
354
100
AcDbEntity
  8
Layer 1
 62
     7
420
 16777215
370
    35
100
AcDbVertex
100
AcDb2dVertex
 10
108.9950743274132
 20
267.0992450368428
 30
0.0
  0
VERTEX
  5
368
330
354
100
AcDbEntity
  8
Layer 1
 62
     7
420
 16777215
370
    35
100
AcDbVertex
100
AcDb2dVertex
 10
108.1974212232917
 20
267.2833272323376
 30
0.0
  0
VERTEX
  5
369
330
354
100
AcDbEntity
  8
Layer 1
 62
     7
420
 16777215
370
    35
100
AcDbVertex
100
AcDb2dVertex
 10
107.3384047866471
 20
267.4673938236797
 30
0.0
  0
VERTEX
  5
36A
330
354
100
AcDbEntity
  8
Layer 1
 62
     7
420
 16777215
370
    35
100
AcDbVertex
100
AcDb2dVertex
 10
106.4793961520785
 20
267.6514760191752
 30
0.0
  0
VERTEX
  5
36B
330
354
100
AcDbEntity
  8
Layer 1
 62
     7
420
 16777215
370
    35
100
AcDbVertex
100
AcDb2dVertex
 10
105.6203797154323
 20
267.7741870800694
 30
0.0
  0
VERTEX
  5
36C
330
354
100
AcDbEntity
  8
Layer 1
 62
     7
420
 16777215
370
    35
100
AcDbVertex
100
AcDb2dVertex
 10
106.3566772891057
 20
252.4346803021103
 30
0.0
  0
VERTEX
  5
36D
330
354
100
AcDbEntity
  8
Layer 1
 62
     7
420
 16777215
370
    35
100
AcDbVertex
100
AcDb2dVertex
 10
106.3566772891057
 20
252.005175984825
 30
0.0
  0
VERTEX
  5
36E
330
354
100
AcDbEntity
  8
Layer 1
 62
     7
420
 16777215
370
    35
100
AcDbVertex
100
AcDb2dVertex
 10
106.4793961520785
 20
251.575671667542
 30
0.0
  0
VERTEX
  5
36F
330
354
100
AcDbEntity
  8
Layer 1
 62
     7
420
 16777215
370
    35
100
AcDbVertex
100
AcDb2dVertex
 10
106.6021072129717
 20
251.2075228807042
 30
0.0
  0
VERTEX
  5
370
330
354
100
AcDbEntity
  8
Layer 1
 62
     7
420
 16777215
370
    35
100
AcDbVertex
100
AcDb2dVertex
 10
106.7861816063903
 20
250.7780185634199
 30
0.0
  0
VERTEX
  5
371
330
354
100
AcDbEntity
  8
Layer 1
 62
     7
420
 16777215
370
    35
100
AcDbVertex
100
AcDb2dVertex
 10
106.9702559998073
 20
250.409869776583
 30
0.0
  0
VERTEX
  5
372
330
354
100
AcDbEntity
  8
Layer 1
 62
     7
420
 16777215
370
    35
100
AcDbVertex
100
AcDb2dVertex
 10
107.2156937257513
 20
250.1030765201932
 30
0.0
  0
VERTEX
  5
373
330
354
100
AcDbEntity
  8
Layer 1
 62
     7
420
 16777215
370
    35
100
AcDbVertex
100
AcDb2dVertex
 10
107.5224791800647
 20
249.7962832638028
 30
0.0
  0
VERTEX
  5
374
330
354
100
AcDbEntity
  8
Layer 1
 62
     7
420
 16777215
370
    35
100
AcDbVertex
100
AcDb2dVertex
 10
107.8292724364548
 20
249.4895056115666
 30
0.0
  0
VERTEX
  5
375
330
354
100
AcDbEntity
  8
Layer 1
 62
     7
420
 16777215
370
    35
100
AcDbVertex
100
AcDb2dVertex
 10
108.1974212232917
 20
249.2440678856239
 30
0.0
  0
VERTEX
  5
376
330
354
100
AcDbEntity
  8
Layer 1
 62
     7
420
 16777215
370
    35
100
AcDbVertex
100
AcDb2dVertex
 10
108.626925540576
 20
248.9986301596813
 30
0.0
  0
VERTEX
  5
377
330
354
100
AcDbEntity
  8
Layer 1
 62
     7
420
 16777215
370
    35
100
AcDbVertex
100
AcDb2dVertex
 10
109.056429857861
 20
248.8145635683396
 30
0.0
  0
VERTEX
  5
378
330
354
100
AcDbEntity
  8
Layer 1
 62
     7
420
 16777215
370
    35
100
AcDbVertex
100
AcDb2dVertex
 10
109.4859419772219
 20
248.6918369032922
 30
0.0
  0
VERTEX
  5
379
330
354
100
AcDbEntity
  8
Layer 1
 62
     7
420
 16777215
370
    35
100
AcDbVertex
100
AcDb2dVertex
 10
109.9154462945068
 20
248.6304813728438
 30
0.0
  0
VERTEX
  5
37A
330
354
100
AcDbEntity
  8
Layer 1
 62
     7
420
 16777215
370
    35
100
AcDbVertex
100
AcDb2dVertex
 10
110.3449506117905
 20
248.6304813728438
 30
0.0
  0
VERTEX
  5
37B
330
354
100
AcDbEntity
  8
Layer 1
 62
     7
420
 16777215
370
    35
100
AcDbVertex
100
AcDb2dVertex
 10
110.8358182615979
 20
248.6304813728438
 30
0.0
  0
VERTEX
  5
37C
330
354
100
AcDbEntity
  8
Layer 1
 62
     7
420
 16777215
370
    35
100
AcDbVertex
100
AcDb2dVertex
 10
111.2653225788848
 20
248.7532080378925
 30
0.0
  0
VERTEX
  5
37D
330
354
100
AcDbEntity
  8
Layer 1
 62
     7
420
 16777215
370
    35
100
AcDbVertex
100
AcDb2dVertex
 10
126.3593994329769
 20
252.5574069671584
 30
0.0
  0
SEQEND
  5
37E
330
354
100
AcDbEntity
  8
Layer 1
 62
     7
420
 16777215
370
    35
  0
POLYLINE
  5
37F
330
1F
100
AcDbEntity
  8
Layer 1
 62
     7
420
 16777215
370
    35
100
AcDb2dPolyline
 66
     1
 10
0.0
 20
0.0
 30
0.0
  0
VERTEX
  5
380
330
37F
100
AcDbEntity
  8
Layer 1
 62
     7
420
 16777215
370
    35
100
AcDbVertex
100
AcDb2dVertex
 10
16.14747086210517
 20
192.7947029066206
 30
0.0
  0
VERTEX
  5
381
330
37F
100
AcDbEntity
  8
Layer 1
 62
     7
420
 16777215
370
    35
100
AcDbVertex
100
AcDb2dVertex
 10
31.24153991412131
 20
189.1132150382489
 30
0.0
  0
VERTEX
  5
382
330
37F
100
AcDbEntity
  8
Layer 1
 62
     7
420
 16777215
370
    35
100
AcDbVertex
100
AcDb2dVertex
 10
31.67104423140595
 20
188.9905039773534
 30
0.0
  0
VERTEX
  5
383
330
37F
100
AcDbEntity
  8
Layer 1
 62
     7
420
 16777215
370
    35
100
AcDbVertex
100
AcDb2dVertex
 10
32.1005563507675
 20
188.9905039773534
 30
0.0
  0
VERTEX
  5
384
330
37F
100
AcDbEntity
  8
Layer 1
 62
     7
420
 16777215
370
    35
100
AcDbVertex
100
AcDb2dVertex
 10
32.53006066805182
 20
188.9905039773534
 30
0.0
  0
VERTEX
  5
385
330
37F
100
AcDbEntity
  8
Layer 1
 62
     7
420
 16777215
370
    35
100
AcDbVertex
100
AcDb2dVertex
 10
32.95956498533646
 20
189.0518595078028
 30
0.0
  0
VERTEX
  5
386
330
37F
100
AcDbEntity
  8
Layer 1
 62
     7
420
 16777215
370
    35
100
AcDbVertex
100
AcDb2dVertex
 10
33.32771377217301
 20
189.1132150382489
 30
0.0
  0
VERTEX
  5
387
330
37F
100
AcDbEntity
  8
Layer 1
 62
     7
420
 16777215
370
    35
100
AcDbVertex
100
AcDb2dVertex
 10
33.75721808945797
 20
189.2972816295913
 30
0.0
  0
VERTEX
  5
388
330
37F
100
AcDbEntity
  8
Layer 1
 62
     7
420
 16777215
370
    35
100
AcDbVertex
100
AcDb2dVertex
 10
34.12536687629453
 20
189.4813638250855
 30
0.0
  0
VERTEX
  5
389
330
37F
100
AcDbEntity
  8
Layer 1
 62
     7
420
 16777215
370
    35
100
AcDbVertex
100
AcDb2dVertex
 10
34.49351566313172
 20
189.7268015510288
 30
0.0
  0
VERTEX
  5
38A
330
37F
100
AcDbEntity
  8
Layer 1
 62
     7
420
 16777215
370
    35
100
AcDbVertex
100
AcDb2dVertex
 10
34.86166444997085
 20
189.9722236728173
 30
0.0
  0
VERTEX
  5
38B
330
37F
100
AcDbEntity
  8
Layer 1
 62
     7
420
 16777215
370
    35
100
AcDbVertex
100
AcDb2dVertex
 10
35.16845770635868
 20
190.2790169292073
 30
0.0
  0
VERTEX
  5
38C
330
37F
100
AcDbEntity
  8
Layer 1
 62
     7
420
 16777215
370
    35
100
AcDbVertex
100
AcDb2dVertex
 10
35.47524316067216
 20
190.6471657160445
 30
0.0
  0
VERTEX
  5
38D
330
37F
100
AcDbEntity
  8
Layer 1
 62
     7
420
 16777215
370
    35
100
AcDbVertex
100
AcDb2dVertex
 10
35.72068088661576
 20
191.0766700333295
 30
0.0
  0
VERTEX
  5
38E
330
37F
100
AcDbEntity
  8
Layer 1
 62
     7
420
 16777215
370
    35
100
AcDbVertex
100
AcDb2dVertex
 10
35.90475528003243
 20
191.4448188201667
 30
0.0
  0
VERTEX
  5
38F
330
37F
100
AcDbEntity
  8
Layer 1
 62
     7
420
 16777215
370
    35
100
AcDbVertex
100
AcDb2dVertex
 10
36.02746634092763
 20
191.874323137452
 30
0.0
  0
VERTEX
  5
390
330
37F
100
AcDbEntity
  8
Layer 1
 62
     7
420
 16777215
370
    35
100
AcDbVertex
100
AcDb2dVertex
 10
36.15018520389847
 20
192.3651829851824
 30
0.0
  0
VERTEX
  5
391
330
37F
100
AcDbEntity
  8
Layer 1
 62
     7
420
 16777215
370
    35
100
AcDbVertex
100
AcDb2dVertex
 10
36.21154073434688
 20
192.7947029066206
 30
0.0
  0
VERTEX
  5
392
330
37F
100
AcDbEntity
  8
Layer 1
 62
     7
420
 16777215
370
    35
100
AcDbVertex
100
AcDb2dVertex
 10
36.94783830802095
 20
207.9501274890842
 30
0.0
  0
VERTEX
  5
393
330
37F
100
AcDbEntity
  8
Layer 1
 62
     7
420
 16777215
370
    35
100
AcDbVertex
100
AcDb2dVertex
 10
36.08882967345199
 20
207.8274164281906
 30
0.0
  0
VERTEX
  5
394
330
37F
100
AcDbEntity
  8
Layer 1
 62
     7
420
 16777215
370
    35
100
AcDbVertex
100
AcDb2dVertex
 10
35.22981323680612
 20
207.7046897631425
 30
0.0
  0
VERTEX
  5
395
330
37F
100
AcDbEntity
  8
Layer 1
 62
     7
420
 16777215
370
    35
100
AcDbVertex
100
AcDb2dVertex
 10
34.43216013268557
 20
207.5206231718005
 30
0.0
  0
VERTEX
  5
396
330
37F
100
AcDbEntity
  8
Layer 1
 62
     7
420
 16777215
370
    35
100
AcDbVertex
100
AcDb2dVertex
 10
33.57314369603969
 20
207.3365409763053
 30
0.0
  0
VERTEX
  5
397
330
37F
100
AcDbEntity
  8
Layer 1
 62
     7
420
 16777215
370
    35
100
AcDbVertex
100
AcDb2dVertex
 10
32.77549059191754
 20
207.0911188545152
 30
0.0
  0
VERTEX
  5
398
330
37F
100
AcDbEntity
  8
Layer 1
 62
     7
420
 16777215
370
    35
100
AcDbVertex
100
AcDb2dVertex
 10
31.91648195734762
 20
206.8456811285732
 30
0.0
  0
VERTEX
  5
399
330
37F
100
AcDbEntity
  8
Layer 1
 62
     7
420
 16777215
370
    35
100
AcDbVertex
100
AcDb2dVertex
 10
31.11882885322674
 20
206.5388878721835
 30
0.0
  0
VERTEX
  5
39A
330
37F
100
AcDbEntity
  8
Layer 1
 62
     7
420
 16777215
370
    35
100
AcDbVertex
100
AcDb2dVertex
 10
30.32116794702864
 20
206.2321102199466
 30
0.0
  0
VERTEX
  5
39B
330
37F
100
AcDbEntity
  8
Layer 1
 62
     7
420
 16777215
370
    35
100
AcDbVertex
100
AcDb2dVertex
 10
29.58487817543052
 20
205.9253169635565
 30
0.0
  0
VERTEX
  5
39C
330
37F
100
AcDbEntity
  8
Layer 1
 62
     7
420
 16777215
370
    35
100
AcDbVertex
100
AcDb2dVertex
 10
28.78721726923176
 20
205.5571681767193
 30
0.0
  0
VERTEX
  5
39D
330
37F
100
AcDbEntity
  8
Layer 1
 62
     7
420
 16777215
370
    35
100
AcDbVertex
100
AcDb2dVertex
 10
27.31462992396117
 20
204.8208706030449
 30
0.0
  0
VERTEX
  5
39E
330
37F
100
AcDbEntity
  8
Layer 1
 62
     7
420
 16777215
370
    35
100
AcDbVertex
100
AcDb2dVertex
 10
25.90339030705919
 20
203.9618619684759
 30
0.0
  0
VERTEX
  5
39F
330
37F
100
AcDbEntity
  8
Layer 1
 62
     7
420
 16777215
370
    35
100
AcDbVertex
100
AcDb2dVertex
 10
24.49215849223508
 20
202.9801266688592
 30
0.0
  0
VERTEX
  5
3A0
330
37F
100
AcDbEntity
  8
Layer 1
 62
     7
420
 16777215
370
    35
100
AcDbVertex
100
AcDb2dVertex
 10
23.20363773830456
 20
201.937035838796
 30
0.0
  0
VERTEX
  5
3A1
330
37F
100
AcDbEntity
  8
Layer 1
 62
     7
420
 16777215
370
    35
100
AcDbVertex
100
AcDb2dVertex
 10
21.97648031689905
 20
200.8325894782841
 30
0.0
  0
VERTEX
  5
3A2
330
37F
100
AcDbEntity
  8
Layer 1
 62
     7
420
 16777215
370
    35
100
AcDbVertex
100
AcDb2dVertex
 10
20.81067842593874
 20
199.6667875873258
 30
0.0
  0
VERTEX
  5
3A3
330
37F
100
AcDbEntity
  8
Layer 1
 62
     7
420
 16777215
370
    35
100
AcDbVertex
100
AcDb2dVertex
 10
19.70623206542811
 20
198.4396301659189
 30
0.0
  0
VERTEX
  5
3A4
330
37F
100
AcDbEntity
  8
Layer 1
 62
     7
420
 16777215
370
    35
100
AcDbVertex
100
AcDb2dVertex
 10
18.66314903744055
 20
197.0897616836182
 30
0.0
  0
VERTEX
  5
3A5
330
37F
100
AcDbEntity
  8
Layer 1
 62
     7
420
 16777215
370
    35
100
AcDbVertex
100
AcDb2dVertex
 10
17.74277707034756
 20
195.7398775971643
 30
0.0
  0
VERTEX
  5
3A6
330
37F
100
AcDbEntity
  8
Layer 1
 62
     7
420
 16777215
370
    35
100
AcDbVertex
100
AcDb2dVertex
 10
16.88376063370233
 20
194.2672824498162
 30
0.0
  0
VERTEX
  5
3A7
330
37F
100
AcDbEntity
  8
Layer 1
 62
     7
420
 16777215
370
    35
100
AcDbVertex
100
AcDb2dVertex
 10
16.51561184686513
 20
193.5309848761408
 30
0.0
  0
VERTEX
  5
3A8
330
37F
100
AcDbEntity
  8
Layer 1
 62
     7
420
 16777215
370
    35
100
AcDbVertex
100
AcDb2dVertex
 10
16.14747086210517
 20
192.7947029066206
 30
0.0
  0
SEQEND
  5
3A9
330
37F
100
AcDbEntity
  8
Layer 1
 62
     7
420
 16777215
370
    35
  0
POLYLINE
  5
3AA
330
1F
100
AcDbEntity
  8
Layer 1
 62
     7
420
 16777215
370
    35
100
AcDb2dPolyline
 66
     1
 10
0.0
 20
0.0
 30
0.0
  0
VERTEX
  5
3AB
330
3AA
100
AcDbEntity
  8
Layer 1
 62
     7
420
 16777215
370
    35
100
AcDbVertex
100
AcDb2dVertex
 10
21.73105039303269
 20
162.8519869243768
 30
0.0
  0
VERTEX
  5
3AC
330
3AA
100
AcDbEntity
  8
Layer 1
 62
     7
420
 16777215
370
    35
100
AcDbVertex
100
AcDb2dVertex
 10
30.25981241658056
 20
175.1235923467434
 30
0.0
  0
VERTEX
  5
3AD
330
3AA
100
AcDbEntity
  8
Layer 1
 62
     7
420
 16777215
370
    35
100
AcDbVertex
100
AcDb2dVertex
 10
30.50524234044788
 20
175.4303699989803
 30
0.0
  0
VERTEX
  5
3AE
330
3AA
100
AcDbEntity
  8
Layer 1
 62
     7
420
 16777215
370
    35
100
AcDbVertex
100
AcDb2dVertex
 10
30.68931673386583
 20
175.8598743162649
 30
0.0
  0
VERTEX
  5
3AF
330
3AA
100
AcDbEntity
  8
Layer 1
 62
     7
420
 16777215
370
    35
100
AcDbVertex
100
AcDb2dVertex
 10
30.87339112728443
 20
176.2280231031018
 30
0.0
  0
VERTEX
  5
3B0
330
3AA
100
AcDbEntity
  8
Layer 1
 62
     7
420
 16777215
370
    35
100
AcDbVertex
100
AcDb2dVertex
 10
30.93475445980751
 20
176.6575430245387
 30
0.0
  0
VERTEX
  5
3B1
330
3AA
100
AcDbEntity
  8
Layer 1
 62
     7
420
 16777215
370
    35
100
AcDbVertex
100
AcDb2dVertex
 10
31.05746552070239
 20
177.0256762072243
 30
0.0
  0
VERTEX
  5
3B2
330
3AA
100
AcDbEntity
  8
Layer 1
 62
     7
420
 16777215
370
    35
100
AcDbVertex
100
AcDb2dVertex
 10
31.05746552070239
 20
177.4551961286615
 30
0.0
  0
VERTEX
  5
3B3
330
3AA
100
AcDbEntity
  8
Layer 1
 62
     7
420
 16777215
370
    35
100
AcDbVertex
100
AcDb2dVertex
 10
31.05746552070239
 20
177.8847004459452
 30
0.0
  0
VERTEX
  5
3B4
330
3AA
100
AcDbEntity
  8
Layer 1
 62
     7
420
 16777215
370
    35
100
AcDbVertex
100
AcDb2dVertex
 10
30.93475445980751
 20
178.3142047632301
 30
0.0
  0
VERTEX
  5
3B5
330
3AA
100
AcDbEntity
  8
Layer 1
 62
     7
420
 16777215
370
    35
100
AcDbVertex
100
AcDb2dVertex
 10
30.81203559683603
 20
178.7437090805145
 30
0.0
  0
VERTEX
  5
3B6
330
3AA
100
AcDbEntity
  8
Layer 1
 62
     7
420
 16777215
370
    35
100
AcDbVertex
100
AcDb2dVertex
 10
30.68931673386583
 20
179.1732133977991
 30
0.0
  0
VERTEX
  5
3B7
330
3AA
100
AcDbEntity
  8
Layer 1
 62
     7
420
 16777215
370
    35
100
AcDbVertex
100
AcDb2dVertex
 10
30.44388681000044
 20
179.6027177150841
 30
0.0
  0
VERTEX
  5
3B8
330
3AA
100
AcDbEntity
  8
Layer 1
 62
     7
420
 16777215
370
    35
100
AcDbVertex
100
AcDb2dVertex
 10
30.19845688613407
 20
179.9708665019206
 30
0.0
  0
VERTEX
  5
3B9
330
3AA
100
AcDbEntity
  8
Layer 1
 62
     7
420
 16777215
370
    35
100
AcDbVertex
100
AcDb2dVertex
 10
29.89166362974432
 20
180.2776597583101
 30
0.0
  0
VERTEX
  5
3BA
330
3AA
100
AcDbEntity
  8
Layer 1
 62
     7
420
 16777215
370
    35
100
AcDbVertex
100
AcDb2dVertex
 10
29.5235148429068
 20
180.5844530147004
 30
0.0
  0
VERTEX
  5
3BB
330
3AA
100
AcDbEntity
  8
Layer 1
 62
     7
420
 16777215
370
    35
100
AcDbVertex
100
AcDb2dVertex
 10
29.15536605606992
 20
180.8912462710896
 30
0.0
  0
VERTEX
  5
3BC
330
3AA
100
AcDbEntity
  8
Layer 1
 62
     7
420
 16777215
370
    35
100
AcDbVertex
100
AcDb2dVertex
 10
28.72586173878496
 20
181.0753128624325
 30
0.0
  0
VERTEX
  5
3BD
330
3AA
100
AcDbEntity
  8
Layer 1
 62
     7
420
 16777215
370
    35
100
AcDbVertex
100
AcDb2dVertex
 10
14.24536359539483
 20
186.6589001954373
 30
0.0
  0
VERTEX
  5
3BE
330
3AA
100
AcDbEntity
  8
Layer 1
 62
     7
420
 16777215
370
    35
100
AcDbVertex
100
AcDb2dVertex
 10
13.99993367152975
 20
185.4930983044776
 30
0.0
  0
VERTEX
  5
3BF
330
3AA
100
AcDbEntity
  8
Layer 1
 62
     7
420
 16777215
370
    35
100
AcDbVertex
100
AcDb2dVertex
 10
13.87722261063423
 20
184.2659252789182
 30
0.0
  0
VERTEX
  5
3C0
330
3AA
100
AcDbEntity
  8
Layer 1
 62
     7
420
 16777215
370
    35
100
AcDbVertex
100
AcDb2dVertex
 10
13.75450374766307
 20
182.9774123270643
 30
0.0
  0
VERTEX
  5
3C1
330
3AA
100
AcDbEntity
  8
Layer 1
 62
     7
420
 16777215
370
    35
100
AcDbVertex
100
AcDb2dVertex
 10
13.75450374766307
 20
181.7502549056591
 30
0.0
  0
VERTEX
  5
3C2
330
3AA
100
AcDbEntity
  8
Layer 1
 62
     7
420
 16777215
370
    35
100
AcDbVertex
100
AcDb2dVertex
 10
13.81585927811019
 20
180.3390152887575
 30
0.0
  0
VERTEX
  5
3C3
330
3AA
100
AcDbEntity
  8
Layer 1
 62
     7
420
 16777215
370
    35
100
AcDbVertex
100
AcDb2dVertex
 10
13.87722261063423
 20
178.9891468064568
 30
0.0
  0
VERTEX
  5
3C4
330
3AA
100
AcDbEntity
  8
Layer 1
 62
     7
420
 16777215
370
    35
100
AcDbVertex
100
AcDb2dVertex
 10
14.06129700405283
 20
177.6392627200035
 30
0.0
  0
VERTEX
  5
3C5
330
3AA
100
AcDbEntity
  8
Layer 1
 62
     7
420
 16777215
370
    35
100
AcDbVertex
100
AcDb2dVertex
 10
14.30672692791919
 20
176.2893942377025
 30
0.0
  0
VERTEX
  5
3C6
330
3AA
100
AcDbEntity
  8
Layer 1
 62
     7
420
 16777215
370
    35
100
AcDbVertex
100
AcDb2dVertex
 10
14.61351238223138
 20
175.000865681695
 30
0.0
  0
VERTEX
  5
3C7
330
3AA
100
AcDbEntity
  8
Layer 1
 62
     7
420
 16777215
370
    35
100
AcDbVertex
100
AcDb2dVertex
 10
14.98166116907019
 20
173.7737082602895
 30
0.0
  0
VERTEX
  5
3C8
330
3AA
100
AcDbEntity
  8
Layer 1
 62
     7
420
 16777215
370
    35
100
AcDbVertex
100
AcDb2dVertex
 10
15.41117328843046
 20
172.4851953084366
 30
0.0
  0
VERTEX
  5
3C9
330
3AA
100
AcDbEntity
  8
Layer 1
 62
     7
420
 16777215
370
    35
100
AcDbVertex
100
AcDb2dVertex
 10
15.90203313616157
 20
171.3193934174775
 30
0.0
  0
VERTEX
  5
3CA
330
3AA
100
AcDbEntity
  8
Layer 1
 62
     7
420
 16777215
370
    35
100
AcDbVertex
100
AcDb2dVertex
 10
16.45425631641769
 20
170.0922203919179
 30
0.0
  0
VERTEX
  5
3CB
330
3AA
100
AcDbEntity
  8
Layer 1
 62
     7
420
 16777215
370
    35
100
AcDbVertex
100
AcDb2dVertex
 10
17.00647949667445
 20
168.9877896355598
 30
0.0
  0
VERTEX
  5
3CC
330
3AA
100
AcDbEntity
  8
Layer 1
 62
     7
420
 16777215
370
    35
100
AcDbVertex
100
AcDb2dVertex
 10
17.68141373782417
 20
167.8219721404479
 30
0.0
  0
VERTEX
  5
3CD
330
3AA
100
AcDbEntity
  8
Layer 1
 62
     7
420
 16777215
370
    35
100
AcDbVertex
100
AcDb2dVertex
 10
18.41771131149888
 20
166.7788969145366
 30
0.0
  0
VERTEX
  5
3CE
330
3AA
100
AcDbEntity
  8
Layer 1
 62
     7
420
 16777215
370
    35
100
AcDbVertex
100
AcDb2dVertex
 10
19.15400888517199
 20
165.7358060844728
 30
0.0
  0
VERTEX
  5
3CF
330
3AA
100
AcDbEntity
  8
Layer 1
 62
     7
420
 16777215
370
    35
100
AcDbVertex
100
AcDb2dVertex
 10
19.95166198929319
 20
164.6927152544089
 30
0.0
  0
VERTEX
  5
3D0
330
3AA
100
AcDbEntity
  8
Layer 1
 62
     7
420
 16777215
370
    35
100
AcDbVertex
100
AcDb2dVertex
 10
20.81067842593874
 20
163.7723510893919
 30
0.0
  0
VERTEX
  5
3D1
330
3AA
100
AcDbEntity
  8
Layer 1
 62
     7
420
 16777215
370
    35
100
AcDbVertex
100
AcDb2dVertex
 10
21.73105039303269
 20
162.8519869243768
 30
0.0
  0
SEQEND
  5
3D2
330
3AA
100
AcDbEntity
  8
Layer 1
 62
     7
420
 16777215
370
    35
  0
POLYLINE
  5
3D3
330
1F
100
AcDbEntity
  8
Layer 1
 62
     7
420
 16777215
370
    35
100
AcDb2dPolyline
 66
     1
 10
0.0
 20
0.0
 30
0.0
  0
VERTEX
  5
3D4
330
3D3
100
AcDbEntity
  8
Layer 1
 62
     7
420
 16777215
370
    35
100
AcDbVertex
100
AcDb2dVertex
 10
37.00920944261998
 20
170.8285335697454
 30
0.0
  0
VERTEX
  5
3D5
330
3D3
100
AcDbEntity
  8
Layer 1
 62
     7
420
 16777215
370
    35
100
AcDbVertex
100
AcDb2dVertex
 10
37.31599489693442
 20
171.1353112219823
 30
0.0
  0
VERTEX
  5
3D6
330
3D3
100
AcDbEntity
  8
Layer 1
 62
     7
420
 16777215
370
    35
100
AcDbVertex
100
AcDb2dVertex
 10
37.68414368377066
 20
171.3807489479243
 30
0.0
  0
VERTEX
  5
3D7
330
3D3
100
AcDbEntity
  8
Layer 1
 62
     7
420
 16777215
370
    35
100
AcDbVertex
100
AcDb2dVertex
 10
38.11364800105626
 20
171.6261866738679
 30
0.0
  0
VERTEX
  5
3D8
330
3D3
100
AcDbEntity
  8
Layer 1
 62
     7
420
 16777215
370
    35
100
AcDbVertex
100
AcDb2dVertex
 10
38.54316012041685
 20
171.8102532652093
 30
0.0
  0
VERTEX
  5
3D9
330
3D3
100
AcDbEntity
  8
Layer 1
 62
     7
420
 16777215
370
    35
100
AcDbVertex
100
AcDb2dVertex
 10
38.97266443770181
 20
171.9943354607045
 30
0.0
  0
VERTEX
  5
3DA
330
3D3
100
AcDbEntity
  8
Layer 1
 62
     7
420
 16777215
370
    35
100
AcDbVertex
100
AcDb2dVertex
 10
39.40216875498709
 20
172.0556909911519
 30
0.0
  0
VERTEX
  5
3DB
330
3D3
100
AcDbEntity
  8
Layer 1
 62
     7
420
 16777215
370
    35
100
AcDbVertex
100
AcDb2dVertex
 10
39.83167307227044
 20
172.1170465215991
 30
0.0
  0
VERTEX
  5
3DC
330
3D3
100
AcDbEntity
  8
Layer 1
 62
     7
420
 16777215
370
    35
100
AcDbVertex
100
AcDb2dVertex
 10
40.32254072207944
 20
172.0556909911519
 30
0.0
  0
VERTEX
  5
3DD
330
3D3
100
AcDbEntity
  8
Layer 1
 62
     7
420
 16777215
370
    35
100
AcDbVertex
100
AcDb2dVertex
 10
40.75204503936376
 20
171.9943354607045
 30
0.0
  0
VERTEX
  5
3DE
330
3D3
100
AcDbEntity
  8
Layer 1
 62
     7
420
 16777215
370
    35
100
AcDbVertex
100
AcDb2dVertex
 10
41.12019382620063
 20
171.9329643261035
 30
0.0
  0
VERTEX
  5
3DF
330
3D3
100
AcDbEntity
  8
Layer 1
 62
     7
420
 16777215
370
    35
100
AcDbVertex
100
AcDb2dVertex
 10
41.54969814348463
 20
171.7488977347622
 30
0.0
  0
VERTEX
  5
3E0
330
3D3
100
AcDbEntity
  8
Layer 1
 62
     7
420
 16777215
370
    35
100
AcDbVertex
100
AcDb2dVertex
 10
41.91784693032183
 20
171.5648155392663
 30
0.0
  0
VERTEX
  5
3E1
330
3D3
100
AcDbEntity
  8
Layer 1
 62
     7
420
 16777215
370
    35
100
AcDbVertex
100
AcDb2dVertex
 10
42.28599571715935
 20
171.3193934174775
 30
0.0
  0
VERTEX
  5
3E2
330
3D3
100
AcDbEntity
  8
Layer 1
 62
     7
420
 16777215
370
    35
100
AcDbVertex
100
AcDb2dVertex
 10
42.59278897354942
 20
171.0739556915349
 30
0.0
  0
VERTEX
  5
3E3
330
3D3
100
AcDbEntity
  8
Layer 1
 62
     7
420
 16777215
370
    35
100
AcDbVertex
100
AcDb2dVertex
 10
42.89957442786194
 20
170.7671624351451
 30
0.0
  0
VERTEX
  5
3E4
330
3D3
100
AcDbEntity
  8
Layer 1
 62
     7
420
 16777215
370
    35
100
AcDbVertex
100
AcDb2dVertex
 10
43.20636768425266
 20
170.4603847829086
 30
0.0
  0
VERTEX
  5
3E5
330
3D3
100
AcDbEntity
  8
Layer 1
 62
     7
420
 16777215
370
    35
100
AcDbVertex
100
AcDb2dVertex
 10
52.83957606831243
 20
158.4955570127775
 30
0.0
  0
VERTEX
  5
3E6
330
3D3
100
AcDbEntity
  8
Layer 1
 62
     7
420
 16777215
370
    35
100
AcDbVertex
100
AcDb2dVertex
 10
51.36698092096461
 20
157.8206305737041
 30
0.0
  0
VERTEX
  5
3E7
330
3D3
100
AcDbEntity
  8
Layer 1
 62
     7
420
 16777215
370
    35
100
AcDbVertex
100
AcDb2dVertex
 10
49.89439357569113
 20
157.1456885304771
 30
0.0
  0
VERTEX
  5
3E8
330
3D3
100
AcDbEntity
  8
Layer 1
 62
     7
420
 16777215
370
    35
100
AcDbVertex
100
AcDb2dVertex
 10
48.36044289789522
 20
156.5934575481444
 30
0.0
  0
VERTEX
  5
3E9
330
3D3
100
AcDbEntity
  8
Layer 1
 62
     7
420
 16777215
370
    35
100
AcDbVertex
100
AcDb2dVertex
 10
47.56278979377434
 20
156.3480354263553
 30
0.0
  0
VERTEX
  5
3EA
330
3D3
100
AcDbEntity
  8
Layer 1
 62
     7
420
 16777215
370
    35
100
AcDbVertex
100
AcDb2dVertex
 10
46.82649222009931
 20
156.1639532308614
 30
0.0
  0
VERTEX
  5
3EB
330
3D3
100
AcDbEntity
  8
Layer 1
 62
     7
420
 16777215
370
    35
100
AcDbVertex
100
AcDb2dVertex
 10
46.02883911597812
 20
155.918531109071
 30
0.0
  0
VERTEX
  5
3EC
330
3D3
100
AcDbEntity
  8
Layer 1
 62
     7
420
 16777215
370
    35
100
AcDbVertex
100
AcDb2dVertex
 10
45.16982267933353
 20
155.7958044440229
 30
0.0
  0
VERTEX
  5
3ED
330
3D3
100
AcDbEntity
  8
Layer 1
 62
     7
420
 16777215
370
    35
100
AcDbVertex
100
AcDb2dVertex
 10
44.37216957521105
 20
155.6117378526809
 30
0.0
  0
VERTEX
  5
3EE
330
3D3
100
AcDbEntity
  8
Layer 1
 62
     7
420
 16777215
370
    35
100
AcDbVertex
100
AcDb2dVertex
 10
43.57451647108954
 20
155.4890267917864
 30
0.0
  0
VERTEX
  5
3EF
330
3D3
100
AcDbEntity
  8
Layer 1
 62
     7
420
 16777215
370
    35
100
AcDbVertex
100
AcDb2dVertex
 10
42.7155000344443
 20
155.4276556571854
 30
0.0
  0
VERTEX
  5
3F0
330
3D3
100
AcDbEntity
  8
Layer 1
 62
     7
420
 16777215
370
    35
100
AcDbVertex
100
AcDb2dVertex
 10
41.85649139987535
 20
155.3663001267383
 30
0.0
  0
VERTEX
  5
3F1
330
3D3
100
AcDbEntity
  8
Layer 1
 62
     7
420
 16777215
370
    35
100
AcDbVertex
100
AcDb2dVertex
 10
40.99747496322948
 20
155.3049445962915
 30
0.0
  0
VERTEX
  5
3F2
330
3D3
100
AcDbEntity
  8
Layer 1
 62
     7
420
 16777215
370
    35
100
AcDbVertex
100
AcDb2dVertex
 10
40.1384663286602
 20
155.3049445962915
 30
0.0
  0
VERTEX
  5
3F3
330
3D3
100
AcDbEntity
  8
Layer 1
 62
     7
420
 16777215
370
    35
100
AcDbVertex
100
AcDb2dVertex
 10
39.27944989201529
 20
155.3049445962915
 30
0.0
  0
VERTEX
  5
3F4
330
3D3
100
AcDbEntity
  8
Layer 1
 62
     7
420
 16777215
370
    35
100
AcDbVertex
100
AcDb2dVertex
 10
38.48179678789217
 20
155.3663001267383
 30
0.0
  0
VERTEX
  5
3F5
330
3D3
100
AcDbEntity
  8
Layer 1
 62
     7
420
 16777215
370
    35
100
AcDbVertex
100
AcDb2dVertex
 10
37.6227881533245
 20
155.4276556571854
 30
0.0
  0
VERTEX
  5
3F6
330
3D3
100
AcDbEntity
  8
Layer 1
 62
     7
420
 16777215
370
    35
100
AcDbVertex
100
AcDb2dVertex
 10
36.76377171667895
 20
155.5503823222332
 30
0.0
  0
VERTEX
  5
3F7
330
3D3
100
AcDbEntity
  8
Layer 1
 62
     7
420
 16777215
370
    35
100
AcDbVertex
100
AcDb2dVertex
 10
35.96611861255711
 20
155.6117378526809
 30
0.0
  0
VERTEX
  5
3F8
330
3D3
100
AcDbEntity
  8
Layer 1
 62
     7
420
 16777215
370
    35
100
AcDbVertex
100
AcDb2dVertex
 10
35.10710997798815
 20
155.7958044440229
 30
0.0
  0
VERTEX
  5
3F9
330
3D3
100
AcDbEntity
  8
Layer 1
 62
     7
420
 16777215
370
    35
100
AcDbVertex
100
AcDb2dVertex
 10
34.30944907179004
 20
155.9798866395181
 30
0.0
  0
VERTEX
  5
3FA
330
3D3
100
AcDbEntity
  8
Layer 1
 62
     7
420
 16777215
370
    35
100
AcDbVertex
100
AcDb2dVertex
 10
33.51179596766789
 20
156.1639532308614
 30
0.0
  0
VERTEX
  5
3FB
330
3D3
100
AcDbEntity
  8
Layer 1
 62
     7
420
 16777215
370
    35
100
AcDbVertex
100
AcDb2dVertex
 10
32.71414286354605
 20
156.3480354263553
 30
0.0
  0
VERTEX
  5
3FC
330
3D3
100
AcDbEntity
  8
Layer 1
 62
     7
420
 16777215
370
    35
100
AcDbVertex
100
AcDb2dVertex
 10
31.91648975942454
 20
156.5934575481444
 30
0.0
  0
VERTEX
  5
3FD
330
3D3
100
AcDbEntity
  8
Layer 1
 62
     7
420
 16777215
370
    35
100
AcDbVertex
100
AcDb2dVertex
 10
31.1188366553027
 20
156.9002508045336
 30
0.0
  0
VERTEX
  5
3FE
330
3D3
100
AcDbEntity
  8
Layer 1
 62
     7
420
 16777215
370
    35
100
AcDbVertex
100
AcDb2dVertex
 10
30.38253908162895
 20
157.1456885304771
 30
0.0
  0
VERTEX
  5
3FF
330
3D3
100
AcDbEntity
  8
Layer 1
 62
     7
420
 16777215
370
    35
100
AcDbVertex
100
AcDb2dVertex
 10
28.90994393428048
 20
157.8206305737041
 30
0.0
  0
VERTEX
  5
400
330
3D3
100
AcDbEntity
  8
Layer 1
 62
     7
420
 16777215
370
    35
100
AcDbVertex
100
AcDb2dVertex
 10
27.4373565890086
 20
158.5569281473779
 30
0.0
  0
VERTEX
  5
401
330
3D3
100
AcDbEntity
  8
Layer 1
 62
     7
420
 16777215
370
    35
100
AcDbVertex
100
AcDb2dVertex
 10
37.00920944261998
 20
170.8285335697454
 30
0.0
  0
SEQEND
  5
402
330
3D3
100
AcDbEntity
  8
Layer 1
 62
     7
420
 16777215
370
    35
  0
POLYLINE
  5
403
330
1F
100
AcDbEntity
  8
Layer 1
 62
     7
420
 16777215
370
    35
100
AcDb2dPolyline
 66
     1
 10
0.0
 20
0.0
 30
0.0
  0
VERTEX
  5
404
330
403
100
AcDbEntity
  8
Layer 1
 62
     7
420
 16777215
370
    35
100
AcDbVertex
100
AcDb2dVertex
 10
66.09291679029641
 20
186.7202557258841
 30
0.0
  0
VERTEX
  5
405
330
403
100
AcDbEntity
  8
Layer 1
 62
     7
420
 16777215
370
    35
100
AcDbVertex
100
AcDb2dVertex
 10
66.09291679029641
 20
186.7202557258841
 30
0.0
  0
VERTEX
  5
406
330
403
100
AcDbEntity
  8
Layer 1
 62
     7
420
 16777215
370
    35
100
AcDbVertex
100
AcDb2dVertex
 10
66.33833891208553
 20
185.4930827003238
 30
0.0
  0
VERTEX
  5
407
330
403
100
AcDbEntity
  8
Layer 1
 62
     7
420
 16777215
370
    35
100
AcDbVertex
100
AcDb2dVertex
 10
66.46104997298106
 20
184.2659252789182
 30
0.0
  0
VERTEX
  5
408
330
403
100
AcDbEntity
  8
Layer 1
 62
     7
420
 16777215
370
    35
100
AcDbVertex
100
AcDb2dVertex
 10
66.58377663802817
 20
182.9774123270643
 30
0.0
  0
VERTEX
  5
409
330
403
100
AcDbEntity
  8
Layer 1
 62
     7
420
 16777215
370
    35
100
AcDbVertex
100
AcDb2dVertex
 10
66.58377663802817
 20
181.7502549056591
 30
0.0
  0
VERTEX
  5
40A
330
403
100
AcDbEntity
  8
Layer 1
 62
     7
420
 16777215
370
    35
100
AcDbVertex
100
AcDb2dVertex
 10
66.52242110758105
 20
180.3390152887575
 30
0.0
  0
VERTEX
  5
40B
330
403
100
AcDbEntity
  8
Layer 1
 62
     7
420
 16777215
370
    35
100
AcDbVertex
100
AcDb2dVertex
 10
66.46104997298106
 20
178.9277756718568
 30
0.0
  0
VERTEX
  5
40C
330
403
100
AcDbEntity
  8
Layer 1
 62
     7
420
 16777215
370
    35
100
AcDbVertex
100
AcDb2dVertex
 10
66.27698338163906
 20
177.5779071895557
 30
0.0
  0
VERTEX
  5
40D
330
403
100
AcDbEntity
  8
Layer 1
 62
     7
420
 16777215
370
    35
100
AcDbVertex
100
AcDb2dVertex
 10
66.03154565569578
 20
176.2280231031018
 30
0.0
  0
VERTEX
  5
40E
330
403
100
AcDbEntity
  8
Layer 1
 62
     7
420
 16777215
370
    35
100
AcDbVertex
100
AcDb2dVertex
 10
65.72476800345922
 20
174.8781546208011
 30
0.0
  0
VERTEX
  5
40F
330
403
100
AcDbEntity
  8
Layer 1
 62
     7
420
 16777215
370
    35
100
AcDbVertex
100
AcDb2dVertex
 10
65.29524808202267
 20
173.5896260647937
 30
0.0
  0
VERTEX
  5
410
330
403
100
AcDbEntity
  8
Layer 1
 62
     7
420
 16777215
370
    35
100
AcDbVertex
100
AcDb2dVertex
 10
64.86574376473708
 20
172.3624686433885
 30
0.0
  0
VERTEX
  5
411
330
403
100
AcDbEntity
  8
Layer 1
 62
     7
420
 16777215
370
    35
100
AcDbVertex
100
AcDb2dVertex
 10
64.3748839170053
 20
171.0739556915349
 30
0.0
  0
VERTEX
  5
412
330
403
100
AcDbEntity
  8
Layer 1
 62
     7
420
 16777215
370
    35
100
AcDbVertex
100
AcDb2dVertex
 10
63.82266853882643
 20
169.9081538005765
 30
0.0
  0
VERTEX
  5
413
330
403
100
AcDbEntity
  8
Layer 1
 62
     7
420
 16777215
370
    35
100
AcDbVertex
100
AcDb2dVertex
 10
63.20908202604692
 20
168.7423519096175
 30
0.0
  0
VERTEX
  5
414
330
403
100
AcDbEntity
  8
Layer 1
 62
     7
420
 16777215
370
    35
100
AcDbVertex
100
AcDb2dVertex
 10
62.4727844523722
 20
167.5765500186591
 30
0.0
  0
VERTEX
  5
415
330
403
100
AcDbEntity
  8
Layer 1
 62
     7
420
 16777215
370
    35
100
AcDbVertex
100
AcDb2dVertex
 10
61.79784240914525
 20
166.5334591885949
 30
0.0
  0
VERTEX
  5
416
330
403
100
AcDbEntity
  8
Layer 1
 62
     7
420
 16777215
370
    35
100
AcDbVertex
100
AcDb2dVertex
 10
61.00018930502342
 20
165.4290128280837
 30
0.0
  0
VERTEX
  5
417
330
403
100
AcDbEntity
  8
Layer 1
 62
     7
420
 16777215
370
    35
100
AcDbVertex
100
AcDb2dVertex
 10
60.14118067045478
 20
164.4472775284663
 30
0.0
  0
VERTEX
  5
418
330
403
100
AcDbEntity
  8
Layer 1
 62
     7
420
 16777215
370
    35
100
AcDbVertex
100
AcDb2dVertex
 10
59.2821720358855
 20
163.4655578330025
 30
0.0
  0
VERTEX
  5
419
330
403
100
AcDbEntity
  8
Layer 1
 62
     7
420
 16777215
370
    35
100
AcDbVertex
100
AcDb2dVertex
 10
58.36179226671495
 20
162.5451780638332
 30
0.0
  0
VERTEX
  5
41A
330
403
100
AcDbEntity
  8
Layer 1
 62
     7
420
 16777215
370
    35
100
AcDbVertex
100
AcDb2dVertex
 10
49.64896365182605
 20
175.3076589380854
 30
0.0
  0
VERTEX
  5
41B
330
403
100
AcDbEntity
  8
Layer 1
 62
     7
420
 16777215
370
    35
100
AcDbVertex
100
AcDb2dVertex
 10
49.46488925840649
 20
175.7371632553701
 30
0.0
  0
VERTEX
  5
41C
330
403
100
AcDbEntity
  8
Layer 1
 62
     7
420
 16777215
370
    35
100
AcDbVertex
100
AcDb2dVertex
 10
49.28081486498949
 20
176.1666675726547
 30
0.0
  0
VERTEX
  5
41D
330
403
100
AcDbEntity
  8
Layer 1
 62
     7
420
 16777215
370
    35
100
AcDbVertex
100
AcDb2dVertex
 10
49.1580960020177
 20
176.5961718899397
 30
0.0
  0
VERTEX
  5
41E
330
403
100
AcDbEntity
  8
Layer 1
 62
     7
420
 16777215
370
    35
100
AcDbVertex
100
AcDb2dVertex
 10
49.09674047157122
 20
177.0256762072243
 30
0.0
  0
VERTEX
  5
41F
330
403
100
AcDbEntity
  8
Layer 1
 62
     7
420
 16777215
370
    35
100
AcDbVertex
100
AcDb2dVertex
 10
49.09674047157122
 20
177.5165516591086
 30
0.0
  0
VERTEX
  5
420
330
403
100
AcDbEntity
  8
Layer 1
 62
     7
420
 16777215
370
    35
100
AcDbVertex
100
AcDb2dVertex
 10
49.1580960020177
 20
177.9460559763929
 30
0.0
  0
VERTEX
  5
421
330
403
100
AcDbEntity
  8
Layer 1
 62
     7
420
 16777215
370
    35
100
AcDbVertex
100
AcDb2dVertex
 10
49.21945933454109
 20
178.3755602936772
 30
0.0
  0
VERTEX
  5
422
330
403
100
AcDbEntity
  8
Layer 1
 62
     7
420
 16777215
370
    35
100
AcDbVertex
100
AcDb2dVertex
 10
49.40352592588341
 20
178.8050646109622
 30
0.0
  0
VERTEX
  5
423
330
403
100
AcDbEntity
  8
Layer 1
 62
     7
420
 16777215
370
    35
100
AcDbVertex
100
AcDb2dVertex
 10
49.52624478885554
 20
179.2345689282465
 30
0.0
  0
VERTEX
  5
424
330
403
100
AcDbEntity
  8
Layer 1
 62
     7
420
 16777215
370
    35
100
AcDbVertex
100
AcDb2dVertex
 10
49.77167471272094
 20
179.6027177150841
 30
0.0
  0
VERTEX
  5
425
330
403
100
AcDbEntity
  8
Layer 1
 62
     7
420
 16777215
370
    35
100
AcDbVertex
100
AcDb2dVertex
 10
50.01711243866325
 20
179.9095109714735
 30
0.0
  0
VERTEX
  5
426
330
403
100
AcDbEntity
  8
Layer 1
 62
     7
420
 16777215
370
    35
100
AcDbVertex
100
AcDb2dVertex
 10
50.32389789297608
 20
180.2163042278632
 30
0.0
  0
VERTEX
  5
427
330
403
100
AcDbEntity
  8
Layer 1
 62
     7
420
 16777215
370
    35
100
AcDbVertex
100
AcDb2dVertex
 10
50.63069114936712
 20
180.5230818800995
 30
0.0
  0
VERTEX
  5
428
330
403
100
AcDbEntity
  8
Layer 1
 62
     7
420
 16777215
370
    35
100
AcDbVertex
100
AcDb2dVertex
 10
50.99883993620272
 20
180.7685196060421
 30
0.0
  0
VERTEX
  5
429
330
403
100
AcDbEntity
  8
Layer 1
 62
     7
420
 16777215
370
    35
100
AcDbVertex
100
AcDb2dVertex
 10
51.36698872303928
 20
180.9525861973851
 30
0.0
  0
VERTEX
  5
42A
330
403
100
AcDbEntity
  8
Layer 1
 62
     7
420
 16777215
370
    35
100
AcDbVertex
100
AcDb2dVertex
 10
51.73513750987743
 20
181.1366683928793
 30
0.0
  0
VERTEX
  5
42B
330
403
100
AcDbEntity
  8
Layer 1
 62
     7
420
 16777215
370
    35
100
AcDbVertex
100
AcDb2dVertex
 10
66.09291679029641
 20
186.7202557258841
 30
0.0
  0
SEQEND
  5
42C
330
403
100
AcDbEntity
  8
Layer 1
 62
     7
420
 16777215
370
    35
  0
POLYLINE
  5
42D
330
1F
100
AcDbEntity
  8
Layer 1
 62
     7
420
 16777215
370
    35
100
AcDb2dPolyline
 66
     1
 10
0.0
 20
0.0
 30
0.0
  0
VERTEX
  5
42E
330
42D
100
AcDbEntity
  8
Layer 1
 62
     7
420
 16777215
370
    35
100
AcDbVertex
100
AcDb2dVertex
 10
44.13846632766057
 20
181.7502533829189
 30
0.0
  0
VERTEX
  5
42F
330
42D
100
AcDbEntity
  8
Layer 1
 62
     7
420
 16777215
370
    35
100
AcDbVertex
100
AcDb2dVertex
 10
44.13846632766057
 20
181.3551826619929
 30
0.0
  0
VERTEX
  5
430
330
42D
100
AcDbEntity
  8
Layer 1
 62
     7
420
 16777215
370
    35
100
AcDbVertex
100
AcDb2dVertex
 10
44.03969864742923
 20
180.9601244997395
 30
0.0
  0
VERTEX
  5
431
330
42D
100
AcDbEntity
  8
Layer 1
 62
     7
420
 16777215
370
    35
100
AcDbVertex
100
AcDb2dVertex
 10
43.94093096719789
 20
180.5650663374855
 30
0.0
  0
VERTEX
  5
432
330
42D
100
AcDbEntity
  8
Layer 1
 62
     7
420
 16777215
370
    35
100
AcDbVertex
100
AcDb2dVertex
 10
43.84216956630222
 20
180.1699956165595
 30
0.0
  0
VERTEX
  5
433
330
42D
100
AcDbEntity
  8
Layer 1
 62
     7
420
 16777215
370
    35
100
AcDbVertex
100
AcDb2dVertex
 10
43.64463420583922
 20
179.8243181547539
 30
0.0
  0
VERTEX
  5
434
330
42D
100
AcDbEntity
  8
Layer 1
 62
     7
420
 16777215
370
    35
100
AcDbVertex
100
AcDb2dVertex
 10
43.44710512471286
 20
179.5280213933956
 30
0.0
  0
VERTEX
  5
435
330
42D
100
AcDbEntity
  8
Layer 1
 62
     7
420
 16777215
370
    35
100
AcDbVertex
100
AcDb2dVertex
 10
43.24957604358585
 20
179.1823439315891
 30
0.0
  0
VERTEX
  5
436
330
42D
100
AcDbEntity
  8
Layer 1
 62
     7
420
 16777215
370
    35
100
AcDbVertex
100
AcDb2dVertex
 10
42.95327928222751
 20
178.9354278706786
 30
0.0
  0
VERTEX
  5
437
330
42D
100
AcDbEntity
  8
Layer 1
 62
     7
420
 16777215
370
    35
100
AcDbVertex
100
AcDb2dVertex
 10
42.70636322131635
 20
178.6391311093206
 30
0.0
  0
VERTEX
  5
438
330
42D
100
AcDbEntity
  8
Layer 1
 62
     7
420
 16777215
370
    35
100
AcDbVertex
100
AcDb2dVertex
 10
42.36068575951082
 20
178.4416083075302
 30
0.0
  0
VERTEX
  5
439
330
42D
100
AcDbEntity
  8
Layer 1
 62
     7
420
 16777215
370
    35
100
AcDbVertex
100
AcDb2dVertex
 10
42.06438899815344
 20
178.2440729470675
 30
0.0
  0
VERTEX
  5
43A
330
42D
100
AcDbEntity
  8
Layer 1
 62
     7
420
 16777215
370
    35
100
AcDbVertex
100
AcDb2dVertex
 10
41.71871153634694
 20
178.0465501452762
 30
0.0
  0
VERTEX
  5
43B
330
42D
100
AcDbEntity
  8
Layer 1
 62
     7
420
 16777215
370
    35
100
AcDbVertex
100
AcDb2dVertex
 10
41.32364709475758
 20
177.898395485261
 30
0.0
  0
VERTEX
  5
43C
330
42D
100
AcDbEntity
  8
Layer 1
 62
     7
420
 16777215
370
    35
100
AcDbVertex
100
AcDb2dVertex
 10
40.92858893250357
 20
177.7996340843663
 30
0.0
  0
VERTEX
  5
43D
330
42D
100
AcDbEntity
  8
Layer 1
 62
     7
420
 16777215
370
    35
100
AcDbVertex
100
AcDb2dVertex
 10
40.53352449091388
 20
177.7502533839188
 30
0.0
  0
VERTEX
  5
43E
330
42D
100
AcDbEntity
  8
Layer 1
 62
     7
420
 16777215
370
    35
100
AcDbVertex
100
AcDb2dVertex
 10
40.1384663286602
 20
177.7502533839188
 30
0.0
  0
VERTEX
  5
43F
330
42D
100
AcDbEntity
  8
Layer 1
 62
     7
420
 16777215
370
    35
100
AcDbVertex
100
AcDb2dVertex
 10
39.74340188707115
 20
177.7502533839188
 30
0.0
  0
VERTEX
  5
440
330
42D
100
AcDbEntity
  8
Layer 1
 62
     7
420
 16777215
370
    35
100
AcDbVertex
100
AcDb2dVertex
 10
39.34833744548082
 20
177.7996340843663
 30
0.0
  0
VERTEX
  5
441
330
42D
100
AcDbEntity
  8
Layer 1
 62
     7
420
 16777215
370
    35
100
AcDbVertex
100
AcDb2dVertex
 10
38.95327928322746
 20
177.898395485261
 30
0.0
  0
VERTEX
  5
442
330
42D
100
AcDbEntity
  8
Layer 1
 62
     7
420
 16777215
370
    35
100
AcDbVertex
100
AcDb2dVertex
 10
38.55821484163745
 20
178.0465501452762
 30
0.0
  0
VERTEX
  5
443
330
42D
100
AcDbEntity
  8
Layer 1
 62
     7
420
 16777215
370
    35
100
AcDbVertex
100
AcDb2dVertex
 10
38.21253737983223
 20
178.2440729470675
 30
0.0
  0
VERTEX
  5
444
330
42D
100
AcDbEntity
  8
Layer 1
 62
     7
420
 16777215
370
    35
100
AcDbVertex
100
AcDb2dVertex
 10
37.86685991802574
 20
178.4416083075302
 30
0.0
  0
VERTEX
  5
445
330
42D
100
AcDbEntity
  8
Layer 1
 62
     7
420
 16777215
370
    35
100
AcDbVertex
100
AcDb2dVertex
 10
37.5705631566674
 20
178.6391311093206
 30
0.0
  0
VERTEX
  5
446
330
42D
100
AcDbEntity
  8
Layer 1
 62
     7
420
 16777215
370
    35
100
AcDbVertex
100
AcDb2dVertex
 10
37.2742663953097
 20
178.9354278706786
 30
0.0
  0
VERTEX
  5
447
330
42D
100
AcDbEntity
  8
Layer 1
 62
     7
420
 16777215
370
    35
100
AcDbVertex
100
AcDb2dVertex
 10
37.02735033439885
 20
179.1823439315891
 30
0.0
  0
VERTEX
  5
448
330
42D
100
AcDbEntity
  8
Layer 1
 62
     7
420
 16777215
370
    35
100
AcDbVertex
100
AcDb2dVertex
 10
36.82982125327217
 20
179.5280213933956
 30
0.0
  0
VERTEX
  5
449
330
42D
100
AcDbEntity
  8
Layer 1
 62
     7
420
 16777215
370
    35
100
AcDbVertex
100
AcDb2dVertex
 10
36.58291147169798
 20
179.8243181547539
 30
0.0
  0
VERTEX
  5
44A
330
42D
100
AcDbEntity
  8
Layer 1
 62
     7
420
 16777215
370
    35
100
AcDbVertex
100
AcDb2dVertex
 10
36.43476309101946
 20
180.1699956165595
 30
0.0
  0
VERTEX
  5
44B
330
42D
100
AcDbEntity
  8
Layer 1
 62
     7
420
 16777215
370
    35
100
AcDbVertex
100
AcDb2dVertex
 10
36.28661471033899
 20
180.5650663374855
 30
0.0
  0
VERTEX
  5
44C
330
42D
100
AcDbEntity
  8
Layer 1
 62
     7
420
 16777215
370
    35
100
AcDbVertex
100
AcDb2dVertex
 10
36.18784703010765
 20
180.9601244997395
 30
0.0
  0
VERTEX
  5
44D
330
42D
100
AcDbEntity
  8
Layer 1
 62
     7
420
 16777215
370
    35
100
AcDbVertex
100
AcDb2dVertex
 10
36.13846632966047
 20
181.3551826619929
 30
0.0
  0
VERTEX
  5
44E
330
42D
100
AcDbEntity
  8
Layer 1
 62
     7
420
 16777215
370
    35
100
AcDbVertex
100
AcDb2dVertex
 10
36.13846632966047
 20
181.7502533829189
 30
0.0
  0
VERTEX
  5
44F
330
42D
100
AcDbEntity
  8
Layer 1
 62
     7
420
 16777215
370
    35
100
AcDbVertex
100
AcDb2dVertex
 10
36.13846632966047
 20
182.1453115451726
 30
0.0
  0
VERTEX
  5
450
330
42D
100
AcDbEntity
  8
Layer 1
 62
     7
420
 16777215
370
    35
100
AcDbVertex
100
AcDb2dVertex
 10
36.18784703010765
 20
182.5403697074262
 30
0.0
  0
VERTEX
  5
451
330
42D
100
AcDbEntity
  8
Layer 1
 62
     7
420
 16777215
370
    35
100
AcDbVertex
100
AcDb2dVertex
 10
36.28661471033899
 20
182.9354278696802
 30
0.0
  0
VERTEX
  5
452
330
42D
100
AcDbEntity
  8
Layer 1
 62
     7
420
 16777215
370
    35
100
AcDbVertex
100
AcDb2dVertex
 10
36.43476309101946
 20
183.3304985906053
 30
0.0
  0
VERTEX
  5
453
330
42D
100
AcDbEntity
  8
Layer 1
 62
     7
420
 16777215
370
    35
100
AcDbVertex
100
AcDb2dVertex
 10
36.58291147169798
 20
183.6761760524108
 30
0.0
  0
VERTEX
  5
454
330
42D
100
AcDbEntity
  8
Layer 1
 62
     7
420
 16777215
370
    35
100
AcDbVertex
100
AcDb2dVertex
 10
36.82982125327217
 20
183.9724728137692
 30
0.0
  0
VERTEX
  5
455
330
42D
100
AcDbEntity
  8
Layer 1
 62
     7
420
 16777215
370
    35
100
AcDbVertex
100
AcDb2dVertex
 10
37.02735033439885
 20
184.3181502755757
 30
0.0
  0
VERTEX
  5
456
330
42D
100
AcDbEntity
  8
Layer 1
 62
     7
420
 16777215
370
    35
100
AcDbVertex
100
AcDb2dVertex
 10
37.2742663953097
 20
184.5650663364859
 30
0.0
  0
VERTEX
  5
457
330
42D
100
AcDbEntity
  8
Layer 1
 62
     7
420
 16777215
370
    35
100
AcDbVertex
100
AcDb2dVertex
 10
37.5705631566674
 20
184.8613630978442
 30
0.0
  0
VERTEX
  5
458
330
42D
100
AcDbEntity
  8
Layer 1
 62
     7
420
 16777215
370
    35
100
AcDbVertex
100
AcDb2dVertex
 10
37.86685991802574
 20
185.0588858996349
 30
0.0
  0
VERTEX
  5
459
330
42D
100
AcDbEntity
  8
Layer 1
 62
     7
420
 16777215
370
    35
100
AcDbVertex
100
AcDb2dVertex
 10
38.21253737983223
 20
185.2564212600976
 30
0.0
  0
VERTEX
  5
45A
330
42D
100
AcDbEntity
  8
Layer 1
 62
     7
420
 16777215
370
    35
100
AcDbVertex
100
AcDb2dVertex
 10
38.55821484163745
 20
185.4539566205609
 30
0.0
  0
VERTEX
  5
45B
330
42D
100
AcDbEntity
  8
Layer 1
 62
     7
420
 16777215
370
    35
100
AcDbVertex
100
AcDb2dVertex
 10
38.95327928322746
 20
185.6020987219028
 30
0.0
  0
VERTEX
  5
45C
330
42D
100
AcDbEntity
  8
Layer 1
 62
     7
420
 16777215
370
    35
100
AcDbVertex
100
AcDb2dVertex
 10
39.34833744548082
 20
185.7008601227991
 30
0.0
  0
VERTEX
  5
45D
330
42D
100
AcDbEntity
  8
Layer 1
 62
     7
420
 16777215
370
    35
100
AcDbVertex
100
AcDb2dVertex
 10
39.74340188707115
 20
185.7502408232463
 30
0.0
  0
VERTEX
  5
45E
330
42D
100
AcDbEntity
  8
Layer 1
 62
     7
420
 16777215
370
    35
100
AcDbVertex
100
AcDb2dVertex
 10
40.1384663286602
 20
185.7502408232463
 30
0.0
  0
VERTEX
  5
45F
330
42D
100
AcDbEntity
  8
Layer 1
 62
     7
420
 16777215
370
    35
100
AcDbVertex
100
AcDb2dVertex
 10
40.53352449091388
 20
185.7502408232463
 30
0.0
  0
VERTEX
  5
460
330
42D
100
AcDbEntity
  8
Layer 1
 62
     7
420
 16777215
370
    35
100
AcDbVertex
100
AcDb2dVertex
 10
40.92858893250357
 20
185.7008601227991
 30
0.0
  0
VERTEX
  5
461
330
42D
100
AcDbEntity
  8
Layer 1
 62
     7
420
 16777215
370
    35
100
AcDbVertex
100
AcDb2dVertex
 10
41.32364709475758
 20
185.6020987219028
 30
0.0
  0
VERTEX
  5
462
330
42D
100
AcDbEntity
  8
Layer 1
 62
     7
420
 16777215
370
    35
100
AcDbVertex
100
AcDb2dVertex
 10
41.71871153634694
 20
185.4539566205609
 30
0.0
  0
VERTEX
  5
463
330
42D
100
AcDbEntity
  8
Layer 1
 62
     7
420
 16777215
370
    35
100
AcDbVertex
100
AcDb2dVertex
 10
42.06438899815344
 20
185.2564212600976
 30
0.0
  0
VERTEX
  5
464
330
42D
100
AcDbEntity
  8
Layer 1
 62
     7
420
 16777215
370
    35
100
AcDbVertex
100
AcDb2dVertex
 10
42.36068575951082
 20
185.0588858996349
 30
0.0
  0
VERTEX
  5
465
330
42D
100
AcDbEntity
  8
Layer 1
 62
     7
420
 16777215
370
    35
100
AcDbVertex
100
AcDb2dVertex
 10
42.70636322131635
 20
184.8613630978442
 30
0.0
  0
VERTEX
  5
466
330
42D
100
AcDbEntity
  8
Layer 1
 62
     7
420
 16777215
370
    35
100
AcDbVertex
100
AcDb2dVertex
 10
42.95327928222751
 20
184.5650663364859
 30
0.0
  0
VERTEX
  5
467
330
42D
100
AcDbEntity
  8
Layer 1
 62
     7
420
 16777215
370
    35
100
AcDbVertex
100
AcDb2dVertex
 10
43.24957604358585
 20
184.3181502755757
 30
0.0
  0
VERTEX
  5
468
330
42D
100
AcDbEntity
  8
Layer 1
 62
     7
420
 16777215
370
    35
100
AcDbVertex
100
AcDb2dVertex
 10
43.44710512471286
 20
183.9724728137692
 30
0.0
  0
VERTEX
  5
469
330
42D
100
AcDbEntity
  8
Layer 1
 62
     7
420
 16777215
370
    35
100
AcDbVertex
100
AcDb2dVertex
 10
43.64463420583922
 20
183.6761760524108
 30
0.0
  0
VERTEX
  5
46A
330
42D
100
AcDbEntity
  8
Layer 1
 62
     7
420
 16777215
370
    35
100
AcDbVertex
100
AcDb2dVertex
 10
43.84216956630222
 20
183.3304985906053
 30
0.0
  0
VERTEX
  5
46B
330
42D
100
AcDbEntity
  8
Layer 1
 62
     7
420
 16777215
370
    35
100
AcDbVertex
100
AcDb2dVertex
 10
43.94093096719789
 20
182.9354278696802
 30
0.0
  0
VERTEX
  5
46C
330
42D
100
AcDbEntity
  8
Layer 1
 62
     7
420
 16777215
370
    35
100
AcDbVertex
100
AcDb2dVertex
 10
44.03969864742923
 20
182.5403697074262
 30
0.0
  0
VERTEX
  5
46D
330
42D
100
AcDbEntity
  8
Layer 1
 62
     7
420
 16777215
370
    35
100
AcDbVertex
100
AcDb2dVertex
 10
44.13846632766057
 20
182.1453115451726
 30
0.0
  0
VERTEX
  5
46E
330
42D
100
AcDbEntity
  8
Layer 1
 62
     7
420
 16777215
370
    35
100
AcDbVertex
100
AcDb2dVertex
 10
44.13846632766057
 20
181.7502533829189
 30
0.0
  0
SEQEND
  5
46F
330
42D
100
AcDbEntity
  8
Layer 1
 62
     7
420
 16777215
370
    35
  0
POLYLINE
  5
470
330
1F
100
AcDbEntity
  8
Layer 1
 62
     7
420
 16777215
370
    35
100
AcDb2dPolyline
 66
     1
 10
0.0
 20
0.0
 30
0.0
  0
VERTEX
  5
471
330
470
100
AcDbEntity
  8
Layer 1
 62
     7
420
 16777215
370
    35
100
AcDbVertex
100
AcDb2dVertex
 10
70.08118231090398
 20
181.7502549056591
 30
0.0
  0
VERTEX
  5
472
330
470
100
AcDbEntity
  8
Layer 1
 62
     7
420
 16777215
370
    35
100
AcDbVertex
100
AcDb2dVertex
 10
70.01981117630336
 20
180.1549330932629
 30
0.0
  0
VERTEX
  5
473
330
470
100
AcDbEntity
  8
Layer 1
 62
     7
420
 16777215
370
    35
100
AcDbVertex
100
AcDb2dVertex
 10
69.89710011540976
 20
178.6823535500673
 30
0.0
  0
VERTEX
  5
474
330
470
100
AcDbEntity
  8
Layer 1
 62
     7
420
 16777215
370
    35
100
AcDbVertex
100
AcDb2dVertex
 10
69.7130335240684
 20
177.1484028722708
 30
0.0
  0
VERTEX
  5
475
330
470
100
AcDbEntity
  8
Layer 1
 62
     7
420
 16777215
370
    35
100
AcDbVertex
100
AcDb2dVertex
 10
69.46759579812448
 20
175.6758077249229
 30
0.0
  0
VERTEX
  5
476
330
470
100
AcDbEntity
  8
Layer 1
 62
     7
420
 16777215
370
    35
100
AcDbVertex
100
AcDb2dVertex
 10
69.1608025417344
 20
174.264568108021
 30
0.0
  0
VERTEX
  5
477
330
470
100
AcDbEntity
  8
Layer 1
 62
     7
420
 16777215
370
    35
100
AcDbVertex
100
AcDb2dVertex
 10
68.73129822445009
 20
172.8533284911196
 30
0.0
  0
VERTEX
  5
478
330
470
100
AcDbEntity
  8
Layer 1
 62
     7
420
 16777215
370
    35
100
AcDbVertex
100
AcDb2dVertex
 10
68.24043837671961
 20
171.4421044783718
 30
0.0
  0
VERTEX
  5
479
330
470
100
AcDbEntity
  8
Layer 1
 62
     7
420
 16777215
370
    35
100
AcDbVertex
100
AcDb2dVertex
 10
67.74956292483337
 20
170.0922203919179
 30
0.0
  0
VERTEX
  5
47A
330
470
100
AcDbEntity
  8
Layer 1
 62
     7
420
 16777215
370
    35
100
AcDbVertex
100
AcDb2dVertex
 10
67.13599201620802
 20
168.7423519096175
 30
0.0
  0
VERTEX
  5
47B
330
470
100
AcDbEntity
  8
Layer 1
 62
     7
420
 16777215
370
    35
100
AcDbVertex
100
AcDb2dVertex
 10
66.46104997298106
 20
167.4538233536107
 30
0.0
  0
VERTEX
  5
47C
330
470
100
AcDbEntity
  8
Layer 1
 62
     7
420
 16777215
370
    35
100
AcDbVertex
100
AcDb2dVertex
 10
65.72475239930635
 20
166.2266659322049
 30
0.0
  0
VERTEX
  5
47D
330
470
100
AcDbEntity
  8
Layer 1
 62
     7
420
 16777215
370
    35
100
AcDbVertex
100
AcDb2dVertex
 10
64.9884548256326
 20
164.9995085107987
 30
0.0
  0
VERTEX
  5
47E
330
470
100
AcDbEntity
  8
Layer 1
 62
     7
420
 16777215
370
    35
100
AcDbVertex
100
AcDb2dVertex
 10
64.129446191063
 20
163.83370661984
 30
0.0
  0
VERTEX
  5
47F
330
470
100
AcDbEntity
  8
Layer 1
 62
     7
420
 16777215
370
    35
100
AcDbVertex
100
AcDb2dVertex
 10
63.270437556495
 20
162.6679047288806
 30
0.0
  0
VERTEX
  5
480
330
470
100
AcDbEntity
  8
Layer 1
 62
     7
420
 16777215
370
    35
100
AcDbVertex
100
AcDb2dVertex
 10
62.28870225687669
 20
161.6248138988175
 30
0.0
  0
VERTEX
  5
481
330
470
100
AcDbEntity
  8
Layer 1
 62
     7
420
 16777215
370
    35
100
AcDbVertex
100
AcDb2dVertex
 10
61.30698256141381
 20
160.5817230687527
 30
0.0
  0
VERTEX
  5
482
330
470
100
AcDbEntity
  8
Layer 1
 62
     7
420
 16777215
370
    35
100
AcDbVertex
100
AcDb2dVertex
 10
60.26389173134967
 20
159.6000033732895
 30
0.0
  0
VERTEX
  5
483
330
470
100
AcDbEntity
  8
Layer 1
 62
     7
420
 16777215
370
    35
100
AcDbVertex
100
AcDb2dVertex
 10
59.22080090128519
 20
158.6182680736724
 30
0.0
  0
VERTEX
  5
484
330
470
100
AcDbEntity
  8
Layer 1
 62
     7
420
 16777215
370
    35
100
AcDbVertex
100
AcDb2dVertex
 10
58.05499901032648
 20
157.7592594391031
 30
0.0
  0
VERTEX
  5
485
330
470
100
AcDbEntity
  8
Layer 1
 62
     7
420
 16777215
370
    35
100
AcDbVertex
100
AcDb2dVertex
 10
56.88919711936681
 20
156.9002508045336
 30
0.0
  0
VERTEX
  5
486
330
470
100
AcDbEntity
  8
Layer 1
 62
     7
420
 16777215
370
    35
100
AcDbVertex
100
AcDb2dVertex
 10
55.6620396979613
 20
156.1639532308614
 30
0.0
  0
VERTEX
  5
487
330
470
100
AcDbEntity
  8
Layer 1
 62
     7
420
 16777215
370
    35
100
AcDbVertex
100
AcDb2dVertex
 10
54.43488227655514
 20
155.4276556571854
 30
0.0
  0
VERTEX
  5
488
330
470
100
AcDbEntity
  8
Layer 1
 62
     7
420
 16777215
370
    35
100
AcDbVertex
100
AcDb2dVertex
 10
53.14636152262495
 20
154.7527136139578
 30
0.0
  0
VERTEX
  5
489
330
470
100
AcDbEntity
  8
Layer 1
 62
     7
420
 16777215
370
    35
100
AcDbVertex
100
AcDb2dVertex
 10
51.7964852382486
 20
154.1391427053321
 30
0.0
  0
VERTEX
  5
48A
330
470
100
AcDbEntity
  8
Layer 1
 62
     7
420
 16777215
370
    35
100
AcDbVertex
100
AcDb2dVertex
 10
50.44660895387033
 20
153.6482672534469
 30
0.0
  0
VERTEX
  5
48B
330
470
100
AcDbEntity
  8
Layer 1
 62
     7
420
 16777215
370
    35
100
AcDbVertex
100
AcDb2dVertex
 10
49.03537713904622
 20
153.1574074057158
 30
0.0
  0
VERTEX
  5
48C
330
470
100
AcDbEntity
  8
Layer 1
 62
     7
420
 16777215
370
    35
100
AcDbVertex
100
AcDb2dVertex
 10
47.62413752214519
 20
152.7279030884314
 30
0.0
  0
VERTEX
  5
48D
330
470
100
AcDbEntity
  8
Layer 1
 62
     7
420
 16777215
370
    35
100
AcDbVertex
100
AcDb2dVertex
 10
46.21290570731948
 20
152.4211098320407
 30
0.0
  0
VERTEX
  5
48E
330
470
100
AcDbEntity
  8
Layer 1
 62
     7
420
 16777215
370
    35
100
AcDbVertex
100
AcDb2dVertex
 10
44.74031055997101
 20
152.1756721060994
 30
0.0
  0
VERTEX
  5
48F
330
470
100
AcDbEntity
  8
Layer 1
 62
     7
420
 16777215
370
    35
100
AcDbVertex
100
AcDb2dVertex
 10
43.20635988217542
 20
151.9916055147567
 30
0.0
  0
VERTEX
  5
490
330
470
100
AcDbEntity
  8
Layer 1
 62
     7
420
 16777215
370
    35
100
AcDbVertex
100
AcDb2dVertex
 10
41.73377253690323
 20
151.8688944538618
 30
0.0
  0
VERTEX
  5
491
330
470
100
AcDbEntity
  8
Layer 1
 62
     7
420
 16777215
370
    35
100
AcDbVertex
100
AcDb2dVertex
 10
40.13845852658488
 20
151.8075233192615
 30
0.0
  0
VERTEX
  5
492
330
470
100
AcDbEntity
  8
Layer 1
 62
     7
420
 16777215
370
    35
100
AcDbVertex
100
AcDb2dVertex
 10
38.60450784878834
 20
151.8688944538618
 30
0.0
  0
VERTEX
  5
493
330
470
100
AcDbEntity
  8
Layer 1
 62
     7
420
 16777215
370
    35
100
AcDbVertex
100
AcDb2dVertex
 10
37.13192050351582
 20
151.9916055147567
 30
0.0
  0
VERTEX
  5
494
330
470
100
AcDbEntity
  8
Layer 1
 62
     7
420
 16777215
370
    35
100
AcDbVertex
100
AcDb2dVertex
 10
35.59796982571959
 20
152.1756721060994
 30
0.0
  0
VERTEX
  5
495
330
470
100
AcDbEntity
  8
Layer 1
 62
     7
420
 16777215
370
    35
100
AcDbVertex
100
AcDb2dVertex
 10
34.12537467837144
 20
152.4211098320407
 30
0.0
  0
VERTEX
  5
496
330
470
100
AcDbEntity
  8
Layer 1
 62
     7
420
 16777215
370
    35
100
AcDbVertex
100
AcDb2dVertex
 10
32.71414286354605
 20
152.7279030884314
 30
0.0
  0
VERTEX
  5
497
330
470
100
AcDbEntity
  8
Layer 1
 62
     7
420
 16777215
370
    35
100
AcDbVertex
100
AcDb2dVertex
 10
31.30290324664663
 20
153.1574074057158
 30
0.0
  0
VERTEX
  5
498
330
470
100
AcDbEntity
  8
Layer 1
 62
     7
420
 16777215
370
    35
100
AcDbVertex
100
AcDb2dVertex
 10
29.89167143182059
 20
153.6482672534469
 30
0.0
  0
VERTEX
  5
499
330
470
100
AcDbEntity
  8
Layer 1
 62
     7
420
 16777215
370
    35
100
AcDbVertex
100
AcDb2dVertex
 10
28.54179514744296
 20
154.1391427053321
 30
0.0
  0
VERTEX
  5
49A
330
470
100
AcDbEntity
  8
Layer 1
 62
     7
420
 16777215
370
    35
100
AcDbVertex
100
AcDb2dVertex
 10
27.19191886306629
 20
154.7527136139578
 30
0.0
  0
VERTEX
  5
49B
330
470
100
AcDbEntity
  8
Layer 1
 62
     7
420
 16777215
370
    35
100
AcDbVertex
100
AcDb2dVertex
 10
25.9033981091361
 20
155.4276556571854
 30
0.0
  0
VERTEX
  5
49C
330
470
100
AcDbEntity
  8
Layer 1
 62
     7
420
 16777215
370
    35
100
AcDbVertex
100
AcDb2dVertex
 10
24.67624068772931
 20
156.1639532308614
 30
0.0
  0
VERTEX
  5
49D
330
470
100
AcDbEntity
  8
Layer 1
 62
     7
420
 16777215
370
    35
100
AcDbVertex
100
AcDb2dVertex
 10
23.44907546424784
 20
156.9002508045336
 30
0.0
  0
VERTEX
  5
49E
330
470
100
AcDbEntity
  8
Layer 1
 62
     7
420
 16777215
370
    35
100
AcDbVertex
100
AcDb2dVertex
 10
22.28327357328881
 20
157.7592594391031
 30
0.0
  0
VERTEX
  5
49F
330
470
100
AcDbEntity
  8
Layer 1
 62
     7
420
 16777215
370
    35
100
AcDbVertex
100
AcDb2dVertex
 10
21.1174716823301
 20
158.6182680736724
 30
0.0
  0
VERTEX
  5
4A0
330
470
100
AcDbEntity
  8
Layer 1
 62
     7
420
 16777215
370
    35
100
AcDbVertex
100
AcDb2dVertex
 10
20.07438865434126
 20
159.6000033732895
 30
0.0
  0
VERTEX
  5
4A1
330
470
100
AcDbEntity
  8
Layer 1
 62
     7
420
 16777215
370
    35
100
AcDbVertex
100
AcDb2dVertex
 10
19.03130562635467
 20
160.5817230687527
 30
0.0
  0
VERTEX
  5
4A2
330
470
100
AcDbEntity
  8
Layer 1
 62
     7
420
 16777215
370
    35
100
AcDbVertex
100
AcDb2dVertex
 10
18.04957812881423
 20
161.6248138988175
 30
0.0
  0
VERTEX
  5
4A3
330
470
100
AcDbEntity
  8
Layer 1
 62
     7
420
 16777215
370
    35
100
AcDbVertex
100
AcDb2dVertex
 10
17.0678428291972
 20
162.6679047288806
 30
0.0
  0
VERTEX
  5
4A4
330
470
100
AcDbEntity
  8
Layer 1
 62
     7
420
 16777215
370
    35
100
AcDbVertex
100
AcDb2dVertex
 10
16.20883419462857
 20
163.83370661984
 30
0.0
  0
VERTEX
  5
4A5
330
470
100
AcDbEntity
  8
Layer 1
 62
     7
420
 16777215
370
    35
100
AcDbVertex
100
AcDb2dVertex
 10
15.34981775798237
 20
164.9995085107987
 30
0.0
  0
VERTEX
  5
4A6
330
470
100
AcDbEntity
  8
Layer 1
 62
     7
420
 16777215
370
    35
100
AcDbVertex
100
AcDb2dVertex
 10
14.6135201843083
 20
166.2266659322049
 30
0.0
  0
VERTEX
  5
4A7
330
470
100
AcDbEntity
  8
Layer 1
 62
     7
420
 16777215
370
    35
100
AcDbVertex
100
AcDb2dVertex
 10
13.87723041271146
 20
167.4538233536107
 30
0.0
  0
VERTEX
  5
4A8
330
470
100
AcDbEntity
  8
Layer 1
 62
     7
420
 16777215
370
    35
100
AcDbVertex
100
AcDb2dVertex
 10
13.20228836948419
 20
168.7423519096175
 30
0.0
  0
VERTEX
  5
4A9
330
470
100
AcDbEntity
  8
Layer 1
 62
     7
420
 16777215
370
    35
100
AcDbVertex
100
AcDb2dVertex
 10
12.58870965878095
 20
170.0922203919179
 30
0.0
  0
VERTEX
  5
4AA
330
470
100
AcDbEntity
  8
Layer 1
 62
     7
420
 16777215
370
    35
100
AcDbVertex
100
AcDb2dVertex
 10
12.0978420089726
 20
171.4421044783718
 30
0.0
  0
VERTEX
  5
4AB
330
470
100
AcDbEntity
  8
Layer 1
 62
     7
420
 16777215
370
    35
100
AcDbVertex
100
AcDb2dVertex
 10
11.6069821612402
 20
172.8533284911196
 30
0.0
  0
VERTEX
  5
4AC
330
470
100
AcDbEntity
  8
Layer 1
 62
     7
420
 16777215
370
    35
100
AcDbVertex
100
AcDb2dVertex
 10
11.17747004188089
 20
174.264568108021
 30
0.0
  0
VERTEX
  5
4AD
330
470
100
AcDbEntity
  8
Layer 1
 62
     7
420
 16777215
370
    35
100
AcDbVertex
100
AcDb2dVertex
 10
10.87068458756709
 20
175.6758077249229
 30
0.0
  0
VERTEX
  5
4AE
330
470
100
AcDbEntity
  8
Layer 1
 62
     7
420
 16777215
370
    35
100
AcDbVertex
100
AcDb2dVertex
 10
10.62525466370072
 20
177.1484028722708
 30
0.0
  0
VERTEX
  5
4AF
330
470
100
AcDbEntity
  8
Layer 1
 62
     7
420
 16777215
370
    35
100
AcDbVertex
100
AcDb2dVertex
 10
10.44117246820617
 20
178.6823535500673
 30
0.0
  0
VERTEX
  5
4B0
330
470
100
AcDbEntity
  8
Layer 1
 62
     7
420
 16777215
370
    35
100
AcDbVertex
100
AcDb2dVertex
 10
10.31846140731129
 20
180.1549330932629
 30
0.0
  0
VERTEX
  5
4B1
330
470
100
AcDbEntity
  8
Layer 1
 62
     7
420
 16777215
370
    35
100
AcDbVertex
100
AcDb2dVertex
 10
10.25710587686321
 20
181.7502549056591
 30
0.0
  0
VERTEX
  5
4B2
330
470
100
AcDbEntity
  8
Layer 1
 62
     7
420
 16777215
370
    35
100
AcDbVertex
100
AcDb2dVertex
 10
10.31846140731129
 20
183.284205583455
 30
0.0
  0
VERTEX
  5
4B3
330
470
100
AcDbEntity
  8
Layer 1
 62
     7
420
 16777215
370
    35
100
AcDbVertex
100
AcDb2dVertex
 10
10.44117246820617
 20
184.7567851266507
 30
0.0
  0
VERTEX
  5
4B4
330
470
100
AcDbEntity
  8
Layer 1
 62
     7
420
 16777215
370
    35
100
AcDbVertex
100
AcDb2dVertex
 10
10.62525466370072
 20
186.2907358044469
 30
0.0
  0
VERTEX
  5
4B5
330
470
100
AcDbEntity
  8
Layer 1
 62
     7
420
 16777215
370
    35
100
AcDbVertex
100
AcDb2dVertex
 10
10.87068458756709
 20
187.763330951795
 30
0.0
  0
VERTEX
  5
4B6
330
470
100
AcDbEntity
  8
Layer 1
 62
     7
420
 16777215
370
    35
100
AcDbVertex
100
AcDb2dVertex
 10
11.17747004188089
 20
189.1745705686957
 30
0.0
  0
VERTEX
  5
4B7
330
470
100
AcDbEntity
  8
Layer 1
 62
     7
420
 16777215
370
    35
100
AcDbVertex
100
AcDb2dVertex
 10
11.6069821612402
 20
190.5858101855974
 30
0.0
  0
VERTEX
  5
4B8
330
470
100
AcDbEntity
  8
Layer 1
 62
     7
420
 16777215
370
    35
100
AcDbVertex
100
AcDb2dVertex
 10
12.0978420089726
 20
191.9970341983452
 30
0.0
  0
VERTEX
  5
4B9
330
470
100
AcDbEntity
  8
Layer 1
 62
     7
420
 16777215
370
    35
100
AcDbVertex
100
AcDb2dVertex
 10
12.58870965878095
 20
193.3469182847998
 30
0.0
  0
VERTEX
  5
4BA
330
470
100
AcDbEntity
  8
Layer 1
 62
     7
420
 16777215
370
    35
100
AcDbVertex
100
AcDb2dVertex
 10
13.20228836948419
 20
194.6967867671005
 30
0.0
  0
VERTEX
  5
4BB
330
470
100
AcDbEntity
  8
Layer 1
 62
     7
420
 16777215
370
    35
100
AcDbVertex
100
AcDb2dVertex
 10
13.87723041271146
 20
195.9853153231066
 30
0.0
  0
VERTEX
  5
4BC
330
470
100
AcDbEntity
  8
Layer 1
 62
     7
420
 16777215
370
    35
100
AcDbVertex
100
AcDb2dVertex
 10
14.6135201843083
 20
197.2124727445128
 30
0.0
  0
VERTEX
  5
4BD
330
470
100
AcDbEntity
  8
Layer 1
 62
     7
420
 16777215
370
    35
100
AcDbVertex
100
AcDb2dVertex
 10
15.34981775798237
 20
198.4396301659189
 30
0.0
  0
VERTEX
  5
4BE
330
470
100
AcDbEntity
  8
Layer 1
 62
     7
420
 16777215
370
    35
100
AcDbVertex
100
AcDb2dVertex
 10
16.20883419462857
 20
199.605432056878
 30
0.0
  0
VERTEX
  5
4BF
330
470
100
AcDbEntity
  8
Layer 1
 62
     7
420
 16777215
370
    35
100
AcDbVertex
100
AcDb2dVertex
 10
17.0678428291972
 20
200.7712339478364
 30
0.0
  0
VERTEX
  5
4C0
330
470
100
AcDbEntity
  8
Layer 1
 62
     7
420
 16777215
370
    35
100
AcDbVertex
100
AcDb2dVertex
 10
18.04957812881423
 20
201.8143247779012
 30
0.0
  0
VERTEX
  5
4C1
330
470
100
AcDbEntity
  8
Layer 1
 62
     7
420
 16777215
370
    35
100
AcDbVertex
100
AcDb2dVertex
 10
19.03130562635467
 20
202.857415607965
 30
0.0
  0
VERTEX
  5
4C2
330
470
100
AcDbEntity
  8
Layer 1
 62
     7
420
 16777215
370
    35
100
AcDbVertex
100
AcDb2dVertex
 10
20.07438865434126
 20
203.8391353034285
 30
0.0
  0
VERTEX
  5
4C3
330
470
100
AcDbEntity
  8
Layer 1
 62
     7
420
 16777215
370
    35
100
AcDbVertex
100
AcDb2dVertex
 10
21.1174716823301
 20
204.8208706030449
 30
0.0
  0
VERTEX
  5
4C4
330
470
100
AcDbEntity
  8
Layer 1
 62
     7
420
 16777215
370
    35
100
AcDbVertex
100
AcDb2dVertex
 10
22.28327357328881
 20
205.6798792376142
 30
0.0
  0
VERTEX
  5
4C5
330
470
100
AcDbEntity
  8
Layer 1
 62
     7
420
 16777215
370
    35
100
AcDbVertex
100
AcDb2dVertex
 10
23.44907546424784
 20
206.5388878721835
 30
0.0
  0
VERTEX
  5
4C6
330
470
100
AcDbEntity
  8
Layer 1
 62
     7
420
 16777215
370
    35
100
AcDbVertex
100
AcDb2dVertex
 10
24.67624068772931
 20
207.2751854458579
 30
0.0
  0
VERTEX
  5
4C7
330
470
100
AcDbEntity
  8
Layer 1
 62
     7
420
 16777215
370
    35
100
AcDbVertex
100
AcDb2dVertex
 10
25.9033981091361
 20
208.0114830195319
 30
0.0
  0
VERTEX
  5
4C8
330
470
100
AcDbEntity
  8
Layer 1
 62
     7
420
 16777215
370
    35
100
AcDbVertex
100
AcDb2dVertex
 10
27.19191886306629
 20
208.6864250627586
 30
0.0
  0
VERTEX
  5
4C9
330
470
100
AcDbEntity
  8
Layer 1
 62
     7
420
 16777215
370
    35
100
AcDbVertex
100
AcDb2dVertex
 10
28.54179514744296
 20
209.2999959713855
 30
0.0
  0
VERTEX
  5
4CA
330
470
100
AcDbEntity
  8
Layer 1
 62
     7
420
 16777215
370
    35
100
AcDbVertex
100
AcDb2dVertex
 10
29.89167143182059
 20
209.7908714232698
 30
0.0
  0
VERTEX
  5
4CB
330
470
100
AcDbEntity
  8
Layer 1
 62
     7
420
 16777215
370
    35
100
AcDbVertex
100
AcDb2dVertex
 10
31.30290324664663
 20
210.2817312710019
 30
0.0
  0
VERTEX
  5
4CC
330
470
100
AcDbEntity
  8
Layer 1
 62
     7
420
 16777215
370
    35
100
AcDbVertex
100
AcDb2dVertex
 10
32.71414286354605
 20
210.7112355882865
 30
0.0
  0
VERTEX
  5
4CD
330
470
100
AcDbEntity
  8
Layer 1
 62
     7
420
 16777215
370
    35
100
AcDbVertex
100
AcDb2dVertex
 10
34.12537467837144
 20
211.0180288446757
 30
0.0
  0
VERTEX
  5
4CE
330
470
100
AcDbEntity
  8
Layer 1
 62
     7
420
 16777215
370
    35
100
AcDbVertex
100
AcDb2dVertex
 10
35.59796982571959
 20
211.2634509664664
 30
0.0
  0
VERTEX
  5
4CF
330
470
100
AcDbEntity
  8
Layer 1
 62
     7
420
 16777215
370
    35
100
AcDbVertex
100
AcDb2dVertex
 10
37.13192050351582
 20
211.4475331619609
 30
0.0
  0
VERTEX
  5
4D0
330
470
100
AcDbEntity
  8
Layer 1
 62
     7
420
 16777215
370
    35
100
AcDbVertex
100
AcDb2dVertex
 10
38.60450784878834
 20
211.5702442228558
 30
0.0
  0
VERTEX
  5
4D1
330
470
100
AcDbEntity
  8
Layer 1
 62
     7
420
 16777215
370
    35
100
AcDbVertex
100
AcDb2dVertex
 10
40.13845852658488
 20
211.6315997533026
 30
0.0
  0
VERTEX
  5
4D2
330
470
100
AcDbEntity
  8
Layer 1
 62
     7
420
 16777215
370
    35
100
AcDbVertex
100
AcDb2dVertex
 10
41.73377253690323
 20
211.5702442228558
 30
0.0
  0
VERTEX
  5
4D3
330
470
100
AcDbEntity
  8
Layer 1
 62
     7
420
 16777215
370
    35
100
AcDbVertex
100
AcDb2dVertex
 10
43.20635988217542
 20
211.4475331619609
 30
0.0
  0
VERTEX
  5
4D4
330
470
100
AcDbEntity
  8
Layer 1
 62
     7
420
 16777215
370
    35
100
AcDbVertex
100
AcDb2dVertex
 10
44.74031055997101
 20
211.2634509664664
 30
0.0
  0
VERTEX
  5
4D5
330
470
100
AcDbEntity
  8
Layer 1
 62
     7
420
 16777215
370
    35
100
AcDbVertex
100
AcDb2dVertex
 10
46.21290570731948
 20
211.0180288446757
 30
0.0
  0
VERTEX
  5
4D6
330
470
100
AcDbEntity
  8
Layer 1
 62
     7
420
 16777215
370
    35
100
AcDbVertex
100
AcDb2dVertex
 10
47.62413752214519
 20
210.7112355882865
 30
0.0
  0
VERTEX
  5
4D7
330
470
100
AcDbEntity
  8
Layer 1
 62
     7
420
 16777215
370
    35
100
AcDbVertex
100
AcDb2dVertex
 10
49.03537713904622
 20
210.2817312710019
 30
0.0
  0
VERTEX
  5
4D8
330
470
100
AcDbEntity
  8
Layer 1
 62
     7
420
 16777215
370
    35
100
AcDbVertex
100
AcDb2dVertex
 10
50.44660895387033
 20
209.7908714232698
 30
0.0
  0
VERTEX
  5
4D9
330
470
100
AcDbEntity
  8
Layer 1
 62
     7
420
 16777215
370
    35
100
AcDbVertex
100
AcDb2dVertex
 10
51.7964852382486
 20
209.2999959713855
 30
0.0
  0
VERTEX
  5
4DA
330
470
100
AcDbEntity
  8
Layer 1
 62
     7
420
 16777215
370
    35
100
AcDbVertex
100
AcDb2dVertex
 10
53.14636152262495
 20
208.6864250627586
 30
0.0
  0
VERTEX
  5
4DB
330
470
100
AcDbEntity
  8
Layer 1
 62
     7
420
 16777215
370
    35
100
AcDbVertex
100
AcDb2dVertex
 10
54.43488227655514
 20
208.0114830195319
 30
0.0
  0
VERTEX
  5
4DC
330
470
100
AcDbEntity
  8
Layer 1
 62
     7
420
 16777215
370
    35
100
AcDbVertex
100
AcDb2dVertex
 10
55.6620396979613
 20
207.2751854458579
 30
0.0
  0
VERTEX
  5
4DD
330
470
100
AcDbEntity
  8
Layer 1
 62
     7
420
 16777215
370
    35
100
AcDbVertex
100
AcDb2dVertex
 10
56.88919711936681
 20
206.5388878721835
 30
0.0
  0
VERTEX
  5
4DE
330
470
100
AcDbEntity
  8
Layer 1
 62
     7
420
 16777215
370
    35
100
AcDbVertex
100
AcDb2dVertex
 10
58.05499901032648
 20
205.6798792376142
 30
0.0
  0
VERTEX
  5
4DF
330
470
100
AcDbEntity
  8
Layer 1
 62
     7
420
 16777215
370
    35
100
AcDbVertex
100
AcDb2dVertex
 10
59.22080090128519
 20
204.8208706030449
 30
0.0
  0
VERTEX
  5
4E0
330
470
100
AcDbEntity
  8
Layer 1
 62
     7
420
 16777215
370
    35
100
AcDbVertex
100
AcDb2dVertex
 10
60.26389173134967
 20
203.8391353034285
 30
0.0
  0
VERTEX
  5
4E1
330
470
100
AcDbEntity
  8
Layer 1
 62
     7
420
 16777215
370
    35
100
AcDbVertex
100
AcDb2dVertex
 10
61.30698256141381
 20
202.857415607965
 30
0.0
  0
VERTEX
  5
4E2
330
470
100
AcDbEntity
  8
Layer 1
 62
     7
420
 16777215
370
    35
100
AcDbVertex
100
AcDb2dVertex
 10
62.28870225687669
 20
201.8143247779012
 30
0.0
  0
VERTEX
  5
4E3
330
470
100
AcDbEntity
  8
Layer 1
 62
     7
420
 16777215
370
    35
100
AcDbVertex
100
AcDb2dVertex
 10
63.270437556495
 20
200.7712339478364
 30
0.0
  0
VERTEX
  5
4E4
330
470
100
AcDbEntity
  8
Layer 1
 62
     7
420
 16777215
370
    35
100
AcDbVertex
100
AcDb2dVertex
 10
64.129446191063
 20
199.605432056878
 30
0.0
  0
VERTEX
  5
4E5
330
470
100
AcDbEntity
  8
Layer 1
 62
     7
420
 16777215
370
    35
100
AcDbVertex
100
AcDb2dVertex
 10
64.9884548256326
 20
198.4396301659189
 30
0.0
  0
VERTEX
  5
4E6
330
470
100
AcDbEntity
  8
Layer 1
 62
     7
420
 16777215
370
    35
100
AcDbVertex
100
AcDb2dVertex
 10
65.72475239930635
 20
197.2124727445128
 30
0.0
  0
VERTEX
  5
4E7
330
470
100
AcDbEntity
  8
Layer 1
 62
     7
420
 16777215
370
    35
100
AcDbVertex
100
AcDb2dVertex
 10
66.46104997298106
 20
195.9853153231066
 30
0.0
  0
VERTEX
  5
4E8
330
470
100
AcDbEntity
  8
Layer 1
 62
     7
420
 16777215
370
    35
100
AcDbVertex
100
AcDb2dVertex
 10
67.13599201620802
 20
194.6967867671005
 30
0.0
  0
VERTEX
  5
4E9
330
470
100
AcDbEntity
  8
Layer 1
 62
     7
420
 16777215
370
    35
100
AcDbVertex
100
AcDb2dVertex
 10
67.74956292483337
 20
193.3469182847998
 30
0.0
  0
VERTEX
  5
4EA
330
470
100
AcDbEntity
  8
Layer 1
 62
     7
420
 16777215
370
    35
100
AcDbVertex
100
AcDb2dVertex
 10
68.24043837671961
 20
191.9970341983452
 30
0.0
  0
VERTEX
  5
4EB
330
470
100
AcDbEntity
  8
Layer 1
 62
     7
420
 16777215
370
    35
100
AcDbVertex
100
AcDb2dVertex
 10
68.73129822445009
 20
190.5858101855974
 30
0.0
  0
VERTEX
  5
4EC
330
470
100
AcDbEntity
  8
Layer 1
 62
     7
420
 16777215
370
    35
100
AcDbVertex
100
AcDb2dVertex
 10
69.1608025417344
 20
189.1745705686957
 30
0.0
  0
VERTEX
  5
4ED
330
470
100
AcDbEntity
  8
Layer 1
 62
     7
420
 16777215
370
    35
100
AcDbVertex
100
AcDb2dVertex
 10
69.46759579812448
 20
187.763330951795
 30
0.0
  0
VERTEX
  5
4EE
330
470
100
AcDbEntity
  8
Layer 1
 62
     7
420
 16777215
370
    35
100
AcDbVertex
100
AcDb2dVertex
 10
69.7130335240684
 20
186.2907358044469
 30
0.0
  0
VERTEX
  5
4EF
330
470
100
AcDbEntity
  8
Layer 1
 62
     7
420
 16777215
370
    35
100
AcDbVertex
100
AcDb2dVertex
 10
69.89710011540976
 20
184.7567851266507
 30
0.0
  0
VERTEX
  5
4F0
330
470
100
AcDbEntity
  8
Layer 1
 62
     7
420
 16777215
370
    35
100
AcDbVertex
100
AcDb2dVertex
 10
70.01981117630336
 20
183.284205583455
 30
0.0
  0
VERTEX
  5
4F1
330
470
100
AcDbEntity
  8
Layer 1
 62
     7
420
 16777215
370
    35
100
AcDbVertex
100
AcDb2dVertex
 10
70.08118231090398
 20
181.7502549056591
 30
0.0
  0
SEQEND
  5
4F2
330
470
100
AcDbEntity
  8
Layer 1
 62
     7
420
 16777215
370
    35
  0
POLYLINE
  5
4F3
330
1F
100
AcDbEntity
  8
Layer 1
 62
     7
420
 16777215
370
    35
100
AcDb2dPolyline
 66
     1
 10
0.0
 20
0.0
 30
0.0
  0
VERTEX
  5
4F4
330
4F3
100
AcDbEntity
  8
Layer 1
 62
     7
420
 16777215
370
    35
100
AcDbVertex
100
AcDb2dVertex
 10
64.1908173256633
 20
192.73333177202
 30
0.0
  0
VERTEX
  5
4F5
330
4F3
100
AcDbEntity
  8
Layer 1
 62
     7
420
 16777215
370
    35
100
AcDbVertex
100
AcDb2dVertex
 10
63.82266853882643
 20
193.4696137415409
 30
0.0
  0
VERTEX
  5
4F6
330
4F3
100
AcDbEntity
  8
Layer 1
 62
     7
420
 16777215
370
    35
100
AcDbVertex
100
AcDb2dVertex
 10
63.45451975198923
 20
194.2672824498162
 30
0.0
  0
VERTEX
  5
4F7
330
4F3
100
AcDbEntity
  8
Layer 1
 62
     7
420
 16777215
370
    35
100
AcDbVertex
100
AcDb2dVertex
 10
62.59549551326741
 20
195.6785064625634
 30
0.0
  0
VERTEX
  5
4F8
330
4F3
100
AcDbEntity
  8
Layer 1
 62
     7
420
 16777215
370
    35
100
AcDbVertex
100
AcDb2dVertex
 10
61.67513134825229
 20
197.0897460794647
 30
0.0
  0
VERTEX
  5
4F9
330
4F3
100
AcDbEntity
  8
Layer 1
 62
     7
420
 16777215
370
    35
100
AcDbVertex
100
AcDb2dVertex
 10
60.69339604863398
 20
198.378259031319
 30
0.0
  0
VERTEX
  5
4FA
330
4F3
100
AcDbEntity
  8
Layer 1
 62
     7
420
 16777215
370
    35
100
AcDbVertex
100
AcDb2dVertex
 10
59.58896529227622
 20
199.6667875873258
 30
0.0
  0
VERTEX
  5
4FB
330
4F3
100
AcDbEntity
  8
Layer 1
 62
     7
420
 16777215
370
    35
100
AcDbVertex
100
AcDb2dVertex
 10
58.42314779716239
 20
200.8325894782841
 30
0.0
  0
VERTEX
  5
4FC
330
4F3
100
AcDbEntity
  8
Layer 1
 62
     7
420
 16777215
370
    35
100
AcDbVertex
100
AcDb2dVertex
 10
57.19599037575689
 20
201.937035838796
 30
0.0
  0
VERTEX
  5
4FD
330
4F3
100
AcDbEntity
  8
Layer 1
 62
     7
420
 16777215
370
    35
100
AcDbVertex
100
AcDb2dVertex
 10
55.90747742390425
 20
202.9801110647067
 30
0.0
  0
VERTEX
  5
4FE
330
4F3
100
AcDbEntity
  8
Layer 1
 62
     7
420
 16777215
370
    35
100
AcDbVertex
100
AcDb2dVertex
 10
54.49624560907885
 20
203.9004908338753
 30
0.0
  0
VERTEX
  5
4FF
330
4F3
100
AcDbEntity
  8
Layer 1
 62
     7
420
 16777215
370
    35
100
AcDbVertex
100
AcDb2dVertex
 10
53.08501379425571
 20
204.7594994684446
 30
0.0
  0
VERTEX
  5
500
330
4F3
100
AcDbEntity
  8
Layer 1
 62
     7
420
 16777215
370
    35
100
AcDbVertex
100
AcDb2dVertex
 10
51.61241864690692
 20
205.5571525725668
 30
0.0
  0
VERTEX
  5
501
330
4F3
100
AcDbEntity
  8
Layer 1
 62
     7
420
 16777215
370
    35
100
AcDbVertex
100
AcDb2dVertex
 10
50.87612107323221
 20
205.8639458289565
 30
0.0
  0
VERTEX
  5
502
330
4F3
100
AcDbEntity
  8
Layer 1
 62
     7
420
 16777215
370
    35
100
AcDbVertex
100
AcDb2dVertex
 10
50.07846796911101
 20
206.2320946157927
 30
0.0
  0
VERTEX
  5
503
330
4F3
100
AcDbEntity
  8
Layer 1
 62
     7
420
 16777215
370
    35
100
AcDbVertex
100
AcDb2dVertex
 10
49.28081486498949
 20
206.5388878721835
 30
0.0
  0
VERTEX
  5
504
330
4F3
100
AcDbEntity
  8
Layer 1
 62
     7
420
 16777215
370
    35
100
AcDbVertex
100
AcDb2dVertex
 10
48.48316176086573
 20
206.7843099939723
 30
0.0
  0
VERTEX
  5
505
330
4F3
100
AcDbEntity
  8
Layer 1
 62
     7
420
 16777215
370
    35
100
AcDbVertex
100
AcDb2dVertex
 10
47.68550085466827
 20
207.0297477199149
 30
0.0
  0
VERTEX
  5
506
330
4F3
100
AcDbEntity
  8
Layer 1
 62
     7
420
 16777215
370
    35
100
AcDbVertex
100
AcDb2dVertex
 10
46.82649222009931
 20
207.2751698417044
 30
0.0
  0
VERTEX
  5
507
330
4F3
100
AcDbEntity
  8
Layer 1
 62
     7
420
 16777215
370
    35
100
AcDbVertex
100
AcDb2dVertex
 10
46.02883911597812
 20
207.4592520371992
 30
0.0
  0
VERTEX
  5
508
330
4F3
100
AcDbEntity
  8
Layer 1
 62
     7
420
 16777215
370
    35
100
AcDbVertex
100
AcDb2dVertex
 10
45.16982267933353
 20
207.6433186285412
 30
0.0
  0
VERTEX
  5
509
330
4F3
100
AcDbEntity
  8
Layer 1
 62
     7
420
 16777215
370
    35
100
AcDbVertex
100
AcDb2dVertex
 10
44.31081404476489
 20
207.8274008240367
 30
0.0
  0
VERTEX
  5
50A
330
4F3
100
AcDbEntity
  8
Layer 1
 62
     7
420
 16777215
370
    35
100
AcDbVertex
100
AcDb2dVertex
 10
43.4517976081187
 20
207.950111884931
 30
0.0
  0
VERTEX
  5
50B
330
4F3
100
AcDbEntity
  8
Layer 1
 62
     7
420
 16777215
370
    35
100
AcDbVertex
100
AcDb2dVertex
 10
44.18809518179213
 20
192.6106051069719
 30
0.0
  0
VERTEX
  5
50C
330
4F3
100
AcDbEntity
  8
Layer 1
 62
     7
420
 16777215
370
    35
100
AcDbVertex
100
AcDb2dVertex
 10
44.18809518179213
 20
192.1811007896866
 30
0.0
  0
VERTEX
  5
50D
330
4F3
100
AcDbEntity
  8
Layer 1
 62
     7
420
 16777215
370
    35
100
AcDbVertex
100
AcDb2dVertex
 10
44.31081404476489
 20
191.7515964724036
 30
0.0
  0
VERTEX
  5
50E
330
4F3
100
AcDbEntity
  8
Layer 1
 62
     7
420
 16777215
370
    35
100
AcDbVertex
100
AcDb2dVertex
 10
44.43352510565817
 20
191.3834476855657
 30
0.0
  0
VERTEX
  5
50F
330
4F3
100
AcDbEntity
  8
Layer 1
 62
     7
420
 16777215
370
    35
100
AcDbVertex
100
AcDb2dVertex
 10
44.61759949907677
 20
190.9539433682814
 30
0.0
  0
VERTEX
  5
510
330
4F3
100
AcDbEntity
  8
Layer 1
 62
     7
420
 16777215
370
    35
100
AcDbVertex
100
AcDb2dVertex
 10
44.80167389249344
 20
190.5857945814445
 30
0.0
  0
VERTEX
  5
511
330
4F3
100
AcDbEntity
  8
Layer 1
 62
     7
420
 16777215
370
    35
100
AcDbVertex
100
AcDb2dVertex
 10
45.04711161843768
 20
190.2790013250548
 30
0.0
  0
VERTEX
  5
512
330
4F3
100
AcDbEntity
  8
Layer 1
 62
     7
420
 16777215
370
    35
100
AcDbVertex
100
AcDb2dVertex
 10
45.35389707275117
 20
189.9722080686647
 30
0.0
  0
VERTEX
  5
513
330
4F3
100
AcDbEntity
  8
Layer 1
 62
     7
420
 16777215
370
    35
100
AcDbVertex
100
AcDb2dVertex
 10
45.66069032914124
 20
189.6654304164281
 30
0.0
  0
VERTEX
  5
514
330
4F3
100
AcDbEntity
  8
Layer 1
 62
     7
420
 16777215
370
    35
100
AcDbVertex
100
AcDb2dVertex
 10
46.02883911597812
 20
189.4199926904855
 30
0.0
  0
VERTEX
  5
515
330
4F3
100
AcDbEntity
  8
Layer 1
 62
     7
420
 16777215
370
    35
100
AcDbVertex
100
AcDb2dVertex
 10
46.45834343326212
 20
189.1745549645426
 30
0.0
  0
VERTEX
  5
516
330
4F3
100
AcDbEntity
  8
Layer 1
 62
     7
420
 16777215
370
    35
100
AcDbVertex
100
AcDb2dVertex
 10
46.88784775054739
 20
188.9904883732012
 30
0.0
  0
VERTEX
  5
517
330
4F3
100
AcDbEntity
  8
Layer 1
 62
     7
420
 16777215
370
    35
100
AcDbVertex
100
AcDb2dVertex
 10
47.31735986990863
 20
188.8677617081538
 30
0.0
  0
VERTEX
  5
518
330
4F3
100
AcDbEntity
  8
Layer 1
 62
     7
420
 16777215
370
    35
100
AcDbVertex
100
AcDb2dVertex
 10
47.74686418719359
 20
188.8064061777054
 30
0.0
  0
VERTEX
  5
519
330
4F3
100
AcDbEntity
  8
Layer 1
 62
     7
420
 16777215
370
    35
100
AcDbVertex
100
AcDb2dVertex
 10
48.17636850447694
 20
188.8064061777054
 30
0.0
  0
VERTEX
  5
51A
330
4F3
100
AcDbEntity
  8
Layer 1
 62
     7
420
 16777215
370
    35
100
AcDbVertex
100
AcDb2dVertex
 10
48.66723615428465
 20
188.8064061777054
 30
0.0
  0
VERTEX
  5
51B
330
4F3
100
AcDbEntity
  8
Layer 1
 62
     7
420
 16777215
370
    35
100
AcDbVertex
100
AcDb2dVertex
 10
49.09674047157122
 20
188.9291328427541
 30
0.0
  0
VERTEX
  5
51C
330
4F3
100
AcDbEntity
  8
Layer 1
 62
     7
420
 16777215
370
    35
100
AcDbVertex
100
AcDb2dVertex
 10
64.1908173256633
 20
192.73333177202
 30
0.0
  0
SEQEND
  5
51D
330
4F3
100
AcDbEntity
  8
Layer 1
 62
     7
420
 16777215
370
    35
  0
POLYLINE
  5
51E
330
1F
100
AcDbEntity
  8
Layer 1
 62
     7
420
 16777215
370
    35
100
AcDb2dPolyline
 66
     1
 10
0.0
 20
0.0
 30
0.0
  0
VERTEX
  5
51F
330
51E
100
AcDbEntity
  8
Layer 1
 62
     7
420
 16777215
370
    35
100
AcDbVertex
100
AcDb2dVertex
 10
77.53455072143288
 20
191.2175249042865
 30
0.0
  0
VERTEX
  5
520
330
51E
100
AcDbEntity
  8
Layer 1
 62
     7
420
 16777215
370
    35
100
AcDbVertex
100
AcDb2dVertex
 10
92.62861977344902
 20
187.5360370359149
 30
0.0
  0
VERTEX
  5
521
330
51E
100
AcDbEntity
  8
Layer 1
 62
     7
420
 16777215
370
    35
100
AcDbVertex
100
AcDb2dVertex
 10
93.05812409073366
 20
187.4133259750193
 30
0.0
  0
VERTEX
  5
522
330
51E
100
AcDbEntity
  8
Layer 1
 62
     7
420
 16777215
370
    35
100
AcDbVertex
100
AcDb2dVertex
 10
93.48763621009522
 20
187.4133259750193
 30
0.0
  0
VERTEX
  5
523
330
51E
100
AcDbEntity
  8
Layer 1
 62
     7
420
 16777215
370
    35
100
AcDbVertex
100
AcDb2dVertex
 10
93.91714052737953
 20
187.4133259750193
 30
0.0
  0
VERTEX
  5
524
330
51E
100
AcDbEntity
  8
Layer 1
 62
     7
420
 16777215
370
    35
100
AcDbVertex
100
AcDb2dVertex
 10
94.34664484466417
 20
187.4746815054684
 30
0.0
  0
VERTEX
  5
525
330
51E
100
AcDbEntity
  8
Layer 1
 62
     7
420
 16777215
370
    35
100
AcDbVertex
100
AcDb2dVertex
 10
94.71479363150073
 20
187.5360370359149
 30
0.0
  0
VERTEX
  5
526
330
51E
100
AcDbEntity
  8
Layer 1
 62
     7
420
 16777215
370
    35
100
AcDbVertex
100
AcDb2dVertex
 10
95.14429794878569
 20
187.7201036272572
 30
0.0
  0
VERTEX
  5
527
330
51E
100
AcDbEntity
  8
Layer 1
 62
     7
420
 16777215
370
    35
100
AcDbVertex
100
AcDb2dVertex
 10
95.51244673562223
 20
187.9041858227514
 30
0.0
  0
VERTEX
  5
528
330
51E
100
AcDbEntity
  8
Layer 1
 62
     7
420
 16777215
370
    35
100
AcDbVertex
100
AcDb2dVertex
 10
95.88059552245944
 20
188.1496235486947
 30
0.0
  0
VERTEX
  5
529
330
51E
100
AcDbEntity
  8
Layer 1
 62
     7
420
 16777215
370
    35
100
AcDbVertex
100
AcDb2dVertex
 10
96.24874430929856
 20
188.3950456704832
 30
0.0
  0
VERTEX
  5
52A
330
51E
100
AcDbEntity
  8
Layer 1
 62
     7
420
 16777215
370
    35
100
AcDbVertex
100
AcDb2dVertex
 10
96.5555375656864
 20
188.7018389268733
 30
0.0
  0
VERTEX
  5
52B
330
51E
100
AcDbEntity
  8
Layer 1
 62
     7
420
 16777215
370
    35
100
AcDbVertex
100
AcDb2dVertex
 10
96.86232301999955
 20
189.0699877137105
 30
0.0
  0
VERTEX
  5
52C
330
51E
100
AcDbEntity
  8
Layer 1
 62
     7
420
 16777215
370
    35
100
AcDbVertex
100
AcDb2dVertex
 10
97.10776074594347
 20
189.4994920309954
 30
0.0
  0
VERTEX
  5
52D
330
51E
100
AcDbEntity
  8
Layer 1
 62
     7
420
 16777215
370
    35
100
AcDbVertex
100
AcDb2dVertex
 10
97.29183513936046
 20
189.8676408178329
 30
0.0
  0
VERTEX
  5
52E
330
51E
100
AcDbEntity
  8
Layer 1
 62
     7
420
 16777215
370
    35
100
AcDbVertex
100
AcDb2dVertex
 10
97.41454620025534
 20
190.2971451351182
 30
0.0
  0
VERTEX
  5
52F
330
51E
100
AcDbEntity
  8
Layer 1
 62
     7
420
 16777215
370
    35
100
AcDbVertex
100
AcDb2dVertex
 10
97.53726506322619
 20
190.7880049828484
 30
0.0
  0
VERTEX
  5
530
330
51E
100
AcDbEntity
  8
Layer 1
 62
     7
420
 16777215
370
    35
100
AcDbVertex
100
AcDb2dVertex
 10
97.59862059367491
 20
191.2175249042865
 30
0.0
  0
VERTEX
  5
531
330
51E
100
AcDbEntity
  8
Layer 1
 62
     7
420
 16777215
370
    35
100
AcDbVertex
100
AcDb2dVertex
 10
98.33491816734866
 20
206.3729494867498
 30
0.0
  0
VERTEX
  5
532
330
51E
100
AcDbEntity
  8
Layer 1
 62
     7
420
 16777215
370
    35
100
AcDbVertex
100
AcDb2dVertex
 10
97.47590953277971
 20
206.2502384258565
 30
0.0
  0
VERTEX
  5
533
330
51E
100
AcDbEntity
  8
Layer 1
 62
     7
420
 16777215
370
    35
100
AcDbVertex
100
AcDb2dVertex
 10
96.61689309613384
 20
206.1275117608084
 30
0.0
  0
VERTEX
  5
534
330
51E
100
AcDbEntity
  8
Layer 1
 62
     7
420
 16777215
370
    35
100
AcDbVertex
100
AcDb2dVertex
 10
95.81923999201328
 20
205.9434451694661
 30
0.0
  0
VERTEX
  5
535
330
51E
100
AcDbEntity
  8
Layer 1
 62
     7
420
 16777215
370
    35
100
AcDbVertex
100
AcDb2dVertex
 10
94.9602235553674
 20
205.7593629739712
 30
0.0
  0
VERTEX
  5
536
330
51E
100
AcDbEntity
  8
Layer 1
 62
     7
420
 16777215
370
    35
100
AcDbVertex
100
AcDb2dVertex
 10
94.16257045124524
 20
205.5139408521812
 30
0.0
  0
VERTEX
  5
537
330
51E
100
AcDbEntity
  8
Layer 1
 62
     7
420
 16777215
370
    35
100
AcDbVertex
100
AcDb2dVertex
 10
93.30356181667533
 20
205.2685031262392
 30
0.0
  0
VERTEX
  5
538
330
51E
100
AcDbEntity
  8
Layer 1
 62
     7
420
 16777215
370
    35
100
AcDbVertex
100
AcDb2dVertex
 10
92.50590871255446
 20
204.9617098698494
 30
0.0
  0
VERTEX
  5
539
330
51E
100
AcDbEntity
  8
Layer 1
 62
     7
420
 16777215
370
    35
100
AcDbVertex
100
AcDb2dVertex
 10
91.70824780635635
 20
204.6549322176125
 30
0.0
  0
VERTEX
  5
53A
330
51E
100
AcDbEntity
  8
Layer 1
 62
     7
420
 16777215
370
    35
100
AcDbVertex
100
AcDb2dVertex
 10
90.97195803475823
 20
204.3481389612228
 30
0.0
  0
VERTEX
  5
53B
330
51E
100
AcDbEntity
  8
Layer 1
 62
     7
420
 16777215
370
    35
100
AcDbVertex
100
AcDb2dVertex
 10
90.1742971285598
 20
203.9799901743853
 30
0.0
  0
VERTEX
  5
53C
330
51E
100
AcDbEntity
  8
Layer 1
 62
     7
420
 16777215
370
    35
100
AcDbVertex
100
AcDb2dVertex
 10
88.70170978328856
 20
203.2436926007109
 30
0.0
  0
VERTEX
  5
53D
330
51E
100
AcDbEntity
  8
Layer 1
 62
     7
420
 16777215
370
    35
100
AcDbVertex
100
AcDb2dVertex
 10
87.2904701663869
 20
202.3846839661422
 30
0.0
  0
VERTEX
  5
53E
330
51E
100
AcDbEntity
  8
Layer 1
 62
     7
420
 16777215
370
    35
100
AcDbVertex
100
AcDb2dVertex
 10
85.87923835156279
 20
201.4029486665252
 30
0.0
  0
VERTEX
  5
53F
330
51E
100
AcDbEntity
  8
Layer 1
 62
     7
420
 16777215
370
    35
100
AcDbVertex
100
AcDb2dVertex
 10
84.59071759763228
 20
200.3598578364626
 30
0.0
  0
VERTEX
  5
540
330
51E
100
AcDbEntity
  8
Layer 1
 62
     7
420
 16777215
370
    35
100
AcDbVertex
100
AcDb2dVertex
 10
83.36356017622677
 20
199.2554114759501
 30
0.0
  0
VERTEX
  5
541
330
51E
100
AcDbEntity
  8
Layer 1
 62
     7
420
 16777215
370
    35
100
AcDbVertex
100
AcDb2dVertex
 10
82.19775828526645
 20
198.0896095849917
 30
0.0
  0
VERTEX
  5
542
330
51E
100
AcDbEntity
  8
Layer 1
 62
     7
420
 16777215
370
    35
100
AcDbVertex
100
AcDb2dVertex
 10
81.09331192475582
 20
196.8624521635852
 30
0.0
  0
VERTEX
  5
543
330
51E
100
AcDbEntity
  8
Layer 1
 62
     7
420
 16777215
370
    35
100
AcDbVertex
100
AcDb2dVertex
 10
80.05022889676826
 20
195.5125836812842
 30
0.0
  0
VERTEX
  5
544
330
51E
100
AcDbEntity
  8
Layer 1
 62
     7
420
 16777215
370
    35
100
AcDbVertex
100
AcDb2dVertex
 10
79.1298569296756
 20
194.1626995948303
 30
0.0
  0
VERTEX
  5
545
330
51E
100
AcDbEntity
  8
Layer 1
 62
     7
420
 16777215
370
    35
100
AcDbVertex
100
AcDb2dVertex
 10
78.27084049303004
 20
192.6901044474821
 30
0.0
  0
VERTEX
  5
546
330
51E
100
AcDbEntity
  8
Layer 1
 62
     7
420
 16777215
370
    35
100
AcDbVertex
100
AcDb2dVertex
 10
77.90269170619253
 20
191.9538068738074
 30
0.0
  0
VERTEX
  5
547
330
51E
100
AcDbEntity
  8
Layer 1
 62
     7
420
 16777215
370
    35
100
AcDbVertex
100
AcDb2dVertex
 10
77.53455072143288
 20
191.2175249042865
 30
0.0
  0
SEQEND
  5
548
330
51E
100
AcDbEntity
  8
Layer 1
 62
     7
420
 16777215
370
    35
  0
POLYLINE
  5
549
330
1F
100
AcDbEntity
  8
Layer 1
 62
     7
420
 16777215
370
    35
100
AcDb2dPolyline
 66
     1
 10
0.0
 20
0.0
 30
0.0
  0
VERTEX
  5
54A
330
549
100
AcDbEntity
  8
Layer 1
 62
     7
420
 16777215
370
    35
100
AcDbVertex
100
AcDb2dVertex
 10
83.1181302523604
 20
161.2748089220427
 30
0.0
  0
VERTEX
  5
54B
330
549
100
AcDbEntity
  8
Layer 1
 62
     7
420
 16777215
370
    35
100
AcDbVertex
100
AcDb2dVertex
 10
91.64689227590827
 20
173.5464143444094
 30
0.0
  0
VERTEX
  5
54C
330
549
100
AcDbEntity
  8
Layer 1
 62
     7
420
 16777215
370
    35
100
AcDbVertex
100
AcDb2dVertex
 10
91.89232219977559
 20
173.8531919966459
 30
0.0
  0
VERTEX
  5
54D
330
549
100
AcDbEntity
  8
Layer 1
 62
     7
420
 16777215
370
    35
100
AcDbVertex
100
AcDb2dVertex
 10
92.07639659319355
 20
174.2826963139309
 30
0.0
  0
VERTEX
  5
54E
330
549
100
AcDbEntity
  8
Layer 1
 62
     7
420
 16777215
370
    35
100
AcDbVertex
100
AcDb2dVertex
 10
92.26047098661215
 20
174.6508451007678
 30
0.0
  0
VERTEX
  5
54F
330
549
100
AcDbEntity
  8
Layer 1
 62
     7
420
 16777215
370
    35
100
AcDbVertex
100
AcDb2dVertex
 10
92.32183431913522
 20
175.0803650222046
 30
0.0
  0
VERTEX
  5
550
330
549
100
AcDbEntity
  8
Layer 1
 62
     7
420
 16777215
370
    35
100
AcDbVertex
100
AcDb2dVertex
 10
92.4445453800301
 20
175.4484982048896
 30
0.0
  0
VERTEX
  5
551
330
549
100
AcDbEntity
  8
Layer 1
 62
     7
420
 16777215
370
    35
100
AcDbVertex
100
AcDb2dVertex
 10
92.4445453800301
 20
175.8780181263274
 30
0.0
  0
VERTEX
  5
552
330
549
100
AcDbEntity
  8
Layer 1
 62
     7
420
 16777215
370
    35
100
AcDbVertex
100
AcDb2dVertex
 10
92.4445453800301
 20
176.3075224436114
 30
0.0
  0
VERTEX
  5
553
330
549
100
AcDbEntity
  8
Layer 1
 62
     7
420
 16777215
370
    35
100
AcDbVertex
100
AcDb2dVertex
 10
92.32183431913522
 20
176.7370267608961
 30
0.0
  0
VERTEX
  5
554
330
549
100
AcDbEntity
  8
Layer 1
 62
     7
420
 16777215
370
    35
100
AcDbVertex
100
AcDb2dVertex
 10
92.19911545616374
 20
177.1665310781804
 30
0.0
  0
VERTEX
  5
555
330
549
100
AcDbEntity
  8
Layer 1
 62
     7
420
 16777215
370
    35
100
AcDbVertex
100
AcDb2dVertex
 10
92.07639659319355
 20
177.596035395465
 30
0.0
  0
VERTEX
  5
556
330
549
100
AcDbEntity
  8
Layer 1
 62
     7
420
 16777215
370
    35
100
AcDbVertex
100
AcDb2dVertex
 10
91.83096666932815
 20
178.02553971275
 30
0.0
  0
VERTEX
  5
557
330
549
100
AcDbEntity
  8
Layer 1
 62
     7
420
 16777215
370
    35
100
AcDbVertex
100
AcDb2dVertex
 10
91.58553674546178
 20
178.3936884995865
 30
0.0
  0
VERTEX
  5
558
330
549
100
AcDbEntity
  8
Layer 1
 62
     7
420
 16777215
370
    35
100
AcDbVertex
100
AcDb2dVertex
 10
91.27874348907203
 20
178.700481755976
 30
0.0
  0
VERTEX
  5
559
330
549
100
AcDbEntity
  8
Layer 1
 62
     7
420
 16777215
370
    35
100
AcDbVertex
100
AcDb2dVertex
 10
90.91059470223452
 20
179.0072750123667
 30
0.0
  0
VERTEX
  5
55A
330
549
100
AcDbEntity
  8
Layer 1
 62
     7
420
 16777215
370
    35
100
AcDbVertex
100
AcDb2dVertex
 10
90.54244591539764
 20
179.3140682687555
 30
0.0
  0
VERTEX
  5
55B
330
549
100
AcDbEntity
  8
Layer 1
 62
     7
420
 16777215
370
    35
100
AcDbVertex
100
AcDb2dVertex
 10
90.11294159811268
 20
179.4981348600984
 30
0.0
  0
VERTEX
  5
55C
330
549
100
AcDbEntity
  8
Layer 1
 62
     7
420
 16777215
370
    35
100
AcDbVertex
100
AcDb2dVertex
 10
75.63244345472253
 20
185.0817221931026
 30
0.0
  0
VERTEX
  5
55D
330
549
100
AcDbEntity
  8
Layer 1
 62
     7
420
 16777215
370
    35
100
AcDbVertex
100
AcDb2dVertex
 10
75.38701353085779
 20
183.9159203021435
 30
0.0
  0
VERTEX
  5
55E
330
549
100
AcDbEntity
  8
Layer 1
 62
     7
420
 16777215
370
    35
100
AcDbVertex
100
AcDb2dVertex
 10
75.26430246996193
 20
182.6887472765842
 30
0.0
  0
VERTEX
  5
55F
330
549
100
AcDbEntity
  8
Layer 1
 62
     7
420
 16777215
370
    35
100
AcDbVertex
100
AcDb2dVertex
 10
75.14158360699078
 20
181.4002343247303
 30
0.0
  0
VERTEX
  5
560
330
549
100
AcDbEntity
  8
Layer 1
 62
     7
420
 16777215
370
    35
100
AcDbVertex
100
AcDb2dVertex
 10
75.14158360699078
 20
180.1730769033251
 30
0.0
  0
VERTEX
  5
561
330
549
100
AcDbEntity
  8
Layer 1
 62
     7
420
 16777215
370
    35
100
AcDbVertex
100
AcDb2dVertex
 10
75.20293913743791
 20
178.7618372864234
 30
0.0
  0
VERTEX
  5
562
330
549
100
AcDbEntity
  8
Layer 1
 62
     7
420
 16777215
370
    35
100
AcDbVertex
100
AcDb2dVertex
 10
75.26430246996193
 20
177.411968804123
 30
0.0
  0
VERTEX
  5
563
330
549
100
AcDbEntity
  8
Layer 1
 62
     7
420
 16777215
370
    35
100
AcDbVertex
100
AcDb2dVertex
 10
75.44837686338053
 20
176.0620847176694
 30
0.0
  0
VERTEX
  5
564
330
549
100
AcDbEntity
  8
Layer 1
 62
     7
420
 16777215
370
    35
100
AcDbVertex
100
AcDb2dVertex
 10
75.6938067872469
 20
174.7122162353684
 30
0.0
  0
VERTEX
  5
565
330
549
100
AcDbEntity
  8
Layer 1
 62
     7
420
 16777215
370
    35
100
AcDbVertex
100
AcDb2dVertex
 10
76.00059224155909
 20
173.423687679361
 30
0.0
  0
VERTEX
  5
566
330
549
100
AcDbEntity
  8
Layer 1
 62
     7
420
 16777215
370
    35
100
AcDbVertex
100
AcDb2dVertex
 10
76.36874102839789
 20
172.1965302579555
 30
0.0
  0
VERTEX
  5
567
330
549
100
AcDbEntity
  8
Layer 1
 62
     7
420
 16777215
370
    35
100
AcDbVertex
100
AcDb2dVertex
 10
76.79825314775817
 20
170.9080173061025
 30
0.0
  0
VERTEX
  5
568
330
549
100
AcDbEntity
  8
Layer 1
 62
     7
420
 16777215
370
    35
100
AcDbVertex
100
AcDb2dVertex
 10
77.28911299548929
 20
169.7422154151435
 30
0.0
  0
VERTEX
  5
569
330
549
100
AcDbEntity
  8
Layer 1
 62
     7
420
 16777215
370
    35
100
AcDbVertex
100
AcDb2dVertex
 10
77.8413361757454
 20
168.5150423895838
 30
0.0
  0
VERTEX
  5
56A
330
549
100
AcDbEntity
  8
Layer 1
 62
     7
420
 16777215
370
    35
100
AcDbVertex
100
AcDb2dVertex
 10
78.39355935600248
 20
167.4106116332257
 30
0.0
  0
VERTEX
  5
56B
330
549
100
AcDbEntity
  8
Layer 1
 62
     7
420
 16777215
370
    35
100
AcDbVertex
100
AcDb2dVertex
 10
79.06849359715187
 20
166.2447941381138
 30
0.0
  0
VERTEX
  5
56C
330
549
100
AcDbEntity
  8
Layer 1
 62
     7
420
 16777215
370
    35
100
AcDbVertex
100
AcDb2dVertex
 10
79.80479117082659
 20
165.2017189122029
 30
0.0
  0
VERTEX
  5
56D
330
549
100
AcDbEntity
  8
Layer 1
 62
     7
420
 16777215
370
    35
100
AcDbVertex
100
AcDb2dVertex
 10
80.5410887444997
 20
164.1586280821384
 30
0.0
  0
VERTEX
  5
56E
330
549
100
AcDbEntity
  8
Layer 1
 62
     7
420
 16777215
370
    35
100
AcDbVertex
100
AcDb2dVertex
 10
81.3387418486209
 20
163.1155372520749
 30
0.0
  0
VERTEX
  5
56F
330
549
100
AcDbEntity
  8
Layer 1
 62
     7
420
 16777215
370
    35
100
AcDbVertex
100
AcDb2dVertex
 10
82.19775828526645
 20
162.1951730870582
 30
0.0
  0
VERTEX
  5
570
330
549
100
AcDbEntity
  8
Layer 1
 62
     7
420
 16777215
370
    35
100
AcDbVertex
100
AcDb2dVertex
 10
83.1181302523604
 20
161.2748089220427
 30
0.0
  0
SEQEND
  5
571
330
549
100
AcDbEntity
  8
Layer 1
 62
     7
420
 16777215
370
    35
  0
POLYLINE
  5
572
330
1F
100
AcDbEntity
  8
Layer 1
 62
     7
420
 16777215
370
    35
100
AcDb2dPolyline
 66
     1
 10
0.0
 20
0.0
 30
0.0
  0
VERTEX
  5
573
330
572
100
AcDbEntity
  8
Layer 1
 62
     7
420
 16777215
370
    35
100
AcDbVertex
100
AcDb2dVertex
 10
98.39628930194769
 20
169.2513555674114
 30
0.0
  0
VERTEX
  5
574
330
572
100
AcDbEntity
  8
Layer 1
 62
     7
420
 16777215
370
    35
100
AcDbVertex
100
AcDb2dVertex
 10
98.70307475626213
 20
169.5581332196483
 30
0.0
  0
VERTEX
  5
575
330
572
100
AcDbEntity
  8
Layer 1
 62
     7
420
 16777215
370
    35
100
AcDbVertex
100
AcDb2dVertex
 10
99.07122354309837
 20
169.8035709455903
 30
0.0
  0
VERTEX
  5
576
330
572
100
AcDbEntity
  8
Layer 1
 62
     7
420
 16777215
370
    35
100
AcDbVertex
100
AcDb2dVertex
 10
99.50072786038396
 20
170.0490086715336
 30
0.0
  0
VERTEX
  5
577
330
572
100
AcDbEntity
  8
Layer 1
 62
     7
420
 16777215
370
    35
100
AcDbVertex
100
AcDb2dVertex
 10
99.93023997974456
 20
170.2330752628752
 30
0.0
  0
VERTEX
  5
578
330
572
100
AcDbEntity
  8
Layer 1
 62
     7
420
 16777215
370
    35
100
AcDbVertex
100
AcDb2dVertex
 10
100.3597442970295
 20
170.4171574583701
 30
0.0
  0
VERTEX
  5
579
330
572
100
AcDbEntity
  8
Layer 1
 62
     7
420
 16777215
370
    35
100
AcDbVertex
100
AcDb2dVertex
 10
100.7892486143145
 20
170.4785129888179
 30
0.0
  0
VERTEX
  5
57A
330
572
100
AcDbEntity
  8
Layer 1
 62
     7
420
 16777215
370
    35
100
AcDbVertex
100
AcDb2dVertex
 10
101.2187529315985
 20
170.539868519265
 30
0.0
  0
VERTEX
  5
57B
330
572
100
AcDbEntity
  8
Layer 1
 62
     7
420
 16777215
370
    35
100
AcDbVertex
100
AcDb2dVertex
 10
101.7096205814072
 20
170.4785129888179
 30
0.0
  0
VERTEX
  5
57C
330
572
100
AcDbEntity
  8
Layer 1
 62
     7
420
 16777215
370
    35
100
AcDbVertex
100
AcDb2dVertex
 10
102.1391248986912
 20
170.4171574583701
 30
0.0
  0
VERTEX
  5
57D
330
572
100
AcDbEntity
  8
Layer 1
 62
     7
420
 16777215
370
    35
100
AcDbVertex
100
AcDb2dVertex
 10
102.5072736855283
 20
170.3557863237695
 30
0.0
  0
VERTEX
  5
57E
330
572
100
AcDbEntity
  8
Layer 1
 62
     7
420
 16777215
370
    35
100
AcDbVertex
100
AcDb2dVertex
 10
102.9367780028123
 20
170.1717197324281
 30
0.0
  0
VERTEX
  5
57F
330
572
100
AcDbEntity
  8
Layer 1
 62
     7
420
 16777215
370
    35
100
AcDbVertex
100
AcDb2dVertex
 10
103.3049267896499
 20
169.9876375369323
 30
0.0
  0
VERTEX
  5
580
330
572
100
AcDbEntity
  8
Layer 1
 62
     7
420
 16777215
370
    35
100
AcDbVertex
100
AcDb2dVertex
 10
103.6730755764871
 20
169.7422154151435
 30
0.0
  0
VERTEX
  5
581
330
572
100
AcDbEntity
  8
Layer 1
 62
     7
420
 16777215
370
    35
100
AcDbVertex
100
AcDb2dVertex
 10
103.9798688328771
 20
169.4967776892009
 30
0.0
  0
VERTEX
  5
582
330
572
100
AcDbEntity
  8
Layer 1
 62
     7
420
 16777215
370
    35
100
AcDbVertex
100
AcDb2dVertex
 10
104.2866542871896
 20
169.1899844328111
 30
0.0
  0
VERTEX
  5
583
330
572
100
AcDbEntity
  8
Layer 1
 62
     7
420
 16777215
370
    35
100
AcDbVertex
100
AcDb2dVertex
 10
104.5934475435804
 20
168.8832067805745
 30
0.0
  0
VERTEX
  5
584
330
572
100
AcDbEntity
  8
Layer 1
 62
     7
420
 16777215
370
    35
100
AcDbVertex
100
AcDb2dVertex
 10
114.2266559276401
 20
156.9183790104438
 30
0.0
  0
VERTEX
  5
585
330
572
100
AcDbEntity
  8
Layer 1
 62
     7
420
 16777215
370
    35
100
AcDbVertex
100
AcDb2dVertex
 10
112.754060780292
 20
156.2434525713701
 30
0.0
  0
VERTEX
  5
586
330
572
100
AcDbEntity
  8
Layer 1
 62
     7
420
 16777215
370
    35
100
AcDbVertex
100
AcDb2dVertex
 10
111.2814734350192
 20
155.5685105281431
 30
0.0
  0
VERTEX
  5
587
330
572
100
AcDbEntity
  8
Layer 1
 62
     7
420
 16777215
370
    35
100
AcDbVertex
100
AcDb2dVertex
 10
109.7475227572226
 20
155.0162795458104
 30
0.0
  0
VERTEX
  5
588
330
572
100
AcDbEntity
  8
Layer 1
 62
     7
420
 16777215
370
    35
100
AcDbVertex
100
AcDb2dVertex
 10
108.9498696531017
 20
154.7708574240213
 30
0.0
  0
VERTEX
  5
589
330
572
100
AcDbEntity
  8
Layer 1
 62
     7
420
 16777215
370
    35
100
AcDbVertex
100
AcDb2dVertex
 10
108.2135720794273
 20
154.5867752285274
 30
0.0
  0
VERTEX
  5
58A
330
572
100
AcDbEntity
  8
Layer 1
 62
     7
420
 16777215
370
    35
100
AcDbVertex
100
AcDb2dVertex
 10
107.4159189753062
 20
154.3413531067366
 30
0.0
  0
VERTEX
  5
58B
330
572
100
AcDbEntity
  8
Layer 1
 62
     7
420
 16777215
370
    35
100
AcDbVertex
100
AcDb2dVertex
 10
106.5569025386612
 20
154.2186264416889
 30
0.0
  0
VERTEX
  5
58C
330
572
100
AcDbEntity
  8
Layer 1
 62
     7
420
 16777215
370
    35
100
AcDbVertex
100
AcDb2dVertex
 10
105.7592494345388
 20
154.0345598503469
 30
0.0
  0
VERTEX
  5
58D
330
572
100
AcDbEntity
  8
Layer 1
 62
     7
420
 16777215
370
    35
100
AcDbVertex
100
AcDb2dVertex
 10
104.9615963304173
 20
153.9118487894523
 30
0.0
  0
VERTEX
  5
58E
330
572
100
AcDbEntity
  8
Layer 1
 62
     7
420
 16777215
370
    35
100
AcDbVertex
100
AcDb2dVertex
 10
104.102579893772
 20
153.8504776548513
 30
0.0
  0
VERTEX
  5
58F
330
572
100
AcDbEntity
  8
Layer 1
 62
     7
420
 16777215
370
    35
100
AcDbVertex
100
AcDb2dVertex
 10
103.2435712592031
 20
153.7891221244042
 30
0.0
  0
VERTEX
  5
590
330
572
100
AcDbEntity
  8
Layer 1
 62
     7
420
 16777215
370
    35
100
AcDbVertex
100
AcDb2dVertex
 10
102.3845548225572
 20
153.7277665939577
 30
0.0
  0
VERTEX
  5
591
330
572
100
AcDbEntity
  8
Layer 1
 62
     7
420
 16777215
370
    35
100
AcDbVertex
100
AcDb2dVertex
 10
101.5255461879879
 20
153.7277665939577
 30
0.0
  0
VERTEX
  5
592
330
572
100
AcDbEntity
  8
Layer 1
 62
     7
420
 16777215
370
    35
100
AcDbVertex
100
AcDb2dVertex
 10
100.666529751343
 20
153.7277665939577
 30
0.0
  0
VERTEX
  5
593
330
572
100
AcDbEntity
  8
Layer 1
 62
     7
420
 16777215
370
    35
100
AcDbVertex
100
AcDb2dVertex
 10
99.86887664721988
 20
153.7891221244042
 30
0.0
  0
VERTEX
  5
594
330
572
100
AcDbEntity
  8
Layer 1
 62
     7
420
 16777215
370
    35
100
AcDbVertex
100
AcDb2dVertex
 10
99.0098680126522
 20
153.8504776548513
 30
0.0
  0
VERTEX
  5
595
330
572
100
AcDbEntity
  8
Layer 1
 62
     7
420
 16777215
370
    35
100
AcDbVertex
100
AcDb2dVertex
 10
98.15085157600633
 20
153.9732043198991
 30
0.0
  0
VERTEX
  5
596
330
572
100
AcDbEntity
  8
Layer 1
 62
     7
420
 16777215
370
    35
100
AcDbVertex
100
AcDb2dVertex
 10
97.3531984718845
 20
154.0345598503469
 30
0.0
  0
VERTEX
  5
597
330
572
100
AcDbEntity
  8
Layer 1
 62
     7
420
 16777215
370
    35
100
AcDbVertex
100
AcDb2dVertex
 10
96.49418983731586
 20
154.2186264416889
 30
0.0
  0
VERTEX
  5
598
330
572
100
AcDbEntity
  8
Layer 1
 62
     7
420
 16777215
370
    35
100
AcDbVertex
100
AcDb2dVertex
 10
95.69652893111775
 20
154.4027086371841
 30
0.0
  0
VERTEX
  5
599
330
572
100
AcDbEntity
  8
Layer 1
 62
     7
420
 16777215
370
    35
100
AcDbVertex
100
AcDb2dVertex
 10
94.89887582699559
 20
154.5867752285274
 30
0.0
  0
VERTEX
  5
59A
330
572
100
AcDbEntity
  8
Layer 1
 62
     7
420
 16777215
370
    35
100
AcDbVertex
100
AcDb2dVertex
 10
94.10122272287376
 20
154.7708574240213
 30
0.0
  0
VERTEX
  5
59B
330
572
100
AcDbEntity
  8
Layer 1
 62
     7
420
 16777215
370
    35
100
AcDbVertex
100
AcDb2dVertex
 10
93.30356961875225
 20
155.0162795458104
 30
0.0
  0
VERTEX
  5
59C
330
572
100
AcDbEntity
  8
Layer 1
 62
     7
420
 16777215
370
    35
100
AcDbVertex
100
AcDb2dVertex
 10
92.50591651463041
 20
155.3230728021998
 30
0.0
  0
VERTEX
  5
59D
330
572
100
AcDbEntity
  8
Layer 1
 62
     7
420
 16777215
370
    35
100
AcDbVertex
100
AcDb2dVertex
 10
91.76961894095666
 20
155.5685105281431
 30
0.0
  0
VERTEX
  5
59E
330
572
100
AcDbEntity
  8
Layer 1
 62
     7
420
 16777215
370
    35
100
AcDbVertex
100
AcDb2dVertex
 10
90.29702379360819
 20
156.2434525713701
 30
0.0
  0
VERTEX
  5
59F
330
572
100
AcDbEntity
  8
Layer 1
 62
     7
420
 16777215
370
    35
100
AcDbVertex
100
AcDb2dVertex
 10
88.82443644833631
 20
156.9797501450438
 30
0.0
  0
VERTEX
  5
5A0
330
572
100
AcDbEntity
  8
Layer 1
 62
     7
420
 16777215
370
    35
100
AcDbVertex
100
AcDb2dVertex
 10
98.39628930194769
 20
169.2513555674114
 30
0.0
  0
SEQEND
  5
5A1
330
572
100
AcDbEntity
  8
Layer 1
 62
     7
420
 16777215
370
    35
  0
POLYLINE
  5
5A2
330
1F
100
AcDbEntity
  8
Layer 1
 62
     7
420
 16777215
370
    35
100
AcDb2dPolyline
 66
     1
 10
0.0
 20
0.0
 30
0.0
  0
VERTEX
  5
5A3
330
5A2
100
AcDbEntity
  8
Layer 1
 62
     7
420
 16777215
370
    35
100
AcDbVertex
100
AcDb2dVertex
 10
127.4799966496241
 20
185.1430777235503
 30
0.0
  0
VERTEX
  5
5A4
330
5A2
100
AcDbEntity
  8
Layer 1
 62
     7
420
 16777215
370
    35
100
AcDbVertex
100
AcDb2dVertex
 10
127.4799966496241
 20
185.1430777235503
 30
0.0
  0
VERTEX
  5
5A5
330
5A2
100
AcDbEntity
  8
Layer 1
 62
     7
420
 16777215
370
    35
100
AcDbVertex
100
AcDb2dVertex
 10
127.7254187714132
 20
183.9159046979897
 30
0.0
  0
VERTEX
  5
5A6
330
5A2
100
AcDbEntity
  8
Layer 1
 62
     7
420
 16777215
370
    35
100
AcDbVertex
100
AcDb2dVertex
 10
127.8481298323088
 20
182.6887472765842
 30
0.0
  0
VERTEX
  5
5A7
330
5A2
100
AcDbEntity
  8
Layer 1
 62
     7
420
 16777215
370
    35
100
AcDbVertex
100
AcDb2dVertex
 10
127.9708564973556
 20
181.4002343247303
 30
0.0
  0
VERTEX
  5
5A8
330
5A2
100
AcDbEntity
  8
Layer 1
 62
     7
420
 16777215
370
    35
100
AcDbVertex
100
AcDb2dVertex
 10
127.9708564973556
 20
180.1730769033251
 30
0.0
  0
VERTEX
  5
5A9
330
5A2
100
AcDbEntity
  8
Layer 1
 62
     7
420
 16777215
370
    35
100
AcDbVertex
100
AcDb2dVertex
 10
127.9095009669091
 20
178.7618372864234
 30
0.0
  0
VERTEX
  5
5AA
330
5A2
100
AcDbEntity
  8
Layer 1
 62
     7
420
 16777215
370
    35
100
AcDbVertex
100
AcDb2dVertex
 10
127.8481298323088
 20
177.3505976695227
 30
0.0
  0
VERTEX
  5
5AB
330
5A2
100
AcDbEntity
  8
Layer 1
 62
     7
420
 16777215
370
    35
100
AcDbVertex
100
AcDb2dVertex
 10
127.6640632409668
 20
176.0007291872217
 30
0.0
  0
VERTEX
  5
5AC
330
5A2
100
AcDbEntity
  8
Layer 1
 62
     7
420
 16777215
370
    35
100
AcDbVertex
100
AcDb2dVertex
 10
127.4186255150232
 20
174.6508451007678
 30
0.0
  0
VERTEX
  5
5AD
330
5A2
100
AcDbEntity
  8
Layer 1
 62
     7
420
 16777215
370
    35
100
AcDbVertex
100
AcDb2dVertex
 10
127.1118478627869
 20
173.300976618467
 30
0.0
  0
VERTEX
  5
5AE
330
5A2
100
AcDbEntity
  8
Layer 1
 62
     7
420
 16777215
370
    35
100
AcDbVertex
100
AcDb2dVertex
 10
126.6823279413501
 20
172.0124480624596
 30
0.0
  0
VERTEX
  5
5AF
330
5A2
100
AcDbEntity
  8
Layer 1
 62
     7
420
 16777215
370
    35
100
AcDbVertex
100
AcDb2dVertex
 10
126.2528236240645
 20
170.7852906410544
 30
0.0
  0
VERTEX
  5
5B0
330
5A2
100
AcDbEntity
  8
Layer 1
 62
     7
420
 16777215
370
    35
100
AcDbVertex
100
AcDb2dVertex
 10
125.761963776333
 20
169.4967776892009
 30
0.0
  0
VERTEX
  5
5B1
330
5A2
100
AcDbEntity
  8
Layer 1
 62
     7
420
 16777215
370
    35
100
AcDbVertex
100
AcDb2dVertex
 10
125.2097483981545
 20
168.3309757982425
 30
0.0
  0
VERTEX
  5
5B2
330
5A2
100
AcDbEntity
  8
Layer 1
 62
     7
420
 16777215
370
    35
100
AcDbVertex
100
AcDb2dVertex
 10
124.5961618853743
 20
167.1651739072834
 30
0.0
  0
VERTEX
  5
5B3
330
5A2
100
AcDbEntity
  8
Layer 1
 62
     7
420
 16777215
370
    35
100
AcDbVertex
100
AcDb2dVertex
 10
123.8598643116999
 20
165.9993720163244
 30
0.0
  0
VERTEX
  5
5B4
330
5A2
100
AcDbEntity
  8
Layer 1
 62
     7
420
 16777215
370
    35
100
AcDbVertex
100
AcDb2dVertex
 10
123.1849222684733
 20
164.9562811862609
 30
0.0
  0
VERTEX
  5
5B5
330
5A2
100
AcDbEntity
  8
Layer 1
 62
     7
420
 16777215
370
    35
100
AcDbVertex
100
AcDb2dVertex
 10
122.3872691643511
 20
163.8518348257496
 30
0.0
  0
VERTEX
  5
5B6
330
5A2
100
AcDbEntity
  8
Layer 1
 62
     7
420
 16777215
370
    35
100
AcDbVertex
100
AcDb2dVertex
 10
121.5282605297825
 20
162.8700995261323
 30
0.0
  0
VERTEX
  5
5B7
330
5A2
100
AcDbEntity
  8
Layer 1
 62
     7
420
 16777215
370
    35
100
AcDbVertex
100
AcDb2dVertex
 10
120.6692518952132
 20
161.8883798306684
 30
0.0
  0
VERTEX
  5
5B8
330
5A2
100
AcDbEntity
  8
Layer 1
 62
     7
420
 16777215
370
    35
100
AcDbVertex
100
AcDb2dVertex
 10
119.748872126043
 20
160.9680000614991
 30
0.0
  0
VERTEX
  5
5B9
330
5A2
100
AcDbEntity
  8
Layer 1
 62
     7
420
 16777215
370
    35
100
AcDbVertex
100
AcDb2dVertex
 10
111.0360435111534
 20
173.7304809357514
 30
0.0
  0
VERTEX
  5
5BA
330
5A2
100
AcDbEntity
  8
Layer 1
 62
     7
420
 16777215
370
    35
100
AcDbVertex
100
AcDb2dVertex
 10
110.8519691177342
 20
174.159985253036
 30
0.0
  0
VERTEX
  5
5BB
330
5A2
100
AcDbEntity
  8
Layer 1
 62
     7
420
 16777215
370
    35
100
AcDbVertex
100
AcDb2dVertex
 10
110.6678947243175
 20
174.5894895703206
 30
0.0
  0
VERTEX
  5
5BC
330
5A2
100
AcDbEntity
  8
Layer 1
 62
     7
420
 16777215
370
    35
100
AcDbVertex
100
AcDb2dVertex
 10
110.5451758613454
 20
175.0189938876056
 30
0.0
  0
VERTEX
  5
5BD
330
5A2
100
AcDbEntity
  8
Layer 1
 62
     7
420
 16777215
370
    35
100
AcDbVertex
100
AcDb2dVertex
 10
110.4838203308989
 20
175.4484982048896
 30
0.0
  0
VERTEX
  5
5BE
330
5A2
100
AcDbEntity
  8
Layer 1
 62
     7
420
 16777215
370
    35
100
AcDbVertex
100
AcDb2dVertex
 10
110.4838203308989
 20
175.9393736567746
 30
0.0
  0
VERTEX
  5
5BF
330
5A2
100
AcDbEntity
  8
Layer 1
 62
     7
420
 16777215
370
    35
100
AcDbVertex
100
AcDb2dVertex
 10
110.5451758613454
 20
176.3688779740589
 30
0.0
  0
VERTEX
  5
5C0
330
5A2
100
AcDbEntity
  8
Layer 1
 62
     7
420
 16777215
370
    35
100
AcDbVertex
100
AcDb2dVertex
 10
110.6065391938685
 20
176.7983822913432
 30
0.0
  0
VERTEX
  5
5C1
330
5A2
100
AcDbEntity
  8
Layer 1
 62
     7
420
 16777215
370
    35
100
AcDbVertex
100
AcDb2dVertex
 10
110.7906057852111
 20
177.2278866086282
 30
0.0
  0
VERTEX
  5
5C2
330
5A2
100
AcDbEntity
  8
Layer 1
 62
     7
420
 16777215
370
    35
100
AcDbVertex
100
AcDb2dVertex
 10
110.9133246481832
 20
177.6573909259125
 30
0.0
  0
VERTEX
  5
5C3
330
5A2
100
AcDbEntity
  8
Layer 1
 62
     7
420
 16777215
370
    35
100
AcDbVertex
100
AcDb2dVertex
 10
111.158754572049
 20
178.02553971275
 30
0.0
  0
VERTEX
  5
5C4
330
5A2
100
AcDbEntity
  8
Layer 1
 62
     7
420
 16777215
370
    35
100
AcDbVertex
100
AcDb2dVertex
 10
111.4041922979906
 20
178.3323329691394
 30
0.0
  0
VERTEX
  5
5C5
330
5A2
100
AcDbEntity
  8
Layer 1
 62
     7
420
 16777215
370
    35
100
AcDbVertex
100
AcDb2dVertex
 10
111.7109777523041
 20
178.6391262255292
 30
0.0
  0
VERTEX
  5
5C6
330
5A2
100
AcDbEntity
  8
Layer 1
 62
     7
420
 16777215
370
    35
100
AcDbVertex
100
AcDb2dVertex
 10
112.0177710086948
 20
178.9459038777651
 30
0.0
  0
VERTEX
  5
5C7
330
5A2
100
AcDbEntity
  8
Layer 1
 62
     7
420
 16777215
370
    35
100
AcDbVertex
100
AcDb2dVertex
 10
112.3859197955308
 20
179.1913416037081
 30
0.0
  0
VERTEX
  5
5C8
330
5A2
100
AcDbEntity
  8
Layer 1
 62
     7
420
 16777215
370
    35
100
AcDbVertex
100
AcDb2dVertex
 10
112.7540685823667
 20
179.375408195051
 30
0.0
  0
VERTEX
  5
5C9
330
5A2
100
AcDbEntity
  8
Layer 1
 62
     7
420
 16777215
370
    35
100
AcDbVertex
100
AcDb2dVertex
 10
113.1222173692051
 20
179.5594903905452
 30
0.0
  0
VERTEX
  5
5CA
330
5A2
100
AcDbEntity
  8
Layer 1
 62
     7
420
 16777215
370
    35
100
AcDbVertex
100
AcDb2dVertex
 10
127.4799966496241
 20
185.1430777235503
 30
0.0
  0
SEQEND
  5
5CB
330
5A2
100
AcDbEntity
  8
Layer 1
 62
     7
420
 16777215
370
    35
  0
POLYLINE
  5
5CC
330
1F
100
AcDbEntity
  8
Layer 1
 62
     7
420
 16777215
370
    35
100
AcDb2dPolyline
 66
     1
 10
0.0
 20
0.0
 30
0.0
  0
VERTEX
  5
5CD
330
5CC
100
AcDbEntity
  8
Layer 1
 62
     7
420
 16777215
370
    35
100
AcDbVertex
100
AcDb2dVertex
 10
105.5255524663342
 20
180.1730753805944
 30
0.0
  0
VERTEX
  5
5CE
330
5CC
100
AcDbEntity
  8
Layer 1
 62
     7
420
 16777215
370
    35
100
AcDbVertex
100
AcDb2dVertex
 10
105.5255524663342
 20
179.7780040394724
 30
0.0
  0
VERTEX
  5
5CF
330
5CC
100
AcDbEntity
  8
Layer 1
 62
     7
420
 16777215
370
    35
100
AcDbVertex
100
AcDb2dVertex
 10
105.4267846310543
 20
179.3829452570416
 30
0.0
  0
VERTEX
  5
5D0
330
5CC
100
AcDbEntity
  8
Layer 1
 62
     7
420
 16777215
370
    35
100
AcDbVertex
100
AcDb2dVertex
 10
105.3280167957734
 20
178.9878864746112
 30
0.0
  0
VERTEX
  5
5D1
330
5CC
100
AcDbEntity
  8
Layer 1
 62
     7
420
 16777215
370
    35
100
AcDbVertex
100
AcDb2dVertex
 10
105.2292552398384
 20
178.5928151334891
 30
0.0
  0
VERTEX
  5
5D2
330
5CC
100
AcDbEntity
  8
Layer 1
 62
     7
420
 16777215
370
    35
100
AcDbVertex
100
AcDb2dVertex
 10
105.0317195692776
 20
178.247137129026
 30
0.0
  0
VERTEX
  5
5D3
330
5CC
100
AcDbEntity
  8
Layer 1
 62
     7
420
 16777215
370
    35
100
AcDbVertex
100
AcDb2dVertex
 10
104.834190178063
 20
177.9508399025305
 30
0.0
  0
VERTEX
  5
5D4
330
5CC
100
AcDbEntity
  8
Layer 1
 62
     7
420
 16777215
370
    35
100
AcDbVertex
100
AcDb2dVertex
 10
104.6366607868471
 20
177.6051618980667
 30
0.0
  0
VERTEX
  5
5D5
330
5CC
100
AcDbEntity
  8
Layer 1
 62
     7
420
 16777215
370
    35
100
AcDbVertex
100
AcDb2dVertex
 10
104.3403635603516
 20
177.3582454495382
 30
0.0
  0
VERTEX
  5
5D6
330
5CC
100
AcDbEntity
  8
Layer 1
 62
     7
420
 16777215
370
    35
100
AcDbVertex
100
AcDb2dVertex
 10
104.0934471118225
 20
177.061948223043
 30
0.0
  0
VERTEX
  5
5D7
330
5CC
100
AcDbEntity
  8
Layer 1
 62
     7
420
 16777215
370
    35
100
AcDbVertex
100
AcDb2dVertex
 10
103.7477691073596
 20
176.8644251111744
 30
0.0
  0
VERTEX
  5
5D8
330
5CC
100
AcDbEntity
  8
Layer 1
 62
     7
420
 16777215
370
    35
100
AcDbVertex
100
AcDb2dVertex
 10
103.4514718808648
 20
176.6668894406132
 30
0.0
  0
VERTEX
  5
5D9
330
5CC
100
AcDbEntity
  8
Layer 1
 62
     7
420
 16777215
370
    35
100
AcDbVertex
100
AcDb2dVertex
 10
103.1057938764016
 20
176.4693663287436
 30
0.0
  0
VERTEX
  5
5DA
330
5CC
100
AcDbEntity
  8
Layer 1
 62
     7
420
 16777215
370
    35
100
AcDbVertex
100
AcDb2dVertex
 10
102.7107288146249
 20
176.3212114361501
 30
0.0
  0
VERTEX
  5
5DB
330
5CC
100
AcDbEntity
  8
Layer 1
 62
     7
420
 16777215
370
    35
100
AcDbVertex
100
AcDb2dVertex
 10
102.3156700321948
 20
176.2224498802151
 30
0.0
  0
VERTEX
  5
5DC
330
5CC
100
AcDbEntity
  8
Layer 1
 62
     7
420
 16777215
370
    35
100
AcDbVertex
100
AcDb2dVertex
 10
101.9206049704187
 20
176.1730691022484
 30
0.0
  0
VERTEX
  5
5DD
330
5CC
100
AcDbEntity
  8
Layer 1
 62
     7
420
 16777215
370
    35
100
AcDbVertex
100
AcDb2dVertex
 10
101.5255461879879
 20
176.1730691022484
 30
0.0
  0
VERTEX
  5
5DE
330
5CC
100
AcDbEntity
  8
Layer 1
 62
     7
420
 16777215
370
    35
100
AcDbVertex
100
AcDb2dVertex
 10
101.1304811262125
 20
176.1730691022484
 30
0.0
  0
VERTEX
  5
5DF
330
5CC
100
AcDbEntity
  8
Layer 1
 62
     7
420
 16777215
370
    35
100
AcDbVertex
100
AcDb2dVertex
 10
100.7354160644354
 20
176.2224498802151
 30
0.0
  0
VERTEX
  5
5E0
330
5CC
100
AcDbEntity
  8
Layer 1
 62
     7
420
 16777215
370
    35
100
AcDbVertex
100
AcDb2dVertex
 10
100.340357282005
 20
176.3212114361501
 30
0.0
  0
VERTEX
  5
5E1
330
5CC
100
AcDbEntity
  8
Layer 1
 62
     7
420
 16777215
370
    35
100
AcDbVertex
100
AcDb2dVertex
 10
99.94529222022886
 20
176.4693663287436
 30
0.0
  0
VERTEX
  5
5E2
330
5CC
100
AcDbEntity
  8
Layer 1
 62
     7
420
 16777215
370
    35
100
AcDbVertex
100
AcDb2dVertex
 10
99.59961421576637
 20
176.6668894406132
 30
0.0
  0
VERTEX
  5
5E3
330
5CC
100
AcDbEntity
  8
Layer 1
 62
     7
420
 16777215
370
    35
100
AcDbVertex
100
AcDb2dVertex
 10
99.25393621130291
 20
176.8644251111744
 30
0.0
  0
VERTEX
  5
5E4
330
5CC
100
AcDbEntity
  8
Layer 1
 62
     7
420
 16777215
370
    35
100
AcDbVertex
100
AcDb2dVertex
 10
98.95763898480709
 20
177.061948223043
 30
0.0
  0
VERTEX
  5
5E5
330
5CC
100
AcDbEntity
  8
Layer 1
 62
     7
420
 16777215
370
    35
100
AcDbVertex
100
AcDb2dVertex
 10
98.6613417583116
 20
177.3582454495382
 30
0.0
  0
VERTEX
  5
5E6
330
5CC
100
AcDbEntity
  8
Layer 1
 62
     7
420
 16777215
370
    35
100
AcDbVertex
100
AcDb2dVertex
 10
98.4144253097831
 20
177.6051618980667
 30
0.0
  0
VERTEX
  5
5E7
330
5CC
100
AcDbEntity
  8
Layer 1
 62
     7
420
 16777215
370
    35
100
AcDbVertex
100
AcDb2dVertex
 10
98.21689591856786
 20
177.9508399025305
 30
0.0
  0
VERTEX
  5
5E8
330
5CC
100
AcDbEntity
  8
Layer 1
 62
     7
420
 16777215
370
    35
100
AcDbVertex
100
AcDb2dVertex
 10
97.96998574938596
 20
178.247137129026
 30
0.0
  0
VERTEX
  5
5E9
330
5CC
100
AcDbEntity
  8
Layer 1
 62
     7
420
 16777215
370
    35
100
AcDbVertex
100
AcDb2dVertex
 10
97.82183713613837
 20
178.5928151334891
 30
0.0
  0
VERTEX
  5
5EA
330
5CC
100
AcDbEntity
  8
Layer 1
 62
     7
420
 16777215
370
    35
100
AcDbVertex
100
AcDb2dVertex
 10
97.67368852288949
 20
178.9878864746112
 30
0.0
  0
VERTEX
  5
5EB
330
5CC
100
AcDbEntity
  8
Layer 1
 62
     7
420
 16777215
370
    35
100
AcDbVertex
100
AcDb2dVertex
 10
97.57492068760891
 20
179.3829452570416
 30
0.0
  0
VERTEX
  5
5EC
330
5CC
100
AcDbEntity
  8
Layer 1
 62
     7
420
 16777215
370
    35
100
AcDbVertex
100
AcDb2dVertex
 10
97.52553990964223
 20
179.7780040394724
 30
0.0
  0
VERTEX
  5
5ED
330
5CC
100
AcDbEntity
  8
Layer 1
 62
     7
420
 16777215
370
    35
100
AcDbVertex
100
AcDb2dVertex
 10
97.52553990964223
 20
180.1730753805944
 30
0.0
  0
VERTEX
  5
5EE
330
5CC
100
AcDbEntity
  8
Layer 1
 62
     7
420
 16777215
370
    35
100
AcDbVertex
100
AcDb2dVertex
 10
97.52553990964223
 20
180.5681341630249
 30
0.0
  0
VERTEX
  5
5EF
330
5CC
100
AcDbEntity
  8
Layer 1
 62
     7
420
 16777215
370
    35
100
AcDbVertex
100
AcDb2dVertex
 10
97.57492068760891
 20
180.9631929454553
 30
0.0
  0
VERTEX
  5
5F0
330
5CC
100
AcDbEntity
  8
Layer 1
 62
     7
420
 16777215
370
    35
100
AcDbVertex
100
AcDb2dVertex
 10
97.67368852288949
 20
181.3582517278865
 30
0.0
  0
VERTEX
  5
5F1
330
5CC
100
AcDbEntity
  8
Layer 1
 62
     7
420
 16777215
370
    35
100
AcDbVertex
100
AcDb2dVertex
 10
97.82183713613837
 20
181.7533230690078
 30
0.0
  0
VERTEX
  5
5F2
330
5CC
100
AcDbEntity
  8
Layer 1
 62
     7
420
 16777215
370
    35
100
AcDbVertex
100
AcDb2dVertex
 10
97.96998574938596
 20
182.0990010734704
 30
0.0
  0
VERTEX
  5
5F3
330
5CC
100
AcDbEntity
  8
Layer 1
 62
     7
420
 16777215
370
    35
100
AcDbVertex
100
AcDb2dVertex
 10
98.21689591856786
 20
182.3952982999658
 30
0.0
  0
VERTEX
  5
5F4
330
5CC
100
AcDbEntity
  8
Layer 1
 62
     7
420
 16777215
370
    35
100
AcDbVertex
100
AcDb2dVertex
 10
98.4144253097831
 20
182.7409763044296
 30
0.0
  0
VERTEX
  5
5F5
330
5CC
100
AcDbEntity
  8
Layer 1
 62
     7
420
 16777215
370
    35
100
AcDbVertex
100
AcDb2dVertex
 10
98.6613417583116
 20
182.9878927529578
 30
0.0
  0
VERTEX
  5
5F6
330
5CC
100
AcDbEntity
  8
Layer 1
 62
     7
420
 16777215
370
    35
100
AcDbVertex
100
AcDb2dVertex
 10
98.95763898480709
 20
183.2841899794539
 30
0.0
  0
VERTEX
  5
5F7
330
5CC
100
AcDbEntity
  8
Layer 1
 62
     7
420
 16777215
370
    35
100
AcDbVertex
100
AcDb2dVertex
 10
99.25393621130291
 20
183.4817130913229
 30
0.0
  0
VERTEX
  5
5F8
330
5CC
100
AcDbEntity
  8
Layer 1
 62
     7
420
 16777215
370
    35
100
AcDbVertex
100
AcDb2dVertex
 10
99.59961421576637
 20
183.6792487618844
 30
0.0
  0
VERTEX
  5
5F9
330
5CC
100
AcDbEntity
  8
Layer 1
 62
     7
420
 16777215
370
    35
100
AcDbVertex
100
AcDb2dVertex
 10
99.94529222022886
 20
183.8767844324456
 30
0.0
  0
VERTEX
  5
5FA
330
5CC
100
AcDbEntity
  8
Layer 1
 62
     7
420
 16777215
370
    35
100
AcDbVertex
100
AcDb2dVertex
 10
100.340357282005
 20
184.0249267663463
 30
0.0
  0
VERTEX
  5
5FB
330
5CC
100
AcDbEntity
  8
Layer 1
 62
     7
420
 16777215
370
    35
100
AcDbVertex
100
AcDb2dVertex
 10
100.7354160644354
 20
184.1236883222819
 30
0.0
  0
VERTEX
  5
5FC
330
5CC
100
AcDbEntity
  8
Layer 1
 62
     7
420
 16777215
370
    35
100
AcDbVertex
100
AcDb2dVertex
 10
101.1304811262125
 20
184.1730691002485
 30
0.0
  0
VERTEX
  5
5FD
330
5CC
100
AcDbEntity
  8
Layer 1
 62
     7
420
 16777215
370
    35
100
AcDbVertex
100
AcDb2dVertex
 10
101.5255461879879
 20
184.1730691002485
 30
0.0
  0
VERTEX
  5
5FE
330
5CC
100
AcDbEntity
  8
Layer 1
 62
     7
420
 16777215
370
    35
100
AcDbVertex
100
AcDb2dVertex
 10
101.9206049704187
 20
184.1730691002485
 30
0.0
  0
VERTEX
  5
5FF
330
5CC
100
AcDbEntity
  8
Layer 1
 62
     7
420
 16777215
370
    35
100
AcDbVertex
100
AcDb2dVertex
 10
102.3156700321948
 20
184.1236883222819
 30
0.0
  0
VERTEX
  5
600
330
5CC
100
AcDbEntity
  8
Layer 1
 62
     7
420
 16777215
370
    35
100
AcDbVertex
100
AcDb2dVertex
 10
102.7107288146249
 20
184.0249267663463
 30
0.0
  0
VERTEX
  5
601
330
5CC
100
AcDbEntity
  8
Layer 1
 62
     7
420
 16777215
370
    35
100
AcDbVertex
100
AcDb2dVertex
 10
103.1057938764016
 20
183.8767844324456
 30
0.0
  0
VERTEX
  5
602
330
5CC
100
AcDbEntity
  8
Layer 1
 62
     7
420
 16777215
370
    35
100
AcDbVertex
100
AcDb2dVertex
 10
103.4514718808648
 20
183.6792487618844
 30
0.0
  0
VERTEX
  5
603
330
5CC
100
AcDbEntity
  8
Layer 1
 62
     7
420
 16777215
370
    35
100
AcDbVertex
100
AcDb2dVertex
 10
103.7477691073596
 20
183.4817130913229
 30
0.0
  0
VERTEX
  5
604
330
5CC
100
AcDbEntity
  8
Layer 1
 62
     7
420
 16777215
370
    35
100
AcDbVertex
100
AcDb2dVertex
 10
104.0934471118225
 20
183.2841899794539
 30
0.0
  0
VERTEX
  5
605
330
5CC
100
AcDbEntity
  8
Layer 1
 62
     7
420
 16777215
370
    35
100
AcDbVertex
100
AcDb2dVertex
 10
104.3403635603516
 20
182.9878927529578
 30
0.0
  0
VERTEX
  5
606
330
5CC
100
AcDbEntity
  8
Layer 1
 62
     7
420
 16777215
370
    35
100
AcDbVertex
100
AcDb2dVertex
 10
104.6366607868471
 20
182.7409763044296
 30
0.0
  0
VERTEX
  5
607
330
5CC
100
AcDbEntity
  8
Layer 1
 62
     7
420
 16777215
370
    35
100
AcDbVertex
100
AcDb2dVertex
 10
104.834190178063
 20
182.3952982999658
 30
0.0
  0
VERTEX
  5
608
330
5CC
100
AcDbEntity
  8
Layer 1
 62
     7
420
 16777215
370
    35
100
AcDbVertex
100
AcDb2dVertex
 10
105.0317195692776
 20
182.0990010734704
 30
0.0
  0
VERTEX
  5
609
330
5CC
100
AcDbEntity
  8
Layer 1
 62
     7
420
 16777215
370
    35
100
AcDbVertex
100
AcDb2dVertex
 10
105.2292552398384
 20
181.7533230690078
 30
0.0
  0
VERTEX
  5
60A
330
5CC
100
AcDbEntity
  8
Layer 1
 62
     7
420
 16777215
370
    35
100
AcDbVertex
100
AcDb2dVertex
 10
105.3280167957734
 20
181.3582517278865
 30
0.0
  0
VERTEX
  5
60B
330
5CC
100
AcDbEntity
  8
Layer 1
 62
     7
420
 16777215
370
    35
100
AcDbVertex
100
AcDb2dVertex
 10
105.4267846310543
 20
180.9631929454553
 30
0.0
  0
VERTEX
  5
60C
330
5CC
100
AcDbEntity
  8
Layer 1
 62
     7
420
 16777215
370
    35
100
AcDbVertex
100
AcDb2dVertex
 10
105.5255524663342
 20
180.5681341630249
 30
0.0
  0
VERTEX
  5
60D
330
5CC
100
AcDbEntity
  8
Layer 1
 62
     7
420
 16777215
370
    35
100
AcDbVertex
100
AcDb2dVertex
 10
105.5255524663342
 20
180.1730753805944
 30
0.0
  0
SEQEND
  5
60E
330
5CC
100
AcDbEntity
  8
Layer 1
 62
     7
420
 16777215
370
    35
  0
POLYLINE
  5
60F
330
1F
100
AcDbEntity
  8
Layer 1
 62
     7
420
 16777215
370
    35
100
AcDb2dPolyline
 66
     1
 10
0.0
 20
0.0
 30
0.0
  0
VERTEX
  5
610
330
60F
100
AcDbEntity
  8
Layer 1
 62
     7
420
 16777215
370
    35
100
AcDbVertex
100
AcDb2dVertex
 10
131.4682621702317
 20
180.1730769033251
 30
0.0
  0
VERTEX
  5
611
330
60F
100
AcDbEntity
  8
Layer 1
 62
     7
420
 16777215
370
    35
100
AcDbVertex
100
AcDb2dVertex
 10
131.4068910356314
 20
178.5777550909289
 30
0.0
  0
VERTEX
  5
612
330
60F
100
AcDbEntity
  8
Layer 1
 62
     7
420
 16777215
370
    35
100
AcDbVertex
100
AcDb2dVertex
 10
131.2841799747372
 20
177.1051755477333
 30
0.0
  0
VERTEX
  5
613
330
60F
100
AcDbEntity
  8
Layer 1
 62
     7
420
 16777215
370
    35
100
AcDbVertex
100
AcDb2dVertex
 10
131.1001133833964
 20
175.5712248699367
 30
0.0
  0
VERTEX
  5
614
330
60F
100
AcDbEntity
  8
Layer 1
 62
     7
420
 16777215
370
    35
100
AcDbVertex
100
AcDb2dVertex
 10
130.8546756574522
 20
174.0986297225889
 30
0.0
  0
VERTEX
  5
615
330
60F
100
AcDbEntity
  8
Layer 1
 62
     7
420
 16777215
370
    35
100
AcDbVertex
100
AcDb2dVertex
 10
130.5478824010621
 20
172.6873901056869
 30
0.0
  0
VERTEX
  5
616
330
60F
100
AcDbEntity
  8
Layer 1
 62
     7
420
 16777215
370
    35
100
AcDbVertex
100
AcDb2dVertex
 10
130.1183780837778
 20
171.2761504887856
 30
0.0
  0
VERTEX
  5
617
330
60F
100
AcDbEntity
  8
Layer 1
 62
     7
420
 16777215
370
    35
100
AcDbVertex
100
AcDb2dVertex
 10
129.6275182360476
 20
169.8649264760377
 30
0.0
  0
VERTEX
  5
618
330
60F
100
AcDbEntity
  8
Layer 1
 62
     7
420
 16777215
370
    35
100
AcDbVertex
100
AcDb2dVertex
 10
129.1366427841604
 20
168.5150423895838
 30
0.0
  0
VERTEX
  5
619
330
60F
100
AcDbEntity
  8
Layer 1
 62
     7
420
 16777215
370
    35
100
AcDbVertex
100
AcDb2dVertex
 10
128.5230718755361
 20
167.1651739072834
 30
0.0
  0
VERTEX
  5
61A
330
60F
100
AcDbEntity
  8
Layer 1
 62
     7
420
 16777215
370
    35
100
AcDbVertex
100
AcDb2dVertex
 10
127.8481298323088
 20
165.8766453512766
 30
0.0
  0
VERTEX
  5
61B
330
60F
100
AcDbEntity
  8
Layer 1
 62
     7
420
 16777215
370
    35
100
AcDbVertex
100
AcDb2dVertex
 10
127.1118322586337
 20
164.6494879298711
 30
0.0
  0
VERTEX
  5
61C
330
60F
100
AcDbEntity
  8
Layer 1
 62
     7
420
 16777215
370
    35
100
AcDbVertex
100
AcDb2dVertex
 10
126.3755346849606
 20
163.4223305084647
 30
0.0
  0
VERTEX
  5
61D
330
60F
100
AcDbEntity
  8
Layer 1
 62
     7
420
 16777215
370
    35
100
AcDbVertex
100
AcDb2dVertex
 10
125.5165260503907
 20
162.2565286175059
 30
0.0
  0
VERTEX
  5
61E
330
60F
100
AcDbEntity
  8
Layer 1
 62
     7
420
 16777215
370
    35
100
AcDbVertex
100
AcDb2dVertex
 10
124.6575174158227
 20
161.0907267265469
 30
0.0
  0
VERTEX
  5
61F
330
60F
100
AcDbEntity
  8
Layer 1
 62
     7
420
 16777215
370
    35
100
AcDbVertex
100
AcDb2dVertex
 10
123.6757821162047
 20
160.0476358964834
 30
0.0
  0
VERTEX
  5
620
330
60F
100
AcDbEntity
  8
Layer 1
 62
     7
420
 16777215
370
    35
100
AcDbVertex
100
AcDb2dVertex
 10
122.6940624207418
 20
159.0045450664186
 30
0.0
  0
VERTEX
  5
621
330
60F
100
AcDbEntity
  8
Layer 1
 62
     7
420
 16777215
370
    35
100
AcDbVertex
100
AcDb2dVertex
 10
121.6509715906774
 20
158.0228253709554
 30
0.0
  0
VERTEX
  5
622
330
60F
100
AcDbEntity
  8
Layer 1
 62
     7
420
 16777215
370
    35
100
AcDbVertex
100
AcDb2dVertex
 10
120.6078807606129
 20
157.0410900713384
 30
0.0
  0
VERTEX
  5
623
330
60F
100
AcDbEntity
  8
Layer 1
 62
     7
420
 16777215
370
    35
100
AcDbVertex
100
AcDb2dVertex
 10
119.4420788696542
 20
156.1820814367691
 30
0.0
  0
VERTEX
  5
624
330
60F
100
AcDbEntity
  8
Layer 1
 62
     7
420
 16777215
370
    35
100
AcDbVertex
100
AcDb2dVertex
 10
118.2762769786942
 20
155.3230728021998
 30
0.0
  0
VERTEX
  5
625
330
60F
100
AcDbEntity
  8
Layer 1
 62
     7
420
 16777215
370
    35
100
AcDbVertex
100
AcDb2dVertex
 10
117.049119557289
 20
154.5867752285274
 30
0.0
  0
VERTEX
  5
626
330
60F
100
AcDbEntity
  8
Layer 1
 62
     7
420
 16777215
370
    35
100
AcDbVertex
100
AcDb2dVertex
 10
115.8219621358825
 20
153.8504776548513
 30
0.0
  0
VERTEX
  5
627
330
60F
100
AcDbEntity
  8
Layer 1
 62
     7
420
 16777215
370
    35
100
AcDbVertex
100
AcDb2dVertex
 10
114.533441381953
 20
153.1755356116238
 30
0.0
  0
VERTEX
  5
628
330
60F
100
AcDbEntity
  8
Layer 1
 62
     7
420
 16777215
370
    35
100
AcDbVertex
100
AcDb2dVertex
 10
113.1835650975763
 20
152.5619647029981
 30
0.0
  0
VERTEX
  5
629
330
60F
100
AcDbEntity
  8
Layer 1
 62
     7
420
 16777215
370
    35
100
AcDbVertex
100
AcDb2dVertex
 10
111.8336888131984
 20
152.0710892511128
 30
0.0
  0
VERTEX
  5
62A
330
60F
100
AcDbEntity
  8
Layer 1
 62
     7
420
 16777215
370
    35
100
AcDbVertex
100
AcDb2dVertex
 10
110.4224569983739
 20
151.5802294033823
 30
0.0
  0
VERTEX
  5
62B
330
60F
100
AcDbEntity
  8
Layer 1
 62
     7
420
 16777215
370
    35
100
AcDbVertex
100
AcDb2dVertex
 10
109.0112173814729
 20
151.1507250860974
 30
0.0
  0
VERTEX
  5
62C
330
60F
100
AcDbEntity
  8
Layer 1
 62
     7
420
 16777215
370
    35
100
AcDbVertex
100
AcDb2dVertex
 10
107.5999855666472
 20
150.8439318297067
 30
0.0
  0
VERTEX
  5
62D
330
60F
100
AcDbEntity
  8
Layer 1
 62
     7
420
 16777215
370
    35
100
AcDbVertex
100
AcDb2dVertex
 10
106.1273904192987
 20
150.5984941037653
 30
0.0
  0
VERTEX
  5
62E
330
60F
100
AcDbEntity
  8
Layer 1
 62
     7
420
 16777215
370
    35
100
AcDbVertex
100
AcDb2dVertex
 10
104.5934397415031
 20
150.4144275124227
 30
0.0
  0
VERTEX
  5
62F
330
60F
100
AcDbEntity
  8
Layer 1
 62
     7
420
 16777215
370
    35
100
AcDbVertex
100
AcDb2dVertex
 10
103.1208523962309
 20
150.2917164515275
 30
0.0
  0
VERTEX
  5
630
330
60F
100
AcDbEntity
  8
Layer 1
 62
     7
420
 16777215
370
    35
100
AcDbVertex
100
AcDb2dVertex
 10
101.5255383859123
 20
150.2303453169275
 30
0.0
  0
VERTEX
  5
631
330
60F
100
AcDbEntity
  8
Layer 1
 62
     7
420
 16777215
370
    35
100
AcDbVertex
100
AcDb2dVertex
 10
99.99158770811604
 20
150.2917164515275
 30
0.0
  0
VERTEX
  5
632
330
60F
100
AcDbEntity
  8
Layer 1
 62
     7
420
 16777215
370
    35
100
AcDbVertex
100
AcDb2dVertex
 10
98.51900036284353
 20
150.4144275124227
 30
0.0
  0
VERTEX
  5
633
330
60F
100
AcDbEntity
  8
Layer 1
 62
     7
420
 16777215
370
    35
100
AcDbVertex
100
AcDb2dVertex
 10
96.9850496850473
 20
150.5984941037653
 30
0.0
  0
VERTEX
  5
634
330
60F
100
AcDbEntity
  8
Layer 1
 62
     7
420
 16777215
370
    35
100
AcDbVertex
100
AcDb2dVertex
 10
95.51245453769916
 20
150.8439318297067
 30
0.0
  0
VERTEX
  5
635
330
60F
100
AcDbEntity
  8
Layer 1
 62
     7
420
 16777215
370
    35
100
AcDbVertex
100
AcDb2dVertex
 10
94.10122272287376
 20
151.1507250860974
 30
0.0
  0
VERTEX
  5
636
330
60F
100
AcDbEntity
  8
Layer 1
 62
     7
420
 16777215
370
    35
100
AcDbVertex
100
AcDb2dVertex
 10
92.68998310597433
 20
151.5802294033823
 30
0.0
  0
VERTEX
  5
637
330
60F
100
AcDbEntity
  8
Layer 1
 62
     7
420
 16777215
370
    35
100
AcDbVertex
100
AcDb2dVertex
 10
91.27875129114798
 20
152.0710892511128
 30
0.0
  0
VERTEX
  5
638
330
60F
100
AcDbEntity
  8
Layer 1
 62
     7
420
 16777215
370
    35
100
AcDbVertex
100
AcDb2dVertex
 10
89.92887500677067
 20
152.5619647029981
 30
0.0
  0
VERTEX
  5
639
330
60F
100
AcDbEntity
  8
Layer 1
 62
     7
420
 16777215
370
    35
100
AcDbVertex
100
AcDb2dVertex
 10
88.578998722394
 20
153.1755356116238
 30
0.0
  0
VERTEX
  5
63A
330
60F
100
AcDbEntity
  8
Layer 1
 62
     7
420
 16777215
370
    35
100
AcDbVertex
100
AcDb2dVertex
 10
87.29047796846382
 20
153.8504776548513
 30
0.0
  0
VERTEX
  5
63B
330
60F
100
AcDbEntity
  8
Layer 1
 62
     7
420
 16777215
370
    35
100
AcDbVertex
100
AcDb2dVertex
 10
86.06332054705702
 20
154.5867752285274
 30
0.0
  0
VERTEX
  5
63C
330
60F
100
AcDbEntity
  8
Layer 1
 62
     7
420
 16777215
370
    35
100
AcDbVertex
100
AcDb2dVertex
 10
84.83615532357555
 20
155.3230728021998
 30
0.0
  0
VERTEX
  5
63D
330
60F
100
AcDbEntity
  8
Layer 1
 62
     7
420
 16777215
370
    35
100
AcDbVertex
100
AcDb2dVertex
 10
83.67035343261652
 20
156.1820814367691
 30
0.0
  0
VERTEX
  5
63E
330
60F
100
AcDbEntity
  8
Layer 1
 62
     7
420
 16777215
370
    35
100
AcDbVertex
100
AcDb2dVertex
 10
82.5045515416578
 20
157.0410900713384
 30
0.0
  0
VERTEX
  5
63F
330
60F
100
AcDbEntity
  8
Layer 1
 62
     7
420
 16777215
370
    35
100
AcDbVertex
100
AcDb2dVertex
 10
81.46146851366898
 20
158.0228253709554
 30
0.0
  0
VERTEX
  5
640
330
60F
100
AcDbEntity
  8
Layer 1
 62
     7
420
 16777215
370
    35
100
AcDbVertex
100
AcDb2dVertex
 10
80.41838548568238
 20
159.0045450664186
 30
0.0
  0
VERTEX
  5
641
330
60F
100
AcDbEntity
  8
Layer 1
 62
     7
420
 16777215
370
    35
100
AcDbVertex
100
AcDb2dVertex
 10
79.43665798814162
 20
160.0476358964834
 30
0.0
  0
VERTEX
  5
642
330
60F
100
AcDbEntity
  8
Layer 1
 62
     7
420
 16777215
370
    35
100
AcDbVertex
100
AcDb2dVertex
 10
78.45492268852492
 20
161.0907267265469
 30
0.0
  0
VERTEX
  5
643
330
60F
100
AcDbEntity
  8
Layer 1
 62
     7
420
 16777215
370
    35
100
AcDbVertex
100
AcDb2dVertex
 10
77.59591405395628
 20
162.2565286175059
 30
0.0
  0
VERTEX
  5
644
330
60F
100
AcDbEntity
  8
Layer 1
 62
     7
420
 16777215
370
    35
100
AcDbVertex
100
AcDb2dVertex
 10
76.73689761731009
 20
163.4223305084647
 30
0.0
  0
VERTEX
  5
645
330
60F
100
AcDbEntity
  8
Layer 1
 62
     7
420
 16777215
370
    35
100
AcDbVertex
100
AcDb2dVertex
 10
76.00060004363601
 20
164.6494879298711
 30
0.0
  0
VERTEX
  5
646
330
60F
100
AcDbEntity
  8
Layer 1
 62
     7
420
 16777215
370
    35
100
AcDbVertex
100
AcDb2dVertex
 10
75.26431027203917
 20
165.8766453512766
 30
0.0
  0
VERTEX
  5
647
330
60F
100
AcDbEntity
  8
Layer 1
 62
     7
420
 16777215
370
    35
100
AcDbVertex
100
AcDb2dVertex
 10
74.5893682288119
 20
167.1651739072834
 30
0.0
  0
VERTEX
  5
648
330
60F
100
AcDbEntity
  8
Layer 1
 62
     7
420
 16777215
370
    35
100
AcDbVertex
100
AcDb2dVertex
 10
73.97578951810867
 20
168.5150423895838
 30
0.0
  0
VERTEX
  5
649
330
60F
100
AcDbEntity
  8
Layer 1
 62
     7
420
 16777215
370
    35
100
AcDbVertex
100
AcDb2dVertex
 10
73.4849218683003
 20
169.8649264760377
 30
0.0
  0
VERTEX
  5
64A
330
60F
100
AcDbEntity
  8
Layer 1
 62
     7
420
 16777215
370
    35
100
AcDbVertex
100
AcDb2dVertex
 10
72.99406202056791
 20
171.2761504887856
 30
0.0
  0
VERTEX
  5
64B
330
60F
100
AcDbEntity
  8
Layer 1
 62
     7
420
 16777215
370
    35
100
AcDbVertex
100
AcDb2dVertex
 10
72.5645499012086
 20
172.6873901056869
 30
0.0
  0
VERTEX
  5
64C
330
60F
100
AcDbEntity
  8
Layer 1
 62
     7
420
 16777215
370
    35
100
AcDbVertex
100
AcDb2dVertex
 10
72.2577644468948
 20
174.0986297225889
 30
0.0
  0
VERTEX
  5
64D
330
60F
100
AcDbEntity
  8
Layer 1
 62
     7
420
 16777215
370
    35
100
AcDbVertex
100
AcDb2dVertex
 10
72.01233452302844
 20
175.5712248699367
 30
0.0
  0
VERTEX
  5
64E
330
60F
100
AcDbEntity
  8
Layer 1
 62
     7
420
 16777215
370
    35
100
AcDbVertex
100
AcDb2dVertex
 10
71.82825232753389
 20
177.1051755477333
 30
0.0
  0
VERTEX
  5
64F
330
60F
100
AcDbEntity
  8
Layer 1
 62
     7
420
 16777215
370
    35
100
AcDbVertex
100
AcDb2dVertex
 10
71.705541266639
 20
178.5777550909289
 30
0.0
  0
VERTEX
  5
650
330
60F
100
AcDbEntity
  8
Layer 1
 62
     7
420
 16777215
370
    35
100
AcDbVertex
100
AcDb2dVertex
 10
71.64418573619092
 20
180.1730769033251
 30
0.0
  0
VERTEX
  5
651
330
60F
100
AcDbEntity
  8
Layer 1
 62
     7
420
 16777215
370
    35
100
AcDbVertex
100
AcDb2dVertex
 10
71.705541266639
 20
181.707027581121
 30
0.0
  0
VERTEX
  5
652
330
60F
100
AcDbEntity
  8
Layer 1
 62
     7
420
 16777215
370
    35
100
AcDbVertex
100
AcDb2dVertex
 10
71.82825232753389
 20
183.1796071243166
 30
0.0
  0
VERTEX
  5
653
330
60F
100
AcDbEntity
  8
Layer 1
 62
     7
420
 16777215
370
    35
100
AcDbVertex
100
AcDb2dVertex
 10
72.01233452302844
 20
184.7135578021128
 30
0.0
  0
VERTEX
  5
654
330
60F
100
AcDbEntity
  8
Layer 1
 62
     7
420
 16777215
370
    35
100
AcDbVertex
100
AcDb2dVertex
 10
72.2577644468948
 20
186.186152949461
 30
0.0
  0
VERTEX
  5
655
330
60F
100
AcDbEntity
  8
Layer 1
 62
     7
420
 16777215
370
    35
100
AcDbVertex
100
AcDb2dVertex
 10
72.5645499012086
 20
187.5973925663617
 30
0.0
  0
VERTEX
  5
656
330
60F
100
AcDbEntity
  8
Layer 1
 62
     7
420
 16777215
370
    35
100
AcDbVertex
100
AcDb2dVertex
 10
72.99406202056791
 20
189.0086321832637
 30
0.0
  0
VERTEX
  5
657
330
60F
100
AcDbEntity
  8
Layer 1
 62
     7
420
 16777215
370
    35
100
AcDbVertex
100
AcDb2dVertex
 10
73.4849218683003
 20
190.4198561960112
 30
0.0
  0
VERTEX
  5
658
330
60F
100
AcDbEntity
  8
Layer 1
 62
     7
420
 16777215
370
    35
100
AcDbVertex
100
AcDb2dVertex
 10
73.97578951810867
 20
191.7697402824657
 30
0.0
  0
VERTEX
  5
659
330
60F
100
AcDbEntity
  8
Layer 1
 62
     7
420
 16777215
370
    35
100
AcDbVertex
100
AcDb2dVertex
 10
74.5893682288119
 20
193.1196087647664
 30
0.0
  0
VERTEX
  5
65A
330
60F
100
AcDbEntity
  8
Layer 1
 62
     7
420
 16777215
370
    35
100
AcDbVertex
100
AcDb2dVertex
 10
75.26431027203917
 20
194.4081373207726
 30
0.0
  0
VERTEX
  5
65B
330
60F
100
AcDbEntity
  8
Layer 1
 62
     7
420
 16777215
370
    35
100
AcDbVertex
100
AcDb2dVertex
 10
76.00060004363601
 20
195.6352947421787
 30
0.0
  0
VERTEX
  5
65C
330
60F
100
AcDbEntity
  8
Layer 1
 62
     7
420
 16777215
370
    35
100
AcDbVertex
100
AcDb2dVertex
 10
76.73689761731009
 20
196.8624521635852
 30
0.0
  0
VERTEX
  5
65D
330
60F
100
AcDbEntity
  8
Layer 1
 62
     7
420
 16777215
370
    35
100
AcDbVertex
100
AcDb2dVertex
 10
77.59591405395628
 20
198.0282540545433
 30
0.0
  0
VERTEX
  5
65E
330
60F
100
AcDbEntity
  8
Layer 1
 62
     7
420
 16777215
370
    35
100
AcDbVertex
100
AcDb2dVertex
 10
78.45492268852492
 20
199.194055945502
 30
0.0
  0
VERTEX
  5
65F
330
60F
100
AcDbEntity
  8
Layer 1
 62
     7
420
 16777215
370
    35
100
AcDbVertex
100
AcDb2dVertex
 10
79.43665798814162
 20
200.2371467755671
 30
0.0
  0
VERTEX
  5
660
330
60F
100
AcDbEntity
  8
Layer 1
 62
     7
420
 16777215
370
    35
100
AcDbVertex
100
AcDb2dVertex
 10
80.41838548568238
 20
201.2802376056309
 30
0.0
  0
VERTEX
  5
661
330
60F
100
AcDbEntity
  8
Layer 1
 62
     7
420
 16777215
370
    35
100
AcDbVertex
100
AcDb2dVertex
 10
81.46146851366898
 20
202.2619573010945
 30
0.0
  0
VERTEX
  5
662
330
60F
100
AcDbEntity
  8
Layer 1
 62
     7
420
 16777215
370
    35
100
AcDbVertex
100
AcDb2dVertex
 10
82.5045515416578
 20
203.2436926007109
 30
0.0
  0
VERTEX
  5
663
330
60F
100
AcDbEntity
  8
Layer 1
 62
     7
420
 16777215
370
    35
100
AcDbVertex
100
AcDb2dVertex
 10
83.67035343261652
 20
204.1027012352801
 30
0.0
  0
VERTEX
  5
664
330
60F
100
AcDbEntity
  8
Layer 1
 62
     7
420
 16777215
370
    35
100
AcDbVertex
100
AcDb2dVertex
 10
84.83615532357555
 20
204.9617098698494
 30
0.0
  0
VERTEX
  5
665
330
60F
100
AcDbEntity
  8
Layer 1
 62
     7
420
 16777215
370
    35
100
AcDbVertex
100
AcDb2dVertex
 10
86.06332054705702
 20
205.6980074435241
 30
0.0
  0
VERTEX
  5
666
330
60F
100
AcDbEntity
  8
Layer 1
 62
     7
420
 16777215
370
    35
100
AcDbVertex
100
AcDb2dVertex
 10
87.29047796846382
 20
206.4343050171979
 30
0.0
  0
VERTEX
  5
667
330
60F
100
AcDbEntity
  8
Layer 1
 62
     7
420
 16777215
370
    35
100
AcDbVertex
100
AcDb2dVertex
 10
88.578998722394
 20
207.1092470604248
 30
0.0
  0
VERTEX
  5
668
330
60F
100
AcDbEntity
  8
Layer 1
 62
     7
420
 16777215
370
    35
100
AcDbVertex
100
AcDb2dVertex
 10
89.92887500677067
 20
207.7228179690508
 30
0.0
  0
VERTEX
  5
669
330
60F
100
AcDbEntity
  8
Layer 1
 62
     7
420
 16777215
370
    35
100
AcDbVertex
100
AcDb2dVertex
 10
91.27875129114798
 20
208.2136934209358
 30
0.0
  0
VERTEX
  5
66A
330
60F
100
AcDbEntity
  8
Layer 1
 62
     7
420
 16777215
370
    35
100
AcDbVertex
100
AcDb2dVertex
 10
92.68998310597433
 20
208.7045532686678
 30
0.0
  0
VERTEX
  5
66B
330
60F
100
AcDbEntity
  8
Layer 1
 62
     7
420
 16777215
370
    35
100
AcDbVertex
100
AcDb2dVertex
 10
94.10122272287376
 20
209.1340575859522
 30
0.0
  0
VERTEX
  5
66C
330
60F
100
AcDbEntity
  8
Layer 1
 62
     7
420
 16777215
370
    35
100
AcDbVertex
100
AcDb2dVertex
 10
95.51245453769916
 20
209.4408508423419
 30
0.0
  0
VERTEX
  5
66D
330
60F
100
AcDbEntity
  8
Layer 1
 62
     7
420
 16777215
370
    35
100
AcDbVertex
100
AcDb2dVertex
 10
96.9850496850473
 20
209.6862729641323
 30
0.0
  0
VERTEX
  5
66E
330
60F
100
AcDbEntity
  8
Layer 1
 62
     7
420
 16777215
370
    35
100
AcDbVertex
100
AcDb2dVertex
 10
98.51900036284353
 20
209.8703551596272
 30
0.0
  0
VERTEX
  5
66F
330
60F
100
AcDbEntity
  8
Layer 1
 62
     7
420
 16777215
370
    35
100
AcDbVertex
100
AcDb2dVertex
 10
99.99158770811604
 20
209.9930662205218
 30
0.0
  0
VERTEX
  5
670
330
60F
100
AcDbEntity
  8
Layer 1
 62
     7
420
 16777215
370
    35
100
AcDbVertex
100
AcDb2dVertex
 10
101.5255383859123
 20
210.0544217509686
 30
0.0
  0
VERTEX
  5
671
330
60F
100
AcDbEntity
  8
Layer 1
 62
     7
420
 16777215
370
    35
100
AcDbVertex
100
AcDb2dVertex
 10
103.1208523962309
 20
209.9930662205218
 30
0.0
  0
VERTEX
  5
672
330
60F
100
AcDbEntity
  8
Layer 1
 62
     7
420
 16777215
370
    35
100
AcDbVertex
100
AcDb2dVertex
 10
104.5934397415031
 20
209.8703551596272
 30
0.0
  0
VERTEX
  5
673
330
60F
100
AcDbEntity
  8
Layer 1
 62
     7
420
 16777215
370
    35
100
AcDbVertex
100
AcDb2dVertex
 10
106.1273904192987
 20
209.6862729641323
 30
0.0
  0
VERTEX
  5
674
330
60F
100
AcDbEntity
  8
Layer 1
 62
     7
420
 16777215
370
    35
100
AcDbVertex
100
AcDb2dVertex
 10
107.5999855666472
 20
209.4408508423419
 30
0.0
  0
VERTEX
  5
675
330
60F
100
AcDbEntity
  8
Layer 1
 62
     7
420
 16777215
370
    35
100
AcDbVertex
100
AcDb2dVertex
 10
109.0112173814729
 20
209.1340575859522
 30
0.0
  0
VERTEX
  5
676
330
60F
100
AcDbEntity
  8
Layer 1
 62
     7
420
 16777215
370
    35
100
AcDbVertex
100
AcDb2dVertex
 10
110.4224569983739
 20
208.7045532686678
 30
0.0
  0
VERTEX
  5
677
330
60F
100
AcDbEntity
  8
Layer 1
 62
     7
420
 16777215
370
    35
100
AcDbVertex
100
AcDb2dVertex
 10
111.8336888131984
 20
208.2136934209358
 30
0.0
  0
VERTEX
  5
678
330
60F
100
AcDbEntity
  8
Layer 1
 62
     7
420
 16777215
370
    35
100
AcDbVertex
100
AcDb2dVertex
 10
113.1835650975763
 20
207.7228179690508
 30
0.0
  0
VERTEX
  5
679
330
60F
100
AcDbEntity
  8
Layer 1
 62
     7
420
 16777215
370
    35
100
AcDbVertex
100
AcDb2dVertex
 10
114.533441381953
 20
207.1092470604248
 30
0.0
  0
VERTEX
  5
67A
330
60F
100
AcDbEntity
  8
Layer 1
 62
     7
420
 16777215
370
    35
100
AcDbVertex
100
AcDb2dVertex
 10
115.8219621358825
 20
206.4343050171979
 30
0.0
  0
VERTEX
  5
67B
330
60F
100
AcDbEntity
  8
Layer 1
 62
     7
420
 16777215
370
    35
100
AcDbVertex
100
AcDb2dVertex
 10
117.049119557289
 20
205.6980074435241
 30
0.0
  0
VERTEX
  5
67C
330
60F
100
AcDbEntity
  8
Layer 1
 62
     7
420
 16777215
370
    35
100
AcDbVertex
100
AcDb2dVertex
 10
118.2762769786942
 20
204.9617098698494
 30
0.0
  0
VERTEX
  5
67D
330
60F
100
AcDbEntity
  8
Layer 1
 62
     7
420
 16777215
370
    35
100
AcDbVertex
100
AcDb2dVertex
 10
119.4420788696542
 20
204.1027012352801
 30
0.0
  0
VERTEX
  5
67E
330
60F
100
AcDbEntity
  8
Layer 1
 62
     7
420
 16777215
370
    35
100
AcDbVertex
100
AcDb2dVertex
 10
120.6078807606129
 20
203.2436926007109
 30
0.0
  0
VERTEX
  5
67F
330
60F
100
AcDbEntity
  8
Layer 1
 62
     7
420
 16777215
370
    35
100
AcDbVertex
100
AcDb2dVertex
 10
121.6509715906774
 20
202.2619573010945
 30
0.0
  0
VERTEX
  5
680
330
60F
100
AcDbEntity
  8
Layer 1
 62
     7
420
 16777215
370
    35
100
AcDbVertex
100
AcDb2dVertex
 10
122.6940624207418
 20
201.2802376056309
 30
0.0
  0
VERTEX
  5
681
330
60F
100
AcDbEntity
  8
Layer 1
 62
     7
420
 16777215
370
    35
100
AcDbVertex
100
AcDb2dVertex
 10
123.6757821162047
 20
200.2371467755671
 30
0.0
  0
VERTEX
  5
682
330
60F
100
AcDbEntity
  8
Layer 1
 62
     7
420
 16777215
370
    35
100
AcDbVertex
100
AcDb2dVertex
 10
124.6575174158227
 20
199.194055945502
 30
0.0
  0
VERTEX
  5
683
330
60F
100
AcDbEntity
  8
Layer 1
 62
     7
420
 16777215
370
    35
100
AcDbVertex
100
AcDb2dVertex
 10
125.5165260503907
 20
198.0282540545433
 30
0.0
  0
VERTEX
  5
684
330
60F
100
AcDbEntity
  8
Layer 1
 62
     7
420
 16777215
370
    35
100
AcDbVertex
100
AcDb2dVertex
 10
126.3755346849606
 20
196.8624521635852
 30
0.0
  0
VERTEX
  5
685
330
60F
100
AcDbEntity
  8
Layer 1
 62
     7
420
 16777215
370
    35
100
AcDbVertex
100
AcDb2dVertex
 10
127.1118322586337
 20
195.6352947421787
 30
0.0
  0
VERTEX
  5
686
330
60F
100
AcDbEntity
  8
Layer 1
 62
     7
420
 16777215
370
    35
100
AcDbVertex
100
AcDb2dVertex
 10
127.8481298323088
 20
194.4081373207726
 30
0.0
  0
VERTEX
  5
687
330
60F
100
AcDbEntity
  8
Layer 1
 62
     7
420
 16777215
370
    35
100
AcDbVertex
100
AcDb2dVertex
 10
128.5230718755361
 20
193.1196087647664
 30
0.0
  0
VERTEX
  5
688
330
60F
100
AcDbEntity
  8
Layer 1
 62
     7
420
 16777215
370
    35
100
AcDbVertex
100
AcDb2dVertex
 10
129.1366427841604
 20
191.7697402824657
 30
0.0
  0
VERTEX
  5
689
330
60F
100
AcDbEntity
  8
Layer 1
 62
     7
420
 16777215
370
    35
100
AcDbVertex
100
AcDb2dVertex
 10
129.6275182360476
 20
190.4198561960112
 30
0.0
  0
VERTEX
  5
68A
330
60F
100
AcDbEntity
  8
Layer 1
 62
     7
420
 16777215
370
    35
100
AcDbVertex
100
AcDb2dVertex
 10
130.1183780837778
 20
189.0086321832637
 30
0.0
  0
VERTEX
  5
68B
330
60F
100
AcDbEntity
  8
Layer 1
 62
     7
420
 16777215
370
    35
100
AcDbVertex
100
AcDb2dVertex
 10
130.5478824010621
 20
187.5973925663617
 30
0.0
  0
VERTEX
  5
68C
330
60F
100
AcDbEntity
  8
Layer 1
 62
     7
420
 16777215
370
    35
100
AcDbVertex
100
AcDb2dVertex
 10
130.8546756574522
 20
186.186152949461
 30
0.0
  0
VERTEX
  5
68D
330
60F
100
AcDbEntity
  8
Layer 1
 62
     7
420
 16777215
370
    35
100
AcDbVertex
100
AcDb2dVertex
 10
131.1001133833964
 20
184.7135578021128
 30
0.0
  0
VERTEX
  5
68E
330
60F
100
AcDbEntity
  8
Layer 1
 62
     7
420
 16777215
370
    35
100
AcDbVertex
100
AcDb2dVertex
 10
131.2841799747372
 20
183.1796071243166
 30
0.0
  0
VERTEX
  5
68F
330
60F
100
AcDbEntity
  8
Layer 1
 62
     7
420
 16777215
370
    35
100
AcDbVertex
100
AcDb2dVertex
 10
131.4068910356314
 20
181.707027581121
 30
0.0
  0
VERTEX
  5
690
330
60F
100
AcDbEntity
  8
Layer 1
 62
     7
420
 16777215
370
    35
100
AcDbVertex
100
AcDb2dVertex
 10
131.4682621702317
 20
180.1730769033251
 30
0.0
  0
SEQEND
  5
691
330
60F
100
AcDbEntity
  8
Layer 1
 62
     7
420
 16777215
370
    35
  0
POLYLINE
  5
692
330
1F
100
AcDbEntity
  8
Layer 1
 62
     7
420
 16777215
370
    35
100
AcDb2dPolyline
 66
     1
 10
0.0
 20
0.0
 30
0.0
  0
VERTEX
  5
693
330
692
100
AcDbEntity
  8
Layer 1
 62
     7
420
 16777215
370
    35
100
AcDbVertex
100
AcDb2dVertex
 10
125.577897184991
 20
191.1561537696859
 30
0.0
  0
VERTEX
  5
694
330
692
100
AcDbEntity
  8
Layer 1
 62
     7
420
 16777215
370
    35
100
AcDbVertex
100
AcDb2dVertex
 10
125.2097483981545
 20
191.8924357392068
 30
0.0
  0
VERTEX
  5
695
330
692
100
AcDbEntity
  8
Layer 1
 62
     7
420
 16777215
370
    35
100
AcDbVertex
100
AcDb2dVertex
 10
124.8415996113173
 20
192.6901044474821
 30
0.0
  0
VERTEX
  5
696
330
692
100
AcDbEntity
  8
Layer 1
 62
     7
420
 16777215
370
    35
100
AcDbVertex
100
AcDb2dVertex
 10
123.9825753725954
 20
194.1013284602293
 30
0.0
  0
VERTEX
  5
697
330
692
100
AcDbEntity
  8
Layer 1
 62
     7
420
 16777215
370
    35
100
AcDbVertex
100
AcDb2dVertex
 10
123.0622112075803
 20
195.5125680771307
 30
0.0
  0
VERTEX
  5
698
330
692
100
AcDbEntity
  8
Layer 1
 62
     7
420
 16777215
370
    35
100
AcDbVertex
100
AcDb2dVertex
 10
122.0804759079617
 20
196.8010810289849
 30
0.0
  0
VERTEX
  5
699
330
692
100
AcDbEntity
  8
Layer 1
 62
     7
420
 16777215
370
    35
100
AcDbVertex
100
AcDb2dVertex
 10
120.9760451516039
 20
198.0896095849917
 30
0.0
  0
VERTEX
  5
69A
330
692
100
AcDbEntity
  8
Layer 1
 62
     7
420
 16777215
370
    35
100
AcDbVertex
100
AcDb2dVertex
 10
119.8102276564901
 20
199.2554114759501
 30
0.0
  0
VERTEX
  5
69B
330
692
100
AcDbEntity
  8
Layer 1
 62
     7
420
 16777215
370
    35
100
AcDbVertex
100
AcDb2dVertex
 10
118.5830702350849
 20
200.3598578364626
 30
0.0
  0
VERTEX
  5
69C
330
692
100
AcDbEntity
  8
Layer 1
 62
     7
420
 16777215
370
    35
100
AcDbVertex
100
AcDb2dVertex
 10
117.294557283232
 20
201.4029330623726
 30
0.0
  0
VERTEX
  5
69D
330
692
100
AcDbEntity
  8
Layer 1
 62
     7
420
 16777215
370
    35
100
AcDbVertex
100
AcDb2dVertex
 10
115.8833254684062
 20
202.3233128315412
 30
0.0
  0
VERTEX
  5
69E
330
692
100
AcDbEntity
  8
Layer 1
 62
     7
420
 16777215
370
    35
100
AcDbVertex
100
AcDb2dVertex
 10
114.4720936535837
 20
203.1823214661105
 30
0.0
  0
VERTEX
  5
69F
330
692
100
AcDbEntity
  8
Layer 1
 62
     7
420
 16777215
370
    35
100
AcDbVertex
100
AcDb2dVertex
 10
112.999498506235
 20
203.9799745702327
 30
0.0
  0
VERTEX
  5
6A0
330
692
100
AcDbEntity
  8
Layer 1
 62
     7
420
 16777215
370
    35
100
AcDbVertex
100
AcDb2dVertex
 10
112.2632009325593
 20
204.2867678266225
 30
0.0
  0
VERTEX
  5
6A1
330
692
100
AcDbEntity
  8
Layer 1
 62
     7
420
 16777215
370
    35
100
AcDbVertex
100
AcDb2dVertex
 10
111.4655478284384
 20
204.6549166134587
 30
0.0
  0
VERTEX
  5
6A2
330
692
100
AcDbEntity
  8
Layer 1
 62
     7
420
 16777215
370
    35
100
AcDbVertex
100
AcDb2dVertex
 10
110.6678947243175
 20
204.9617098698494
 30
0.0
  0
VERTEX
  5
6A3
330
692
100
AcDbEntity
  8
Layer 1
 62
     7
420
 16777215
370
    35
100
AcDbVertex
100
AcDb2dVertex
 10
109.8702416201934
 20
205.2071319916382
 30
0.0
  0
VERTEX
  5
6A4
330
692
100
AcDbEntity
  8
Layer 1
 62
     7
420
 16777215
370
    35
100
AcDbVertex
100
AcDb2dVertex
 10
109.072580713996
 20
205.4525697175808
 30
0.0
  0
VERTEX
  5
6A5
330
692
100
AcDbEntity
  8
Layer 1
 62
     7
420
 16777215
370
    35
100
AcDbVertex
100
AcDb2dVertex
 10
108.2135720794273
 20
205.6979918393703
 30
0.0
  0
VERTEX
  5
6A6
330
692
100
AcDbEntity
  8
Layer 1
 62
     7
420
 16777215
370
    35
100
AcDbVertex
100
AcDb2dVertex
 10
107.4159189753062
 20
205.8820740348652
 30
0.0
  0
VERTEX
  5
6A7
330
692
100
AcDbEntity
  8
Layer 1
 62
     7
420
 16777215
370
    35
100
AcDbVertex
100
AcDb2dVertex
 10
106.5569025386612
 20
206.0661406262072
 30
0.0
  0
VERTEX
  5
6A8
330
692
100
AcDbEntity
  8
Layer 1
 62
     7
420
 16777215
370
    35
100
AcDbVertex
100
AcDb2dVertex
 10
105.6978939040929
 20
206.2502228217027
 30
0.0
  0
VERTEX
  5
6A9
330
692
100
AcDbEntity
  8
Layer 1
 62
     7
420
 16777215
370
    35
100
AcDbVertex
100
AcDb2dVertex
 10
104.8388774674467
 20
206.3729338825969
 30
0.0
  0
VERTEX
  5
6AA
330
692
100
AcDbEntity
  8
Layer 1
 62
     7
420
 16777215
370
    35
100
AcDbVertex
100
AcDb2dVertex
 10
105.5751750411198
 20
191.0334271046378
 30
0.0
  0
VERTEX
  5
6AB
330
692
100
AcDbEntity
  8
Layer 1
 62
     7
420
 16777215
370
    35
100
AcDbVertex
100
AcDb2dVertex
 10
105.5751750411198
 20
190.6039227873525
 30
0.0
  0
VERTEX
  5
6AC
330
692
100
AcDbEntity
  8
Layer 1
 62
     7
420
 16777215
370
    35
100
AcDbVertex
100
AcDb2dVertex
 10
105.6978939040929
 20
190.1744184700695
 30
0.0
  0
VERTEX
  5
6AD
330
692
100
AcDbEntity
  8
Layer 1
 62
     7
420
 16777215
370
    35
100
AcDbVertex
100
AcDb2dVertex
 10
105.8206049649859
 20
189.8062696832317
 30
0.0
  0
VERTEX
  5
6AE
330
692
100
AcDbEntity
  8
Layer 1
 62
     7
420
 16777215
370
    35
100
AcDbVertex
100
AcDb2dVertex
 10
106.0046793584045
 20
189.3767653659474
 30
0.0
  0
VERTEX
  5
6AF
330
692
100
AcDbEntity
  8
Layer 1
 62
     7
420
 16777215
370
    35
100
AcDbVertex
100
AcDb2dVertex
 10
106.1887537518215
 20
189.0086165791105
 30
0.0
  0
VERTEX
  5
6B0
330
692
100
AcDbEntity
  8
Layer 1
 62
     7
420
 16777215
370
    35
100
AcDbVertex
100
AcDb2dVertex
 10
106.434191477766
 20
188.7018233227207
 30
0.0
  0
VERTEX
  5
6B1
330
692
100
AcDbEntity
  8
Layer 1
 62
     7
420
 16777215
370
    35
100
AcDbVertex
100
AcDb2dVertex
 10
106.7409769320789
 20
188.3950300663303
 30
0.0
  0
VERTEX
  5
6B2
330
692
100
AcDbEntity
  8
Layer 1
 62
     7
420
 16777215
370
    35
100
AcDbVertex
100
AcDb2dVertex
 10
107.0477701884689
 20
188.0882524140941
 30
0.0
  0
VERTEX
  5
6B3
330
692
100
AcDbEntity
  8
Layer 1
 62
     7
420
 16777215
370
    35
100
AcDbVertex
100
AcDb2dVertex
 10
107.4159189753062
 20
187.8428146881514
 30
0.0
  0
VERTEX
  5
6B4
330
692
100
AcDbEntity
  8
Layer 1
 62
     7
420
 16777215
370
    35
100
AcDbVertex
100
AcDb2dVertex
 10
107.8454232925901
 20
187.5973769622088
 30
0.0
  0
VERTEX
  5
6B5
330
692
100
AcDbEntity
  8
Layer 1
 62
     7
420
 16777215
370
    35
100
AcDbVertex
100
AcDb2dVertex
 10
108.2749276098751
 20
187.4133103708671
 30
0.0
  0
VERTEX
  5
6B6
330
692
100
AcDbEntity
  8
Layer 1
 62
     7
420
 16777215
370
    35
100
AcDbVertex
100
AcDb2dVertex
 10
108.704439729236
 20
187.2905837058197
 30
0.0
  0
VERTEX
  5
6B7
330
692
100
AcDbEntity
  8
Layer 1
 62
     7
420
 16777215
370
    35
100
AcDbVertex
100
AcDb2dVertex
 10
109.133944046521
 20
187.2292281753713
 30
0.0
  0
VERTEX
  5
6B8
330
692
100
AcDbEntity
  8
Layer 1
 62
     7
420
 16777215
370
    35
100
AcDbVertex
100
AcDb2dVertex
 10
109.5634483638047
 20
187.2292281753713
 30
0.0
  0
VERTEX
  5
6B9
330
692
100
AcDbEntity
  8
Layer 1
 62
     7
420
 16777215
370
    35
100
AcDbVertex
100
AcDb2dVertex
 10
110.0543160136121
 20
187.2292281753713
 30
0.0
  0
VERTEX
  5
6BA
330
692
100
AcDbEntity
  8
Layer 1
 62
     7
420
 16777215
370
    35
100
AcDbVertex
100
AcDb2dVertex
 10
110.4838203308989
 20
187.35195484042
 30
0.0
  0
VERTEX
  5
6BB
330
692
100
AcDbEntity
  8
Layer 1
 62
     7
420
 16777215
370
    35
100
AcDbVertex
100
AcDb2dVertex
 10
125.577897184991
 20
191.1561537696859
 30
0.0
  0
SEQEND
  5
6BC
330
692
100
AcDbEntity
  8
Layer 1
 62
     7
420
 16777215
370
    35
  0
SPLINE
  5
6BD
330
1F
100
AcDbEntity
  8
Layer 1
 62
     7
420
 16777215
370
    35
100
AcDbSpline
210
0.0
220
0.0
230
1.0
 70
    11
 71
     3
 72
    17
 73
    13
 74
     0
 42
0.0000000001
 43
0.0000000001
 12
1.0
 22
0.0
 32
0.0
 13
1.0
 23
0.0
 33
0.0
 40
0.0
 40
0.0
 40
0.0
 40
0.0
 40
1.0
 40
1.0
 40
1.0
 40
2.0
 40
2.0
 40
2.0
 40
3.0
 40
3.0
 40
3.0
 40
4.0
 40
4.0
 40
4.0
 40
4.0
 10
138.7641023027454
 20
164.1042352468062
 30
0.0
 10
137.6595783427086
 20
164.1042352468556
 30
0.0
 10
136.7641810551104
 20
163.2088379819569
 30
0.0
 10
136.7641810550604
 20
162.1043140498231
 30
0.0
 10
136.764181055011
 20
160.9997822802397
 30
0.0
 10
137.659578342529
 20
160.1043850152601
 30
0.0
 10
138.7641023025657
 20
160.1043850152107
 30
0.0
 10
139.8686341000521
 20
160.1043850151613
 30
0.0
 10
140.7640313876503
 20
160.9997822800601
 30
0.0
 10
140.7640313877004
 20
162.1043140496434
 30
0.0
 10
140.7640313877498
 20
163.2088379817772
 30
0.0
 10
139.8686341002318
 20
164.1042352467562
 30
0.0
 10
138.7641023027454
 20
164.1042352468062
 30
0.0
  0
SPLINE
  5
6BE
330
1F
100
AcDbEntity
  8
Layer 1
 62
     7
420
 16777215
370
    35
100
AcDbSpline
210
0.0
220
0.0
230
1.0
 70
    11
 71
     3
 72
    17
 73
    13
 74
     0
 42
0.0000000001
 43
0.0000000001
 12
1.0
 22
0.0
 32
0.0
 13
1.0
 23
0.0
 33
0.0
 40
0.0
 40
0.0
 40
0.0
 40
0.0
 40
1.0
 40
1.0
 40
1.0
 40
2.0
 40
2.0
 40
2.0
 40
3.0
 40
3.0
 40
3.0
 40
4.0
 40
4.0
 40
4.0
 40
4.0
 10
-4.033543737723642
 20
164.1042352532168
 30
0.0
 10
-2.92901980558987
 20
164.104235253168
 30
0.0
 10
-2.033622540691451
 20
163.2088379881884
 30
0.0
 10
-2.033622540741182
 20
162.1043140560546
 30
0.0
 10
-2.033622540790593
 20
160.9997822864713
 30
0.0
 10
-2.929019805769224
 20
160.1043850215719
 30
0.0
 10
-4.033543737902996
 20
160.1043850216219
 30
0.0
 10
-5.138075507486382
 20
160.1043850216714
 30
0.0
 10
-6.033472772385442
 20
160.9997822866509
 30
0.0
 10
-6.033472772336031
 20
162.1043140562343
 30
0.0
 10
-6.0334727722863
 20
163.2088379883675
 30
0.0
 10
-5.138075507307026
 20
164.1042352532668
 30
0.0
 10
-4.033543737723642
 20
164.1042352532168
 30
0.0
  0
POLYLINE
  5
6BF
330
1F
100
AcDbEntity
  8
Layer 1
 62
     7
420
 16777215
370
    35
100
AcDb2dPolyline
 66
     1
 10
0.0
 20
0.0
 30
0.0
  0
VERTEX
  5
6C0
330
6BF
100
AcDbEntity
  8
Layer 1
 62
     7
420
 16777215
370
    35
100
AcDbVertex
100
AcDb2dVertex
 10
67.36527965457601
 20
147.4074345474813
 30
0.0
  0
VERTEX
  5
6C1
330
6BF
100
AcDbEntity
  8
Layer 1
 62
     7
420
 16777215
370
    35
100
AcDbVertex
100
AcDb2dVertex
 10
118.8796457657239
 20
147.4074345451686
 30
0.0
  0
VERTEX
  5
6C2
330
6BF
100
AcDbEntity
  8
Layer 1
 62
     7
420
 16777215
370
    35
100
AcDbVertex
100
AcDb2dVertex
 10
142.1959021131311
 20
171.8078838893326
 30
0.0
  0
VERTEX
  5
6C3
330
6BF
100
AcDbEntity
  8
Layer 1
 62
     7
420
 16777215
370
    35
100
AcDbVertex
100
AcDb2dVertex
 10
142.202469895508
 20
159.8083331945481
 30
0.0
  0
VERTEX
  5
6C4
330
6BF
100
AcDbEntity
  8
Layer 1
 62
     7
420
 16777215
370
    35
100
AcDbVertex
100
AcDb2dVertex
 10
118.8862135481001
 20
135.4078838994798
 30
0.0
  0
VERTEX
  5
6C5
330
6BF
100
AcDbEntity
  8
Layer 1
 62
     7
420
 16777215
370
    35
100
AcDbVertex
100
AcDb2dVertex
 10
67.36527965403731
 20
135.4078839017931
 30
0.0
  0
VERTEX
  5
6C6
330
6BF
100
AcDbEntity
  8
Layer 1
 62
     7
420
 16777215
370
    35
100
AcDbVertex
100
AcDb2dVertex
 10
15.84434451218655
 20
135.4078839041058
 30
0.0
  0
VERTEX
  5
6C7
330
6BF
100
AcDbEntity
  8
Layer 1
 62
     7
420
 16777215
370
    35
100
AcDbVertex
100
AcDb2dVertex
 10
-7.47191124401177
 20
159.8083332012679
 30
0.0
  0
VERTEX
  5
6C8
330
6BF
100
AcDbEntity
  8
Layer 1
 62
     7
420
 16777215
370
    35
100
AcDbVertex
100
AcDb2dVertex
 10
-7.465343460722718
 20
171.8078838960525
 30
0.0
  0
VERTEX
  5
6C9
330
6BF
100
AcDbEntity
  8
Layer 1
 62
     7
420
 16777215
370
    35
100
AcDbVertex
100
AcDb2dVertex
 10
15.8509122954756
 20
147.4074345497939
 30
0.0
  0
VERTEX
  5
6CA
330
6BF
100
AcDbEntity
  8
Layer 1
 62
     7
420
 16777215
370
    35
100
AcDbVertex
100
AcDb2dVertex
 10
67.36527965457601
 20
147.4074345474813
 30
0.0
  0
SEQEND
  5
6CB
330
6BF
100
AcDbEntity
  8
Layer 1
 62
     7
420
 16777215
370
    35
  0
ENDSEC
  0
SECTION
  2
OBJECTS
  0
DICTIONARY
  5
C
330
0
100
AcDbDictionary
281
     1
  3
ACAD_GROUP
350
D
  3
ACAD_LAYOUT
350
1A
  3
ACAD_MATERIAL
350
3B
  3
ACAD_MLEADERSTYLE
350
6CD
  3
ACAD_MLINESTYLE
350
17
  3
ACAD_PLOTSETTINGS
350
19
  3
ACAD_PLOTSTYLENAME
350
E
  3
ACAD_TABLESTYLE
350
6CC
  3
ACAD_VISUALSTYLE
350
2A
  0
SUN
  5
3F
330
29
100
AcDbSun
 90
        1
290
     0
 63
     7
421
 16777215
 40
1.0
291
     1
 91
  2455826
 92
 54000000
292
     0
 70
     2
 71
   256
280
     1
  0
DICTIONARY
  5
D
102
{ACAD_REACTORS
330
C
102
}
330
C
100
AcDbDictionary
281
     1
  0
DICTIONARY
  5
1A
102
{ACAD_REACTORS
330
C
102
}
330
C
100
AcDbDictionary
281
     1
  3
Layout1
350
1E
  3
Layout2
350
26
  3
Model
350
22
  0
DICTIONARY
  5
3B
102
{ACAD_REACTORS
330
C
102
}
330
C
100
AcDbDictionary
281
     1
  3
ByBlock
350
3D
  3
ByLayer
350
3C
  3
Global
350
3E
  0
DICTIONARY
  5
6CD
102
{ACAD_REACTORS
330
C
102
}
330
C
100
AcDbDictionary
281
     1
  0
DICTIONARY
  5
17
102
{ACAD_REACTORS
330
C
102
}
330
C
100
AcDbDictionary
281
     1
  3
Standard
350
18
  0
DICTIONARY
  5
19
102
{ACAD_REACTORS
330
C
102
}
330
C
100
AcDbDictionary
281
     1
  0
ACDBDICTIONARYWDFLT
  5
E
102
{ACAD_REACTORS
330
C
102
}
330
C
100
AcDbDictionary
281
     1
  3
Normal
350
F
100
AcDbDictionaryWithDefault
340
F
  0
DICTIONARY
  5
6CC
102
{ACAD_REACTORS
330
C
102
}
330
C
100
AcDbDictionary
281
     1
  0
DICTIONARY
  5
2A
102
{ACAD_REACTORS
330
C
102
}
330
C
100
AcDbDictionary
281
     1
  3
2dWireframe
350
2F
  3
3D Hidden
350
31
  3
3dWireframe
350
30
  3
Basic
350
32
  3
Brighten
350
36
  3
ColorChange
350
3A
  3
Conceptual
350
34
  3
Dim
350
35
  3
Facepattern
350
39
  3
Flat
350
2B
  3
FlatWithEdges
350
2C
  3
Gouraud
350
2D
  3
GouraudWithEdges
350
2E
  3
Linepattern
350
38
  3
Realistic
350
33
  3
Thicken
350
37
  0
LAYOUT
  5
1E
102
{ACAD_REACTORS
330
1A
102
}
330
1A
100
AcDbPlotSettings
  1

  2
none_device
  4

  6

 40
0.0
 41
0.0
 42
0.0
 43
0.0
 44
0.0
 45
0.0
 46
0.0
 47
0.0
 48
0.0
 49
0.0
140
0.0
141
0.0
142
1.0
143
1.0
 70
   688
 72
     0
 73
     0
 74
     5
  7

 75
    16
 76
     0
 77
     2
 78
   300
147
1.0
148
0.0
149
0.0
100
AcDbLayout
  1
Layout1
 70
     1
 71
     1
 10
0.0
 20
0.0
 11
12.0
 21
9.0
 12
0.0
 22
0.0
 32
0.0
 14
1.000000000000000E+20
 24
1.000000000000000E+20
 34
1.000000000000000E+20
 15
-1.000000000000000E+20
 25
-1.000000000000000E+20
 35
-1.000000000000000E+20
146
0.0
 13
0.0
 23
0.0
 33
0.0
 16
1.0
 26
0.0
 36
0.0
 17
0.0
 27
1.0
 37
0.0
 76
     0
330
1B
  0
LAYOUT
  5
26
102
{ACAD_REACTORS
330
1A
102
}
330
1A
100
AcDbPlotSettings
  1

  2
none_device
  4

  6

 40
0.0
 41
0.0
 42
0.0
 43
0.0
 44
0.0
 45
0.0
 46
0.0
 47
0.0
 48
0.0
 49
0.0
140
0.0
141
0.0
142
1.0
143
1.0
 70
   688
 72
     0
 73
     0
 74
     5
  7

 75
    16
 76
     0
 77
     2
 78
   300
147
1.0
148
0.0
149
0.0
100
AcDbLayout
  1
Layout2
 70
     1
 71
     2
 10
0.0
 20
0.0
 11
0.0
 21
0.0
 12
0.0
 22
0.0
 32
0.0
 14
0.0
 24
0.0
 34
0.0
 15
0.0
 25
0.0
 35
0.0
146
0.0
 13
0.0
 23
0.0
 33
0.0
 16
1.0
 26
0.0
 36
0.0
 17
0.0
 27
1.0
 37
0.0
 76
     0
330
23
  0
LAYOUT
  5
22
102
{ACAD_REACTORS
330
1A
102
}
330
1A
100
AcDbPlotSettings
  1

  2
none_device
  4

  6

 40
0.0
 41
0.0
 42
0.0
 43
0.0
 44
0.0
 45
0.0
 46
0.0
 47
0.0
 48
0.0
 49
0.0
140
0.0
141
0.0
142
1.0
143
1.0
 70
  1712
 72
     0
 73
     0
 74
     0
  7

 75
     0
 76
     0
 77
     2
 78
   300
147
1.0
148
0.0
149
0.0
100
AcDbLayout
  1
Model
 70
     1
 71
     0
 10
0.0
 20
0.0
 11
12.0
 21
9.0
 12
0.0
 22
0.0
 32
0.0
 14
1.000000000000000E+20
 24
1.000000000000000E+20
 34
1.000000000000000E+20
 15
-1.000000000000000E+20
 25
-1.000000000000000E+20
 35
-1.000000000000000E+20
146
0.0
 13
0.0
 23
0.0
 33
0.0
 16
1.0
 26
0.0
 36
0.0
 17
0.0
 27
1.0
 37
0.0
 76
     0
330
1F
331
29
  0
MATERIAL
  5
3D
102
{ACAD_REACTORS
330
3B
102
}
330
3B
100
AcDbMaterial
  1
ByBlock
 72
     1
 94
      127
  0
MATERIAL
  5
3C
102
{ACAD_REACTORS
330
3B
102
}
330
3B
100
AcDbMaterial
  1
ByLayer
 72
     1
 94
      127
  0
MATERIAL
  5
3E
102
{ACAD_REACTORS
330
3B
102
}
330
3B
100
AcDbMaterial
  1
Global
 72
     1
 94
      127
  0
MLINESTYLE
  5
18
102
{ACAD_REACTORS
330
17
102
}
330
17
100
AcDbMlineStyle
  2
Standard
 70
     0
  3

 62
   256
 51
90.0
 52
90.0
 71
     2
 49
0.5
 62
   256
  6
BYLAYER
 49
-0.5
 62
   256
  6
BYLAYER
  0
ACDBPLACEHOLDER
  5
F
102
{ACAD_REACTORS
330
E
102
}
330
E
  0
VISUALSTYLE
  5
2F
102
{ACAD_REACTORS
330
2A
102
}
330
2A
100
AcDbVisualStyle
  2
2dWireframe
 70
     4
177
     2
291
     0
 71
     0
176
     1
 72
     2
176
     1
 73
     0
176
     1
 90
        0
176
     1
 40
-0.6
176
     1
 41
-30.0
176
     1
 62
     5
 63
     7
421
 16777215
176
     1
 74
     1
176
     1
 91
        4
176
     1
 64
     7
176
     1
 65
   257
176
     1
 75
     1
176
     1
175
     1
176
     1
 42
1.0
176
     1
 92
        0
176
     1
 66
   257
176
     1
 43
1.0
176
     1
 76
     1
176
     1
 77
     6
176
     1
 78
     2
176
     1
 67
     7
176
     1
 79
     5
176
     1
170
     0
176
     1
171
     0
176
     1
290
     0
176
     1
 93
        1
176
     1
 44
0.0
176
     1
173
     0
176
     1
  0
VISUALSTYLE
  5
31
102
{ACAD_REACTORS
330
2A
102
}
330
2A
100
AcDbVisualStyle
  2
3D Hidden
 70
     6
177
     2
291
     0
 71
     1
176
     1
 72
     2
176
     1
 73
     2
176
     1
 90
        0
176
     1
 40
-0.6
176
     1
 41
-30.0
176
     1
 62
     5
 63
     7
421
 16777215
176
     1
 74
     2
176
     1
 91
        2
176
     1
 64
     7
176
     1
 65
   257
176
     1
 75
     2
176
     1
175
     1
176
     1
 42
40.0
176
     1
 92
        0
176
     1
 66
   257
176
     1
 43
1.0
176
     1
 76
     1
176
     1
 77
     6
176
     1
 78
     2
176
     1
 67
     7
176
     1
 79
     3
176
     1
170
     0
176
     1
171
     0
176
     1
290
     0
176
     1
 93
        1
176
     1
 44
0.0
176
     1
173
     0
176
     1
  0
VISUALSTYLE
  5
30
102
{ACAD_REACTORS
330
2A
102
}
330
2A
100
AcDbVisualStyle
  2
3dWireframe
 70
     5
177
     2
291
     0
 71
     0
176
     1
 72
     2
176
     1
 73
     0
176
     1
 90
        0
176
     1
 40
-0.6
176
     1
 41
-30.0
176
     1
 62
     5
 63
     7
421
 16777215
176
     1
 74
     1
176
     1
 91
        4
176
     1
 64
     7
176
     1
 65
   257
176
     1
 75
     1
176
     1
175
     1
176
     1
 42
1.0
176
     1
 92
        0
176
     1
 66
   257
176
     1
 43
1.0
176
     1
 76
     1
176
     1
 77
     6
176
     1
 78
     2
176
     1
 67
     7
176
     1
 79
     5
176
     1
170
     0
176
     1
171
     0
176
     1
290
     0
176
     1
 93
        1
176
     1
 44
0.0
176
     1
173
     0
176
     1
  0
VISUALSTYLE
  5
32
102
{ACAD_REACTORS
330
2A
102
}
330
2A
100
AcDbVisualStyle
  2
Basic
 70
     7
177
     2
291
     1
 71
     1
176
     1
 72
     0
176
     1
 73
     1
176
     1
 90
        0
176
     1
 40
-0.6
176
     1
 41
-30.0
176
     1
 62
     5
 63
     7
421
 16777215
176
     1
 74
     0
176
     1
 91
        4
176
     1
 64
     7
176
     1
 65
   257
176
     1
 75
     1
176
     1
175
     1
176
     1
 42
1.0
176
     1
 92
        8
176
     1
 66
     7
176
     1
 43
1.0
176
     1
 76
     1
176
     1
 77
     6
176
     1
 78
     2
176
     1
 67
     7
176
     1
 79
     5
176
     1
170
     0
176
     1
171
     0
176
     1
290
     0
176
     1
 93
        1
176
     1
 44
0.0
176
     1
173
     0
176
     1
  0
VISUALSTYLE
  5
36
102
{ACAD_REACTORS
330
2A
102
}
330
2A
100
AcDbVisualStyle
  2
Brighten
 70
    12
177
     2
291
     1
 71
     2
176
     1
 72
     2
176
     1
 73
     0
176
     1
 90
        0
176
     1
 40
-0.6
176
     1
 41
-30.0
176
     1
 62
     5
 63
     7
421
 16777215
176
     1
 74
     1
176
     1
 91
        4
176
     1
 64
     7
176
     1
 65
   257
176
     1
 75
     1
176
     1
175
     1
176
     1
 42
1.0
176
     1
 92
        8
176
     1
 66
     7
176
     1
 43
1.0
176
     1
 76
     1
176
     1
 77
     6
176
     1
 78
     2
176
     1
 67
     7
176
     1
 79
     5
176
     1
170
     0
176
     1
171
     0
176
     1
290
     0
176
     1
 93
        1
176
     1
 44
50.0
176
     1
173
     0
176
     1
  0
VISUALSTYLE
  5
3A
102
{ACAD_REACTORS
330
2A
102
}
330
2A
100
AcDbVisualStyle
  2
ColorChange
 70
    16
177
     2
291
     1
 71
     2
176
     1
 72
     2
176
     1
 73
     3
176
     1
 90
        0
176
     1
 40
-0.6
176
     1
 41
-30.0
176
     1
 62
     5
 63
     8
421
  8421504
176
     1
 74
     1
176
     1
 91
        4
176
     1
 64
     7
176
     1
 65
   257
176
     1
 75
     1
176
     1
175
     1
176
     1
 42
1.0
176
     1
 92
        8
176
     1
 66
     8
424
  8421504
176
     1
 43
1.0
176
     1
 76
     1
176
     1
 77
     6
176
     1
 78
     2
176
     1
 67
     7
176
     1
 79
     5
176
     1
170
     0
176
     1
171
     0
176
     1
290
     0
176
     1
 93
        1
176
     1
 44
0.0
176
     1
173
     0
176
     1
  0
VISUALSTYLE
  5
34
102
{ACAD_REACTORS
330
2A
102
}
330
2A
100
AcDbVisualStyle
  2
Conceptual
 70
     9
177
     2
291
     0
 71
     3
176
     1
 72
     2
176
     1
 73
     0
176
     1
 90
        0
176
     1
 40
-0.6
176
     1
 41
-30.0
176
     1
 62
     5
 63
     7
421
 16777215
176
     1
 74
     2
176
     1
 91
        2
176
     1
 64
     7
176
     1
 65
   257
176
     1
 75
     1
176
     1
175
     1
176
     1
 42
40.0
176
     1
 92
        8
176
     1
 66
     7
176
     1
 43
1.0
176
     1
 76
     1
176
     1
 77
     6
176
     1
 78
     2
176
     1
 67
     7
176
     1
 79
     3
176
     1
170
     0
176
     1
171
     0
176
     1
290
     0
176
     1
 93
        1
176
     1
 44
0.0
176
     1
173
     0
176
     1
  0
VISUALSTYLE
  5
35
102
{ACAD_REACTORS
330
2A
102
}
330
2A
100
AcDbVisualStyle
  2
Dim
 70
    11
177
     2
291
     1
 71
     2
176
     1
 72
     2
176
     1
 73
     0
176
     1
 90
        0
176
     1
 40
-0.6
176
     1
 41
-30.0
176
     1
 62
     5
 63
     7
421
 16777215
176
     1
 74
     1
176
     1
 91
        4
176
     1
 64
     7
176
     1
 65
   257
176
     1
 75
     1
176
     1
175
     1
176
     1
 42
1.0
176
     1
 92
        8
176
     1
 66
     7
176
     1
 43
1.0
176
     1
 76
     1
176
     1
 77
     6
176
     1
 78
     2
176
     1
 67
     7
176
     1
 79
     5
176
     1
170
     0
176
     1
171
     0
176
     1
290
     0
176
     1
 93
        1
176
     1
 44
-50.0
176
     1
173
     0
176
     1
  0
VISUALSTYLE
  5
39
102
{ACAD_REACTORS
330
2A
102
}
330
2A
100
AcDbVisualStyle
  2
Facepattern
 70
    15
177
     2
291
     1
 71
     2
176
     1
 72
     2
176
     1
 73
     0
176
     1
 90
        0
176
     1
 40
-0.6
176
     1
 41
-30.0
176
     1
 62
     5
 63
     7
421
 16777215
176
     1
 74
     1
176
     1
 91
        4
176
     1
 64
     7
176
     1
 65
   257
176
     1
 75
     1
176
     1
175
     1
176
     1
 42
1.0
176
     1
 92
        8
176
     1
 66
     7
176
     1
 43
1.0
176
     1
 76
     1
176
     1
 77
     6
176
     1
 78
     2
176
     1
 67
     7
176
     1
 79
     5
176
     1
170
     0
176
     1
171
     0
176
     1
290
     0
176
     1
 93
        1
176
     1
 44
0.0
176
     1
173
     0
176
     1
  0
VISUALSTYLE
  5
2B
102
{ACAD_REACTORS
330
2A
102
}
330
2A
100
AcDbVisualStyle
  2
Flat
 70
     0
177
     2
291
     1
 71
     2
176
     1
 72
     1
176
     1
 73
     1
176
     1
 90
        2
176
     1
 40
-0.6
176
     1
 41
30.0
176
     1
 62
     5
 63
     7
421
 16777215
176
     1
 74
     0
176
     1
 91
        4
176
     1
 64
     7
176
     1
 65
   257
176
     1
 75
     1
176
     1
175
     1
176
     1
 42
1.0
176
     1
 92
        8
176
     1
 66
     7
176
     1
 43
1.0
176
     1
 76
     1
176
     1
 77
     6
176
     1
 78
     2
176
     1
 67
     7
176
     1
 79
     5
176
     1
170
     0
176
     1
171
     0
176
     1
290
     0
176
     1
 93
       13
176
     1
 44
0.0
176
     1
173
     0
176
     1
  0
VISUALSTYLE
  5
2C
102
{ACAD_REACTORS
330
2A
102
}
330
2A
100
AcDbVisualStyle
  2
FlatWithEdges
 70
     1
177
     2
291
     1
 71
     2
176
     1
 72
     1
176
     1
 73
     1
176
     1
 90
        2
176
     1
 40
-0.6
176
     1
 41
30.0
176
     1
 62
     5
 63
     7
421
 16777215
176
     1
 74
     1
176
     1
 91
        4
176
     1
 64
     7
176
     1
 65
   257
176
     1
 75
     1
176
     1
175
     1
176
     1
 42
1.0
176
     1
 92
        0
176
     1
 66
   257
176
     1
 43
1.0
176
     1
 76
     1
176
     1
 77
     6
176
     1
 78
     2
176
     1
 67
     7
176
     1
 79
     5
176
     1
170
     0
176
     1
171
     0
176
     1
290
     0
176
     1
 93
       13
176
     1
 44
0.0
176
     1
173
     0
176
     1
  0
VISUALSTYLE
  5
2D
102
{ACAD_REACTORS
330
2A
102
}
330
2A
100
AcDbVisualStyle
  2
Gouraud
 70
     2
177
     2
291
     1
 71
     2
176
     1
 72
     2
176
     1
 73
     1
176
     1
 90
        2
176
     1
 40
-0.6
176
     1
 41
30.0
176
     1
 62
     5
 63
     7
421
 16777215
176
     1
 74
     0
176
     1
 91
        4
176
     1
 64
     7
176
     1
 65
   257
176
     1
 75
     1
176
     1
175
     1
176
     1
 42
1.0
176
     1
 92
        0
176
     1
 66
     7
176
     1
 43
1.0
176
     1
 76
     1
176
     1
 77
     6
176
     1
 78
     2
176
     1
 67
     7
176
     1
 79
     5
176
     1
170
     0
176
     1
171
     0
176
     1
290
     0
176
     1
 93
       13
176
     1
 44
0.0
176
     1
173
     0
176
     1
  0
VISUALSTYLE
  5
2E
102
{ACAD_REACTORS
330
2A
102
}
330
2A
100
AcDbVisualStyle
  2
GouraudWithEdges
 70
     3
177
     2
291
     1
 71
     2
176
     1
 72
     2
176
     1
 73
     1
176
     1
 90
        2
176
     1
 40
-0.6
176
     1
 41
30.0
176
     1
 62
     5
 63
     7
421
 16777215
176
     1
 74
     1
176
     1
 91
        4
176
     1
 64
     7
176
     1
 65
   257
176
     1
 75
     1
176
     1
175
     1
176
     1
 42
1.0
176
     1
 92
        0
176
     1
 66
   257
176
     1
 43
1.0
176
     1
 76
     1
176
     1
 77
     6
176
     1
 78
     2
176
     1
 67
     7
176
     1
 79
     5
176
     1
170
     0
176
     1
171
     0
176
     1
290
     0
176
     1
 93
       13
176
     1
 44
0.0
176
     1
173
     0
176
     1
  0
VISUALSTYLE
  5
38
102
{ACAD_REACTORS
330
2A
102
}
330
2A
100
AcDbVisualStyle
  2
Linepattern
 70
    14
177
     2
291
     1
 71
     2
176
     1
 72
     2
176
     1
 73
     0
176
     1
 90
        0
176
     1
 40
-0.6
176
     1
 41
-30.0
176
     1
 62
     5
 63
     7
421
 16777215
176
     1
 74
     1
176
     1
 91
        4
176
     1
 64
     7
176
     1
 65
   257
176
     1
 75
     7
176
     1
175
     7
176
     1
 42
1.0
176
     1
 92
        8
176
     1
 66
     7
176
     1
 43
1.0
176
     1
 76
     1
176
     1
 77
     6
176
     1
 78
     2
176
     1
 67
     7
176
     1
 79
     5
176
     1
170
     0
176
     1
171
     0
176
     1
290
     0
176
     1
 93
        1
176
     1
 44
0.0
176
     1
173
     0
176
     1
  0
VISUALSTYLE
  5
33
102
{ACAD_REACTORS
330
2A
102
}
330
2A
100
AcDbVisualStyle
  2
Realistic
 70
     8
177
     2
291
     0
 71
     2
176
     1
 72
     2
176
     1
 73
     0
176
     1
 90
        0
176
     1
 40
-0.6
176
     1
 41
-30.0
176
     1
 62
     5
 63
     7
421
 16777215
176
     1
 74
     1
176
     1
 91
        0
176
     1
 64
     7
176
     1
 65
   257
176
     1
 75
     1
176
     1
175
     1
176
     1
 42
1.0
176
     1
 92
        8
176
     1
 66
     8
424
  7895160
176
     1
 43
1.0
176
     1
 76
     1
176
     1
 77
     6
176
     1
 78
     2
176
     1
 67
     7
176
     1
 79
     5
176
     1
170
     0
176
     1
171
     0
176
     1
290
     0
176
     1
 93
       13
176
     1
 44
0.0
176
     1
173
     0
176
     1
  0
VISUALSTYLE
  5
37
102
{ACAD_REACTORS
330
2A
102
}
330
2A
100
AcDbVisualStyle
  2
Thicken
 70
    13
177
     2
291
     1
 71
     2
176
     1
 72
     2
176
     1
 73
     0
176
     1
 90
        0
176
     1
 40
-0.6
176
     1
 41
-30.0
176
     1
 62
     5
 63
     7
421
 16777215
176
     1
 74
     1
176
     1
 91
        4
176
     1
 64
     7
176
     1
 65
   257
176
     1
 75
     1
176
     1
175
     1
176
     1
 42
1.0
176
     1
 92
       12
176
     1
 66
     7
176
     1
 43
1.0
176
     1
 76
     1
176
     1
 77
     6
176
     1
 78
     2
176
     1
 67
     7
176
     1
 79
     5
176
     1
170
     0
176
     1
171
     0
176
     1
290
     0
176
     1
 93
        1
176
     1
 44
0.0
176
     1
173
     0
176
     1
  0
ENDSEC
  0
EOF
