  0
SECTION
  2
HEADER
  9
$ACADVER
  1
AC1018
  9
$ACADMAINTVER
 70
     0
  9
$DWGCODEPAGE
  3
ANSI_1252
  9
$INSBASE
 10
0.0
 20
0.0
 30
0.0
  9
$EXTMIN
 10
1.000000000000000E+20
 20
1.000000000000000E+20
 30
1.000000000000000E+20
  9
$EXTMAX
 10
-1.000000000000000E+20
 20
-1.000000000000000E+20
 30
-1.000000000000000E+20
  9
$LIMMIN
 10
0.0
 20
0.0
  9
$LIMMAX
 10
12.0
 20
9.0
  9
$ORTHOMODE
 70
     0
  9
$REGENMODE
 70
     1
  9
$FILLMODE
 70
     1
  9
$QTEXTMODE
 70
     0
  9
$MIRRTEXT
 70
     1
  9
$LTSCALE
 40
1.0
  9
$ATTMODE
 70
     1
  9
$TEXTSIZE
 40
0.2
  9
$TRACEWID
 40
0.05
  9
$TEXTSTYLE
  7
Standard
  9
$CLAYER
  8
0
  9
$CELTYPE
  6
ByLayer
  9
$CECOLOR
 62
   256
  9
$CELTSCALE
 40
1.0
  9
$DISPSILH
 70
     0
  9
$DIMSCALE
 40
1.0
  9
$DIMASZ
 40
0.18
  9
$DIMEXO
 40
0.0625
  9
$DIMDLI
 40
0.38
  9
$DIMRND
 40
0.0
  9
$DIMDLE
 40
0.0
  9
$DIMEXE
 40
0.18
  9
$DIMTP
 40
0.0
  9
$DIMTM
 40
0.0
  9
$DIMTXT
 40
0.18
  9
$DIMCEN
 40
0.09
  9
$DIMTSZ
 40
0.0
  9
$DIMTOL
 70
     0
  9
$DIMLIM
 70
     0
  9
$DIMTIH
 70
     1
  9
$DIMTOH
 70
     1
  9
$DIMSE1
 70
     0
  9
$DIMSE2
 70
     0
  9
$DIMTAD
 70
     0
  9
$DIMZIN
 70
     0
  9
$DIMBLK
  1

  9
$DIMASO
 70
     1
  9
$DIMSHO
 70
     1
  9
$DIMPOST
  1

  9
$DIMAPOST
  1

  9
$DIMALT
 70
     0
  9
$DIMALTD
 70
     2
  9
$DIMALTF
 40
25.4
  9
$DIMLFAC
 40
1.0
  9
$DIMTOFL
 70
     0
  9
$DIMTVP
 40
0.0
  9
$DIMTIX
 70
     0
  9
$DIMSOXD
 70
     0
  9
$DIMSAH
 70
     0
  9
$DIMBLK1
  1

  9
$DIMBLK2
  1

  9
$DIMSTYLE
  2
Standard
  9
$DIMCLRD
 70
     0
  9
$DIMCLRE
 70
     0
  9
$DIMCLRT
 70
     0
  9
$DIMTFAC
 40
1.0
  9
$DIMGAP
 40
0.09
  9
$DIMJUST
 70
     0
  9
$DIMSD1
 70
     0
  9
$DIMSD2
 70
     0
  9
$DIMTOLJ
 70
     1
  9
$DIMTZIN
 70
     0
  9
$DIMALTZ
 70
     0
  9
$DIMALTTZ
 70
     0
  9
$DIMUPT
 70
     0
  9
$DIMDEC
 70
     4
  9
$DIMTDEC
 70
     4
  9
$DIMALTU
 70
     2
  9
$DIMALTTD
 70
     2
  9
$DIMTXSTY
  7
Standard
  9
$DIMAUNIT
 70
     0
  9
$DIMADEC
 70
     0
  9
$DIMALTRND
 40
0.0
  9
$DIMAZIN
 70
     0
  9
$DIMDSEP
 70
    46
  9
$DIMATFIT
 70
     3
  9
$DIMFRAC
 70
     0
  9
$DIMLDRBLK
  1

  9
$DIMLUNIT
 70
     2
  9
$DIMLWD
 70
    -2
  9
$DIMLWE
 70
    -2
  9
$DIMTMOVE
 70
     0
  9
$LUNITS
 70
     2
  9
$LUPREC
 70
     4
  9
$SKETCHINC
 40
0.1
  9
$FILLETRAD
 40
0.5
  9
$AUNITS
 70
     0
  9
$AUPREC
 70
     0
  9
$MENU
  1
.
  9
$ELEVATION
 40
0.0
  9
$PELEVATION
 40
0.0
  9
$THICKNESS
 40
0.0
  9
$LIMCHECK
 70
     0
  9
$CHAMFERA
 40
0.5
  9
$CHAMFERB
 40
0.5
  9
$CHAMFERC
 40
1.0
  9
$CHAMFERD
 40
0.0
  9
$SKPOLY
 70
     0
  9
$TDCREATE
 40
2460417.967002118
  9
$TDUCREATE
 40
2460417.883668785
  9
$TDUPDATE
 40
2460417.96700213
  9
$TDUUPDATE
 40
2460417.883668796
  9
$TDINDWG
 40
0.0000000116
  9
$TDUSRTIMER
 40
0.0000000116
  9
$USRTIMER
 70
     1
  9
$ANGBASE
 50
0.0
  9
$ANGDIR
 70
     0
  9
$PDMODE
 70
     0
  9
$PDSIZE
 40
0.0
  9
$PLINEWID
 40
0.0
  9
$SPLFRAME
 70
     0
  9
$SPLINETYPE
 70
     6
  9
$SPLINESEGS
 70
     8
  9
$HANDSEED
  5
C9
  9
$SURFTAB1
 70
     6
  9
$SURFTAB2
 70
     6
  9
$SURFTYPE
 70
     6
  9
$SURFU
 70
     6
  9
$SURFV
 70
     6
  9
$UCSBASE
  2

  9
$UCSNAME
  2

  9
$UCSORG
 10
0.0
 20
0.0
 30
0.0
  9
$UCSXDIR
 10
1.0
 20
0.0
 30
0.0
  9
$UCSYDIR
 10
0.0
 20
1.0
 30
0.0
  9
$UCSORTHOREF
  2

  9
$UCSORTHOVIEW
 70
     0
  9
$UCSORGTOP
 10
0.0
 20
0.0
 30
0.0
  9
$UCSORGBOTTOM
 10
0.0
 20
0.0
 30
0.0
  9
$UCSORGLEFT
 10
0.0
 20
0.0
 30
0.0
  9
$UCSORGRIGHT
 10
0.0
 20
0.0
 30
0.0
  9
$UCSORGFRONT
 10
0.0
 20
0.0
 30
0.0
  9
$UCSORGBACK
 10
0.0
 20
0.0
 30
0.0
  9
$PUCSBASE
  2

  9
$PUCSNAME
  2

  9
$PUCSORG
 10
0.0
 20
0.0
 30
0.0
  9
$PUCSXDIR
 10
1.0
 20
0.0
 30
0.0
  9
$PUCSYDIR
 10
0.0
 20
1.0
 30
0.0
  9
$PUCSORTHOREF
  2

  9
$PUCSORTHOVIEW
 70
     0
  9
$PUCSORGTOP
 10
0.0
 20
0.0
 30
0.0
  9
$PUCSORGBOTTOM
 10
0.0
 20
0.0
 30
0.0
  9
$PUCSORGLEFT
 10
0.0
 20
0.0
 30
0.0
  9
$PUCSORGRIGHT
 10
0.0
 20
0.0
 30
0.0
  9
$PUCSORGFRONT
 10
0.0
 20
0.0
 30
0.0
  9
$PUCSORGBACK
 10
0.0
 20
0.0
 30
0.0
  9
$USERI1
 70
     0
  9
$USERI2
 70
     0
  9
$USERI3
 70
     0
  9
$USERI4
 70
     0
  9
$USERI5
 70
     0
  9
$USERR1
 40
0.0
  9
$USERR2
 40
0.0
  9
$USERR3
 40
0.0
  9
$USERR4
 40
0.0
  9
$USERR5
 40
0.0
  9
$WORLDVIEW
 70
     1
  9
$SHADEDGE
 70
     3
  9
$SHADEDIF
 70
    70
  9
$TILEMODE
 70
     1
  9
$MAXACTVP
 70
    64
  9
$PINSBASE
 10
0.0
 20
0.0
 30
0.0
  9
$PLIMCHECK
 70
     0
  9
$PEXTMIN
 10
1.000000000000000E+20
 20
1.000000000000000E+20
 30
1.000000000000000E+20
  9
$PEXTMAX
 10
-1.000000000000000E+20
 20
-1.000000000000000E+20
 30
-1.000000000000000E+20
  9
$PLIMMIN
 10
0.0
 20
0.0
  9
$PLIMMAX
 10
12.0
 20
9.0
  9
$UNITMODE
 70
     0
  9
$VISRETAIN
 70
     1
  9
$PLINEGEN
 70
     0
  9
$PSLTSCALE
 70
     1
  9
$TREEDEPTH
 70
  3020
  9
$CMLSTYLE
  2
Standard
  9
$CMLJUST
 70
     0
  9
$CMLSCALE
 40
1.0
  9
$PROXYGRAPHICS
 70
     1
  9
$MEASUREMENT
 70
     0
  9
$CELWEIGHT
370
    -1
  9
$ENDCAPS
280
     0
  9
$JOINSTYLE
280
     0
  9
$LWDISPLAY
290
     1
  9
$INSUNITS
 70
     1
  9
$HYPERLINKBASE
  1

  9
$STYLESHEET
  1

  9
$XEDIT
290
     1
  9
$CEPSNTYPE
380
     0
  9
$PSTYLEMODE
290
     1
  9
$FINGERPRINTGUID
  2
{C409F7C3-71BC-4897-8047-B7DA3DA1FBD2}
  9
$VERSIONGUID
  2
{FAEB1C32-E019-11D5-929B-00C0DF256EC4}
  9
$EXTNAMES
290
     1
  9
$PSVPSCALE
 40
0.0
  9
$OLESTARTUP
290
     0
  9
$SORTENTS
280
   127
  9
$INDEXCTL
280
     0
  9
$HIDETEXT
280
     1
  9
$XCLIPFRAME
290
     0
  9
$HALOGAP
280
     0
  9
$OBSCOLOR
 70
   257
  9
$OBSLTYPE
280
     0
  9
$INTERSECTIONDISPLAY
280
     0
  9
$INTERSECTIONCOLOR
 70
   257
  9
$DIMASSOC
280
     2
  9
$PROJECTNAME
  1

  0
ENDSEC
  0
SECTION
  2
CLASSES
  0
CLASS
  1
ACDBDICTIONARYWDFLT
  2
AcDbDictionaryWithDefault
  3
ObjectDBX Classes
 90
        0
 91
        3
280
     0
281
     0
  0
CLASS
  1
VISUALSTYLE
  2
AcDbVisualStyle
  3
ObjectDBX Classes
 90
     4095
 91
        3
280
     0
281
     0
  0
ENDSEC
  0
SECTION
  2
TABLES
  0
TABLE
  2
VPORT
  5
8
330
0
100
AcDbSymbolTable
 70
     1
  0
VPORT
  5
29
330
8
100
AcDbSymbolTableRecord
100
AcDbViewportTableRecord
  2
*Active
 70
     0
 10
0.0
 20
0.0
 11
1.0
 21
1.0
 12
0.0
 22
0.0
 13
0.0
 23
0.0
 14
0.5
 24
0.5
 15
0.5
 25
0.5
 16
0.0
 26
0.0
 36
1.0
 17
10.33380506469085
 27
67.57798534823137
 37
0.0
 40
68.05763737990398
 41
1.327199507363603
 42
50.0
 43
0.0
 44
0.0
 50
0.0
 51
0.0
 71
     0
 72
   100
 73
     1
 74
     3
 75
     0
 76
     0
 77
     0
 78
     0
281
     0
 65
     1
110
0.0
120
0.0
130
0.0
111
1.0
121
0.0
131
0.0
112
0.0
122
1.0
132
0.0
 79
     0
146
0.0
  0
ENDTAB
  0
TABLE
  2
LTYPE
  5
5
330
0
100
AcDbSymbolTable
 70
     1
  0
LTYPE
  5
14
330
5
100
AcDbSymbolTableRecord
100
AcDbLinetypeTableRecord
  2
ByBlock
 70
     0
  3

 72
    65
 73
     0
 40
0.0
  0
LTYPE
  5
15
330
5
100
AcDbSymbolTableRecord
100
AcDbLinetypeTableRecord
  2
ByLayer
 70
     0
  3

 72
    65
 73
     0
 40
0.0
  0
LTYPE
  5
16
330
5
100
AcDbSymbolTableRecord
100
AcDbLinetypeTableRecord
  2
Continuous
 70
     0
  3
Solid line
 72
    65
 73
     0
 40
0.0
  0
ENDTAB
  0
TABLE
  2
LAYER
  5
2
330
0
100
AcDbSymbolTable
 70
     2
  0
LAYER
  5
10
330
2
100
AcDbSymbolTableRecord
100
AcDbLayerTableRecord
  2
0
 70
     0
 62
     7
  6
Continuous
370
    -3
390
F
  0
LAYER
  5
3B
330
2
100
AcDbSymbolTableRecord
100
AcDbLayerTableRecord
  2
Capa 1
 70
     0
 62
     7
  6
Continuous
370
    -3
390
F
  0
ENDTAB
  0
TABLE
  2
STYLE
  5
3
330
0
100
AcDbSymbolTable
 70
     1
  0
STYLE
  5
11
330
3
100
AcDbSymbolTableRecord
100
AcDbTextStyleTableRecord
  2
Standard
 70
     0
 40
0.0
 41
1.0
 50
0.0
 71
     0
 42
0.2
  3
txt
  4

  0
ENDTAB
  0
TABLE
  2
VIEW
  5
6
330
0
100
AcDbSymbolTable
 70
     0
  0
ENDTAB
  0
TABLE
  2
UCS
  5
7
330
0
100
AcDbSymbolTable
 70
     0
  0
ENDTAB
  0
TABLE
  2
APPID
  5
9
330
0
100
AcDbSymbolTable
 70
     1
  0
APPID
  5
12
330
9
100
AcDbSymbolTableRecord
100
AcDbRegAppTableRecord
  2
ACAD
 70
     0
  0
ENDTAB
  0
TABLE
  2
DIMSTYLE
  5
A
330
0
100
AcDbSymbolTable
 70
     1
100
AcDbDimStyleTable
  0
DIMSTYLE
105
27
330
A
100
AcDbSymbolTableRecord
100
AcDbDimStyleTableRecord
  2
Standard
 70
     0
340
11
  0
ENDTAB
  0
TABLE
  2
BLOCK_RECORD
  5
1
330
0
100
AcDbSymbolTable
 70
     2
  0
BLOCK_RECORD
  5
1F
330
1
100
AcDbSymbolTableRecord
100
AcDbBlockTableRecord
  2
*Model_Space
340
22
  0
BLOCK_RECORD
  5
1B
330
1
100
AcDbSymbolTableRecord
100
AcDbBlockTableRecord
  2
*Paper_Space
340
1E
  0
BLOCK_RECORD
  5
23
330
1
100
AcDbSymbolTableRecord
100
AcDbBlockTableRecord
  2
*Paper_Space0
340
26
  0
BLOCK_RECORD
  5
3C
330
1
100
AcDbSymbolTableRecord
100
AcDbBlockTableRecord
  2
block 2
340
0
102
{BLKREFS
331
3D
102
}
  0
ENDTAB
  0
ENDSEC
  0
SECTION
  2
BLOCKS
  0
BLOCK
  5
20
330
1F
100
AcDbEntity
  8
0
100
AcDbBlockBegin
  2
*Model_Space
 70
     0
 71
     0
 10
0.0
 20
0.0
 30
0.0
  3
*Model_Space
  1

  0
ENDBLK
  5
21
330
1F
100
AcDbEntity
  8
0
100
AcDbBlockEnd
  0
BLOCK
  5
1C
330
1B
100
AcDbEntity
 67
     1
  8
0
100
AcDbBlockBegin
  2
*Paper_Space
 70
     0
 71
     0
 10
0.0
 20
0.0
 30
0.0
  3
*Paper_Space
  1

  0
ENDBLK
  5
1D
330
1B
100
AcDbEntity
 67
     1
  8
0
100
AcDbBlockEnd
  0
BLOCK
  5
24
330
23
100
AcDbEntity
  8
0
100
AcDbBlockBegin
  2
*Paper_Space0
 70
     0
 71
     0
 10
0.0
 20
0.0
 30
0.0
  3
*Paper_Space0
  1

  0
ENDBLK
  5
25
330
23
100
AcDbEntity
  8
0
100
AcDbBlockEnd
  0
BLOCK
  5
3E
330
3C
100
AcDbEntity
  8
0
100
AcDbBlockBegin
  2
block 2
 70
     0
 71
     0
 10
0.0
 20
0.0
 30
0.0
  3
block 2
  1

  0
SPLINE
  5
40
330
3C
100
AcDbEntity
  8
Capa 1
370
     0
100
AcDbSpline
210
0.0
220
0.0
230
1.0
 70
    11
 71
     3
 72
    29
 73
    25
 74
     0
 42
0.0000000001
 43
0.0000000001
 40
0.0
 40
0.0
 40
0.0
 40
0.0
 40
1.0
 40
1.0
 40
1.0
 40
2.0
 40
2.0
 40
2.0
 40
3.0
 40
3.0
 40
3.0
 40
4.0
 40
4.0
 40
4.0
 40
5.0
 40
5.0
 40
5.0
 40
6.0
 40
6.0
 40
6.0
 40
7.0
 40
7.0
 40
7.0
 40
8.0
 40
8.0
 40
8.0
 40
8.0
 10
-15.97785332174338
 20
65.57601452353654
 30
0.0
 10
-13.70255723398755
 20
63.51236787691704
 30
0.0
 10
-14.49627278283426
 20
62.77160344567862
 30
0.0
 10
-11.69182725402149
 20
63.77695121018423
 30
0.0
 10
-8.887381725208709
 20
64.78229897468984
 30
0.0
 10
-6.030019529742495
 20
67.05764673887795
 30
0.0
 10
-3.437240667543467
 20
66.63431340565045
 30
0.0
 10
-0.84446180534444
 20
66.21098007242294
 30
0.0
 10
-1.585260687537712
 20
64.47106904855237
 30
0.0
 10
0.6900526256955424
 20
64.78543401158142
 30
0.0
 10
2.965365938928797
 20
65.09979897461047
 30
0.0
 10
5.61102701682641
 20
65.7347989744517
 30
0.0
 10
5.981443683400472
 20
66.63431340565045
 30
0.0
 10
6.351860349974534
 20
67.53382783684917
 30
0.0
 10
4.450753308349117
 20
69.75625893438385
 30
0.0
 10
1.617954643692733
 20
69.33292560115635
 30
0.0
 10
-1.21484402096365
 20
68.90959226792884
 30
0.0
 10
-5.592130668089814
 20
68.95434405828225
 30
0.0
 10
-9.36361449961222
 20
68.43337671900277
 30
0.0
 10
-12.38718532676431
 20
68.01572779332592
 30
0.0
 10
-12.46723212036409
 20
67.96167424516236
 30
0.0
 10
-12.3800884300647
 20
67.95664440575389
 30
0.0
 10
-13.24673665033415
 20
67.94196829898672
 30
0.0
 10
-18.20193806511097
 20
67.59322128301488
 30
0.0
 10
-15.97785332174338
 20
65.57601452353654
 30
0.0
  0
SPLINE
  5
41
330
3C
100
AcDbEntity
  8
Capa 1
370
     0
100
AcDbSpline
210
0.0
220
0.0
230
1.0
 70
    11
 71
     3
 72
    17
 73
    13
 74
     0
 42
0.0000000001
 43
0.0000000001
 40
0.0
 40
0.0
 40
0.0
 40
0.0
 40
1.0
 40
1.0
 40
1.0
 40
2.0
 40
2.0
 40
2.0
 40
3.0
 40
3.0
 40
3.0
 40
4.0
 40
4.0
 40
4.0
 40
4.0
 10
2.383317056695837
 20
67.61165254386097
 30
0.0
 10
3.282831487894569
 20
66.26389673907639
 30
0.0
 10
5.250359970475604
 20
66.11772133763724
 30
0.0
 10
3.208314072548616
 20
65.79395126393345
 30
0.0
 10
1.166268174621627
 20
65.47018119022967
 30
0.0
 10
0.1080037434625824
 20
64.3715402399835
 30
0.0
 10
-0.7386284720375651
 20
65.79395126393345
 30
0.0
 10
-1.585260687537712
 20
67.2163622878834
 30
0.0
 10
-2.749358452003632
 20
68.22171005238901
 30
0.0
 10
-2.749358452003632
 20
68.22171005238901
 30
0.0
 10
-2.749358452003632
 20
68.22171005238901
 30
0.0
 10
1.483802625497105
 20
68.95940834864555
 30
0.0
 10
2.383317056695837
 20
67.61165254386097
 30
0.0
  0
HATCH
  5
42
330
3C
100
AcDbEntity
  8
Capa 1
 62
    17
420
  7027250
100
AcDbHatch
 10
0.0
 20
0.0
 30
0.0
210
0.0
220
0.0
230
1.0
  2
SOLID
 70
     1
 71
     0
 91
        2
 92
        1
 93
        1
 72
     4
 94
        3
 73
     0
 74
     1
 95
       29
 96
       25
 40
0.0
 40
0.0
 40
0.0
 40
0.0
 40
1.0
 40
1.0
 40
1.0
 40
2.0
 40
2.0
 40
2.0
 40
3.0
 40
3.0
 40
3.0
 40
4.0
 40
4.0
 40
4.0
 40
5.0
 40
5.0
 40
5.0
 40
6.0
 40
6.0
 40
6.0
 40
7.0
 40
7.0
 40
7.0
 40
8.0
 40
8.0
 40
8.0
 40
8.0
 10
-15.97785332174338
 20
65.57601452353654
 10
-13.70255723398755
 20
63.51236787691704
 10
-14.49627278283426
 20
62.77160344567862
 10
-11.69182725402149
 20
63.77695121018423
 10
-8.887381725208709
 20
64.78229897468984
 10
-6.030019529742495
 20
67.05764673887795
 10
-3.437240667543467
 20
66.63431340565045
 10
-0.84446180534444
 20
66.21098007242294
 10
-1.585260687537712
 20
64.47106904855237
 10
0.6900526256955424
 20
64.78543401158142
 10
2.965365938928797
 20
65.09979897461047
 10
5.61102701682641
 20
65.7347989744517
 10
5.981443683400472
 20
66.63431340565045
 10
6.351860349974534
 20
67.53382783684917
 10
4.450753308349117
 20
69.75625893438385
 10
1.617954643692733
 20
69.33292560115635
 10
-1.21484402096365
 20
68.90959226792884
 10
-5.592130668089814
 20
68.95434405828225
 10
-9.36361449961222
 20
68.43337671900277
 10
-12.38718532676431
 20
68.01572779332592
 10
-12.46723212036409
 20
67.96167424516236
 10
-12.3800884300647
 20
67.95664440575389
 10
-13.24673665033415
 20
67.94196829898672
 10
-18.20193806511097
 20
67.59322128301488
 10
-15.97785332174338
 20
65.57601452353654
 97
        0
 92
        1
 93
        1
 72
     4
 94
        3
 73
     0
 74
     1
 95
       17
 96
       13
 40
0.0
 40
0.0
 40
0.0
 40
0.0
 40
1.0
 40
1.0
 40
1.0
 40
2.0
 40
2.0
 40
2.0
 40
3.0
 40
3.0
 40
3.0
 40
4.0
 40
4.0
 40
4.0
 40
4.0
 10
2.383317056695837
 20
67.61165254386097
 10
3.282831487894569
 20
66.26389673907639
 10
5.250359970475604
 20
66.11772133763724
 10
3.208314072548616
 20
65.79395126393345
 10
1.166268174621627
 20
65.47018119022967
 10
0.1080037434625824
 20
64.3715402399835
 10
-0.7386284720375651
 20
65.79395126393345
 10
-1.585260687537712
 20
67.2163622878834
 10
-2.749358452003632
 20
68.22171005238901
 10
-2.749358452003632
 20
68.22171005238901
 10
-2.749358452003632
 20
68.22171005238901
 10
1.483802625497105
 20
68.95940834864555
 10
2.383317056695837
 20
67.61165254386097
 97
        0
 75
     2
 76
     1
 98
        0
  0
SPLINE
  5
43
330
3C
100
AcDbEntity
  8
Capa 1
370
     0
100
AcDbSpline
210
0.0
220
0.0
230
1.0
 70
    11
 71
     3
 72
   302
 73
   298
 74
     0
 42
0.0000000001
 43
0.0000000001
 40
0.0
 40
0.0
 40
0.0
 40
0.0
 40
1.0
 40
1.0
 40
1.0
 40
2.0
 40
2.0
 40
2.0
 40
3.0
 40
3.0
 40
3.0
 40
4.0
 40
4.0
 40
4.0
 40
5.0
 40
5.0
 40
5.0
 40
6.0
 40
6.0
 40
6.0
 40
7.0
 40
7.0
 40
7.0
 40
8.0
 40
8.0
 40
8.0
 40
9.0
 40
9.0
 40
9.0
 40
10.0
 40
10.0
 40
10.0
 40
11.0
 40
11.0
 40
11.0
 40
12.0
 40
12.0
 40
12.0
 40
13.0
 40
13.0
 40
13.0
 40
14.0
 40
14.0
 40
14.0
 40
15.0
 40
15.0
 40
15.0
 40
16.0
 40
16.0
 40
16.0
 40
17.0
 40
17.0
 40
17.0
 40
18.0
 40
18.0
 40
18.0
 40
19.0
 40
19.0
 40
19.0
 40
20.0
 40
20.0
 40
20.0
 40
21.0
 40
21.0
 40
21.0
 40
22.0
 40
22.0
 40
22.0
 40
23.0
 40
23.0
 40
23.0
 40
24.0
 40
24.0
 40
24.0
 40
25.0
 40
25.0
 40
25.0
 40
26.0
 40
26.0
 40
26.0
 40
27.0
 40
27.0
 40
27.0
 40
28.0
 40
28.0
 40
28.0
 40
29.0
 40
29.0
 40
29.0
 40
30.0
 40
30.0
 40
30.0
 40
31.0
 40
31.0
 40
31.0
 40
32.0
 40
32.0
 40
32.0
 40
33.0
 40
33.0
 40
33.0
 40
34.0
 40
34.0
 40
34.0
 40
35.0
 40
35.0
 40
35.0
 40
36.0
 40
36.0
 40
36.0
 40
37.0
 40
37.0
 40
37.0
 40
38.0
 40
38.0
 40
38.0
 40
39.0
 40
39.0
 40
39.0
 40
40.0
 40
40.0
 40
40.0
 40
41.0
 40
41.0
 40
41.0
 40
42.0
 40
42.0
 40
42.0
 40
43.0
 40
43.0
 40
43.0
 40
44.0
 40
44.0
 40
44.0
 40
45.0
 40
45.0
 40
45.0
 40
46.0
 40
46.0
 40
46.0
 40
47.0
 40
47.0
 40
47.0
 40
48.0
 40
48.0
 40
48.0
 40
49.0
 40
49.0
 40
49.0
 40
50.0
 40
50.0
 40
50.0
 40
51.0
 40
51.0
 40
51.0
 40
52.0
 40
52.0
 40
52.0
 40
53.0
 40
53.0
 40
53.0
 40
54.0
 40
54.0
 40
54.0
 40
55.0
 40
55.0
 40
55.0
 40
56.0
 40
56.0
 40
56.0
 40
57.0
 40
57.0
 40
57.0
 40
58.0
 40
58.0
 40
58.0
 40
59.0
 40
59.0
 40
59.0
 40
60.0
 40
60.0
 40
60.0
 40
61.0
 40
61.0
 40
61.0
 40
62.0
 40
62.0
 40
62.0
 40
63.0
 40
63.0
 40
63.0
 40
64.0
 40
64.0
 40
64.0
 40
65.0
 40
65.0
 40
65.0
 40
66.0
 40
66.0
 40
66.0
 40
67.0
 40
67.0
 40
67.0
 40
68.0
 40
68.0
 40
68.0
 40
69.0
 40
69.0
 40
69.0
 40
70.0
 40
70.0
 40
70.0
 40
71.0
 40
71.0
 40
71.0
 40
72.0
 40
72.0
 40
72.0
 40
73.0
 40
73.0
 40
73.0
 40
74.0
 40
74.0
 40
74.0
 40
75.0
 40
75.0
 40
75.0
 40
76.0
 40
76.0
 40
76.0
 40
77.0
 40
77.0
 40
77.0
 40
78.0
 40
78.0
 40
78.0
 40
79.0
 40
79.0
 40
79.0
 40
80.0
 40
80.0
 40
80.0
 40
81.0
 40
81.0
 40
81.0
 40
82.0
 40
82.0
 40
82.0
 40
83.0
 40
83.0
 40
83.0
 40
84.0
 40
84.0
 40
84.0
 40
85.0
 40
85.0
 40
85.0
 40
86.0
 40
86.0
 40
86.0
 40
87.0
 40
87.0
 40
87.0
 40
88.0
 40
88.0
 40
88.0
 40
89.0
 40
89.0
 40
89.0
 40
90.0
 40
90.0
 40
90.0
 40
91.0
 40
91.0
 40
91.0
 40
92.0
 40
92.0
 40
92.0
 40
93.0
 40
93.0
 40
93.0
 40
94.0
 40
94.0
 40
94.0
 40
95.0
 40
95.0
 40
95.0
 40
96.0
 40
96.0
 40
96.0
 40
97.0
 40
97.0
 40
97.0
 40
98.0
 40
98.0
 40
98.0
 40
99.0
 40
99.0
 40
99.0
 40
99.0
 10
51.01128769341037
 20
98.80588973224296
 30
0.0
 10
50.16465547791022
 20
100.0758208300158
 30
0.0
 10
48.3655921645579
 20
98.96462250672585
 30
0.0
 10
48.3655921645579
 20
98.96462250672585
 30
0.0
 10
48.3655921645579
 20
98.96462250672585
 30
0.0
 10
44.71451442024498
 20
99.54668861443623
 30
0.0
 10
44.71451442024498
 20
99.54668861443623
 30
0.0
 10
44.71451442024498
 20
99.54668861443623
 30
0.0
 10
43.33874998916531
 20
99.86418861435686
 30
0.0
 10
42.80961777358579
 20
98.91172306554984
 30
0.0
 10
42.28048555800626
 20
97.95925751674282
 30
0.0
 10
38.99979002931255
 20
97.05972586006666
 30
0.0
 10
39.15854002927286
 20
94.99607921344716
 30
0.0
 10
39.31729002923318
 20
92.93243256682764
 30
0.0
 10
40.2697555780402
 20
90.71003592024783
 30
0.0
 10
40.2697555780402
 20
90.71003592024783
 30
0.0
 10
40.2697555780402
 20
90.71003592024783
 30
0.0
 10
41.01055446023347
 20
90.39255314580463
 30
0.0
 10
41.01055446023347
 20
90.39255314580463
 30
0.0
 10
41.01055446023347
 20
90.39255314580463
 30
0.0
 10
41.01055446023347
 20
89.81050426357167
 30
0.0
 10
41.01055446023347
 20
89.81050426357167
 30
0.0
 10
41.01055446023347
 20
89.81050426357167
 30
0.0
 10
40.11100557807988
 20
89.91633759687855
 30
0.0
 10
40.11100557807988
 20
89.91633759687855
 30
0.0
 10
40.11100557807988
 20
89.91633759687855
 30
0.0
 10
40.9047211269266
 20
88.64640649910575
 30
0.0
 10
40.85180446027316
 20
87.7997742836056
 30
0.0
 10
40.79888779361972
 20
86.95314206810546
 30
0.0
 10
36.19537895145462
 20
83.51373099040629
 30
0.0
 10
36.19537895145462
 20
83.51373099040629
 30
0.0
 10
36.19537895145462
 20
83.51373099040629
 30
0.0
 10
35.2429134026476
 20
82.03213322601974
 30
0.0
 10
35.2429134026476
 20
82.03213322601974
 30
0.0
 10
35.2429134026476
 20
82.03213322601974
 30
0.0
 10
30.32187010960703
 20
80.33893769692915
 30
0.0
 10
30.11023789394813
 20
79.96853825583251
 30
0.0
 10
29.89860567828924
 20
79.59813881473588
 30
0.0
 10
30.16318901155642
 20
80.81517047133266
 30
0.0
 10
27.67620903170942
 20
77.90489160921301
 30
0.0
 10
27.67620903170942
 20
77.90489160921301
 30
0.0
 10
28.78735567856705
 20
77.79905827590613
 30
0.0
 10
28.73447346286846
 20
77.48157550146293
 30
0.0
 10
28.68159124716988
 20
77.16409272701974
 30
0.0
 10
28.09954236493692
 20
76.95246051136084
 30
0.0
 10
27.19999348278333
 20
76.00001218803123
 30
0.0
 10
26.30044460062975
 20
75.04756386470164
 30
0.0
 10
22.17315130739074
 20
68.80369003271227
 30
0.0
 10
22.80811685627713
 20
67.00462671935995
 30
0.0
 10
23.44308240516353
 20
65.20556340600763
 30
0.0
 10
23.86641573839103
 20
64.0943478572403
 30
0.0
 10
24.50138128727743
 20
63.61813230831421
 30
0.0
 10
25.13634683616383
 20
63.14191675938812
 30
0.0
 10
26.14166014971458
 20
63.08896564177984
 30
0.0
 10
26.03586126736256
 20
62.71858342616063
 30
0.0
 10
25.93006238501054
 20
62.34820121054142
 30
0.0
 10
22.26000216457389
 20
59.27920679941631
 30
0.0
 10
22.26000216457389
 20
59.27920679941631
 30
0.0
 10
22.26000216457389
 20
59.27920679941631
 30
0.0
 10
20.10950466077123
 20
55.04614907478012
 30
0.0
 10
20.69155354300419
 20
54.51698240824575
 30
0.0
 10
21.27360242523715
 20
53.98781574171137
 30
0.0
 10
21.32651909189059
 20
53.61743352609216
 30
0.0
 10
21.32651909189059
 20
53.61743352609216
 30
0.0
 10
21.32651909189059
 20
53.61743352609216
 30
0.0
 10
18.89245577869702
 20
53.56455131039358
 30
0.0
 10
17.72835801423111
 20
52.87666909485375
 30
0.0
 10
16.56426024976518
 20
52.18878687931391
 30
0.0
 10
15.13557915203208
 20
51.18337021289859
 30
0.0
 10
15.0297458187252
 20
50.38968911500674
 30
0.0
 10
14.92391248541833
 20
49.59600801711488
 30
0.0
 10
14.6064124854977
 20
47.8257112510644
 30
0.0
 10
13.54814805433866
 20
47.07051186974279
 30
0.0
 10
12.48988362317961
 20
46.31531248842117
 30
0.0
 10
12.1195014075604
 20
47.53232691954052
 30
0.0
 10
12.1195014075604
 20
47.53232691954052
 30
0.0
 10
12.1195014075604
 20
47.53232691954052
 30
0.0
 10
10.58498697652042
 20
47.56112791779722
 30
0.0
 10
10.42623697656011
 20
47.07051186974279
 30
0.0
 10
10.26748697659979
 20
46.57989582168835
 30
0.0
 10
9.949986976679169
 20
45.99781248850054
 30
0.0
 10
9.473771427753084
 20
46.26239582176773
 30
0.0
 10
8.997555878826999
 20
46.52697915503492
 30
0.0
 10
8.045090330019978
 20
46.73864582164867
 30
0.0
 10
8.045090330019978
 20
46.73864582164867
 30
0.0
 10
8.045090330019978
 20
46.73864582164867
 30
0.0
 10
-0.3682118054635026
 20
46.47406248838148
 30
0.0
 10
-0.3682118054635026
 20
46.47406248838148
 30
0.0
 10
-0.3682118054635026
 20
46.47406248838148
 30
0.0
 10
-1.479427354230838
 20
45.25704805726212
 30
0.0
 10
-1.479427354230838
 20
45.25704805726212
 30
0.0
 10
-1.479427354230838
 20
45.25704805726212
 30
0.0
 10
-2.537691785389883
 20
44.78875622795211
 30
0.0
 10
-2.537691785389883
 20
44.78875622795211
 30
0.0
 10
-2.537691785389883
 20
44.78875622795211
 30
0.0
 10
-3.38432400089003
 20
44.78875622795211
 30
0.0
 10
-3.38432400089003
 20
44.78875622795211
 30
0.0
 10
-3.38432400089003
 20
44.78875622795211
 30
0.0
 10
-6.188769529702808
 20
43.4675621093588
 30
0.0
 10
-6.082936196395933
 20
41.92812119177491
 30
0.0
 10
-5.977102863089057
 20
40.38868027419102
 30
0.0
 10
-11.79766058732836
 20
42.04542669304767
 30
0.0
 10
-11.63891058736805
 20
44.78875622795211
 30
0.0
 10
-11.48016058740774
 20
47.53208576285656
 30
0.0
 10
-15.28997110620355
 20
50.70691350728855
 30
0.0
 10
-18.14733330166976
 20
50.12486462505559
 30
0.0
 10
-21.00469549713598
 20
49.54281574282263
 30
0.0
 10
-21.05761216378941
 20
48.58242647439953
 30
0.0
 10
-21.05761216378941
 20
48.58242647439953
 30
0.0
 10
-21.05761216378941
 20
48.58242647439953
 30
0.0
 10
-25.76693711378396
 20
50.38941350736792
 30
0.0
 10
-27.72476765257402
 20
49.27823240955544
 30
0.0
 10
-27.72476765257402
 20
49.27823240955544
 30
0.0
 10
-25.25768309915433
 20
57.1830729023709
 30
0.0
 10
-26.36442002379084
 20
59.92836614170193
 30
0.0
 10
-26.39227362078908
 20
59.99744030618119
 30
0.0
 10
-26.42236652985274
 20
60.06324162994947
 30
0.0
 10
-26.45483655480122
 20
60.12556340727763
 30
0.0
 10
-26.45483655480122
 20
60.12556340727763
 30
0.0
 10
-28.51848320142073
 20
59.75518119165842
 30
0.0
 10
-28.51848320142073
 20
59.75518119165842
 30
0.0
 10
-28.51848320142073
 20
59.75518119165842
 30
0.0
 10
-28.09516709367065
 20
61.87171005397651
 30
0.0
 10
-30.15881374029016
 20
62.08337672059026
 30
0.0
 10
-30.15881374029016
 20
62.08337672059026
 30
0.0
 10
-29.10053208365369
 20
62.87712672039182
 30
0.0
 10
-29.47093152475032
 20
66.73983668036365
 30
0.0
 10
-29.47093152475032
 20
66.73983668036365
 30
0.0
 10
-27.24855210364793
 20
67.37469887638548
 30
0.0
 10
-26.56066988810809
 20
70.60246051294834
 30
0.0
 10
-25.87278767256826
 20
73.83022214951119
 30
0.0
 10
-24.28537380035226
 20
77.0050671194206
 30
0.0
 10
-24.44410657483515
 20
79.28036320717644
 30
0.0
 10
-24.60283934931804
 20
81.55565929493225
 30
0.0
 10
-25.39655489816475
 20
85.15382037259175
 30
0.0
 10
-25.39655489816475
 20
85.15382037259175
 30
0.0
 10
-25.39655489816475
 20
85.15382037259175
 30
0.0
 10
-25.47339775296325
 20
86.68075559356419
 30
0.0
 10
-25.23782212368186
 20
87.11163368590438
 30
0.0
 10
-25.07028713023416
 20
87.41805770383992
 30
0.0
 10
-24.02947210770791
 20
87.62279972852832
 30
0.0
 10
-24.12662380039195
 20
87.95826590140453
 30
0.0
 10
-24.19295911396044
 20
88.18733030021879
 30
0.0
 10
-25.02956610159851
 20
88.03729639183615
 30
0.0
 10
-25.02615545706811
 20
88.27574867584772
 30
0.0
 10
-25.02191798962125
 20
88.57299151431508
 30
0.0
 10
-23.93815985187136
 20
88.62515025996176
 30
0.0
 10
-24.02079046708508
 20
88.91071422473412
 30
0.0
 10
-24.09065700352594
 20
89.15214651634042
 30
0.0
 10
-24.86833563288882
 20
88.71510170308163
 30
0.0
 10
-25.02615545706811
 20
88.91071422473412
 30
0.0
 10
-25.34060654748429
 20
89.30045787698043
 30
0.0
 10
-24.15873209031448
 20
90.63715492525738
 30
0.0
 10
-24.60283934931804
 20
90.86852753804675
 30
0.0
 10
-24.99335814804853
 20
91.07197765192818
 30
0.0
 10
-25.73801553718529
 20
89.64427840640838
 30
0.0
 10
-26.08443711370458
 20
89.91607921471716
 30
0.0
 10
-26.43661199968425
 20
90.19239309811162
 30
0.0
 10
-25.45484591377518
 20
91.16423730902316
 30
0.0
 10
-25.50238823147162
 20
91.60932642024002
 30
0.0
 10
-25.52388562729958
 20
91.81058889848832
 30
0.0
 10
-26.10789821395914
 20
91.7084073663958
 30
0.0
 10
-26.34757350686797
 20
91.8958205607934
 30
0.0
 10
-26.61718667954362
 20
92.10667762996812
 30
0.0
 10
-26.46422443999852
 20
92.36655840789794
 30
0.0
 10
-26.59014267998441
 20
92.68646997465824
 30
0.0
 10
-26.80001789694583
 20
93.2196329519555
 30
0.0
 10
-27.03194172501285
 20
93.91953855073886
 30
0.0
 10
-25.76695433926139
 20
94.83708805680287
 30
0.0
 10
-25.4682473352128
 20
95.05376733734767
 30
0.0
 10
-24.91436210857175
 20
95.65981130963539
 30
0.0
 10
-24.60860988425583
 20
95.6840992328064
 30
0.0
 10
-24.21383639260105
 20
95.71546682719959
 30
0.0
 10
-24.06800550071043
 20
95.12999007495881
 30
0.0
 10
-23.69743380483953
 20
95.17367388571178
 30
0.0
 10
-22.46674234464373
 20
95.31878130755051
 30
0.0
 10
-21.48092827153949
 20
95.41913693903584
 30
0.0
 10
-21.48092827153949
 20
95.41913693903584
 30
0.0
 10
-21.48092827153949
 20
95.41913693903584
 30
0.0
 10
-21.8513104871587
 20
97.00655081125183
 30
0.0
 10
-21.8513104871587
 20
97.00655081125183
 30
0.0
 10
-21.8513104871587
 20
97.00655081125183
 30
0.0
 10
-19.36436495826655
 20
98.54106524229181
 30
0.0
 10
-19.36436495826655
 20
98.54106524229181
 30
0.0
 10
-19.36436495826655
 20
98.54106524229181
 30
0.0
 10
-17.08905164503329
 20
98.54106524229181
 30
0.0
 10
-17.08905164503329
 20
98.54106524229181
 30
0.0
 10
-17.08905164503329
 20
98.54106524229181
 30
0.0
 10
-15.5016377728173
 20
97.00655081125183
 30
0.0
 10
-15.5016377728173
 20
97.00655081125183
 30
0.0
 10
-15.5016377728173
 20
97.00655081125183
 30
0.0
 10
-10.4747955974247
 20
97.05946747790526
 30
0.0
 10
-10.4747955974247
 20
97.05946747790526
 30
0.0
 10
-10.4747955974247
 20
97.05946747790526
 30
0.0
 10
-9.734013940708858
 20
96.84781803676894
 30
0.0
 10
-9.734013940708858
 20
96.84781803676894
 30
0.0
 10
-9.734013940708858
 20
96.84781803676894
 30
0.0
 10
-8.252416176322312
 20
97.58861691896222
 30
0.0
 10
-8.252416176322312
 20
97.58861691896222
 30
0.0
 10
-8.252416176322312
 20
97.58861691896222
 30
0.0
 10
-7.723266735265363
 20
96.90073470342237
 30
0.0
 10
-7.723266735265363
 20
96.90073470342237
 30
0.0
 10
-7.723266735265363
 20
96.90073470342237
 30
0.0
 10
-6.082936196395933
 20
96.90073470342237
 30
0.0
 10
-6.082936196395933
 20
96.90073470342237
 30
0.0
 10
-6.082936196395933
 20
96.90073470342237
 30
0.0
 10
-4.601338432009388
 20
96.4774185956723
 30
0.0
 10
-4.601338432009388
 20
96.4774185956723
 30
0.0
 10
-4.601338432009388
 20
96.4774185956723
 30
0.0
 10
-1.585260687537712
 20
95.89536971343935
 30
0.0
 10
-1.585260687537712
 20
95.89536971343935
 30
0.0
 10
-1.585260687537712
 20
95.89536971343935
 30
0.0
 10
2.224567056735525
 20
96.318668595712
 30
0.0
 10
2.224567056735525
 20
96.318668595712
 30
0.0
 10
2.224567056735525
 20
96.318668595712
 30
0.0
 10
2.542032605701297
 20
96.10701915457567
 30
0.0
 10
2.542032605701297
 20
96.10701915457567
 30
0.0
 10
2.542032605701297
 20
96.10701915457567
 30
0.0
 10
3.282831487894569
 20
96.53033526232575
 30
0.0
 10
3.282831487894569
 20
96.53033526232575
 30
0.0
 10
3.282831487894569
 20
96.53033526232575
 30
0.0
 10
4.394047036661904
 20
96.05410248792224
 30
0.0
 10
4.394047036661904
 20
96.05410248792224
 30
0.0
 10
4.394047036661904
 20
96.05410248792224
 30
0.0
 10
5.981443683400472
 20
95.63078638017215
 30
0.0
 10
5.981443683400472
 20
95.63078638017215
 30
0.0
 10
5.981443683400472
 20
95.63078638017215
 30
0.0
 10
7.515958114440455
 20
96.21285248788254
 30
0.0
 10
7.515958114440455
 20
96.21285248788254
 30
0.0
 10
7.515958114440455
 20
96.21285248788254
 30
0.0
 10
10.47915364321354
 20
95.0487374979392
 30
0.0
 10
10.47915364321354
 20
95.0487374979392
 30
0.0
 10
10.47915364321354
 20
95.0487374979392
 30
0.0
 10
12.9660991721057
 20
95.8424530467859
 30
0.0
 10
12.9660991721057
 20
95.8424530467859
 30
0.0
 10
12.9660991721057
 20
95.8424530467859
 30
0.0
 10
14.60482774157449
 20
95.61986542748392
 30
0.0
 10
15.33263861378837
 20
101.6068040381834
 30
0.0
 10
15.33263861378837
 20
101.6068040381834
 30
0.0
 10
-34.8292263367788
 20
101.6068040381834
 30
0.0
 10
-34.8292263367788
 20
101.6068040381834
 30
0.0
 10
-34.8292263367788
 20
101.6068040381834
 30
0.0
 10
-34.8292263367788
 20
33.54916665827938
 30
0.0
 10
-34.8292263367788
 20
33.54916665827938
 30
0.0
 10
-34.8292263367788
 20
33.54916665827938
 30
0.0
 10
-11.71082695562264
 20
33.54916665827938
 30
0.0
 10
-11.71082695562264
 20
33.54916665827938
 30
0.0
 10
-11.71082695562264
 20
33.54916665827938
 30
0.0
 10
-9.522226695753123
 20
39.59499917629916
 30
0.0
 10
-9.522226695753123
 20
39.59499917629916
 30
0.0
 10
-9.522226695753123
 20
39.59499917629916
 30
0.0
 10
-6.770715059071209
 20
39.70014349050899
 30
0.0
 10
-6.453215059150585
 20
40.28253688229047
 30
0.0
 10
-6.13571505922996
 20
40.86493027407196
 30
0.0
 10
-6.559013941502607
 20
37.88506048315026
 30
0.0
 10
-4.124985079263892
 20
36.64992484977849
 30
0.0
 10
-1.690956217025178
 20
35.41478921640672
 30
0.0
 10
-2.325887314956722
 20
33.6156570011447
 30
0.0
 10
2.224704860554935
 20
35.52058809875874
 30
0.0
 10
2.224704860554935
 20
35.52058809875874
 30
0.0
 10
3.12425374270852
 20
34.4623236675997
 30
0.0
 10
3.49463595832773
 20
35.2560392164464
 30
0.0
 10
3.86501817394694
 20
36.04975476529312
 30
0.0
 10
4.976199271759422
 20
35.15020588313953
 30
0.0
 10
5.24078260502661
 20
35.15020588313953
 30
0.0
 10
5.505365938293797
 20
35.15020588313953
 30
0.0
 10
7.886512584833927
 20
35.44486489999295
 30
0.0
 10
8.362728133760012
 20
36.85849093045552
 30
0.0
 10
8.362728133760012
 20
36.85849093045552
 30
0.0
 10
9.526825898225932
 20
33.6157259030544
 30
0.0
 10
11.48463921153856
 20
34.62107366756
 30
0.0
 10
11.48463921153856
 20
34.62107366756
 30
0.0
 10
12.27835476038527
 20
34.35649033429282
 30
0.0
 10
13.75995252477182
 20
34.35649033429282
 30
0.0
 10
15.24155028915836
 20
34.35649033429282
 30
0.0
 10
16.91717583127418
 20
35.26313611314602
 30
0.0
 10
19.45703802681977
 20
38.31094318703685
 30
0.0
 10
19.45703802681977
 20
38.31094318703685
 30
0.0
 10
20.86129339756245
 20
39.5555183820382
 30
0.0
 10
20.86129339756245
 20
39.5555183820382
 30
0.0
 10
20.86129339756245
 20
39.5555183820382
 30
0.0
 10
20.86129339756245
 20
49.68196314947187
 30
0.0
 10
20.86129339756245
 20
49.68196314947187
 30
0.0
 10
20.86129339756245
 20
49.68196314947187
 30
0.0
 10
46.24802977359424
 20
49.68196314947187
 30
0.0
 10
46.24802977359424
 20
49.68196314947187
 30
0.0
 10
47.4637350684292
 20
50.32988225738281
 30
0.0
 10
48.51679740540552
 20
50.9185801739023
 30
0.0
 10
50.00590547794991
 20
50.9185801739023
 30
0.0
 10
52.38818900600017
 20
50.9185801739023
 30
0.0
 10
54.42444714351194
 20
51.75529051440493
 30
0.0
 10
55.49683646616051
 20
51.60591117416449
 30
0.0
 10
55.49683646616051
 20
51.60591117416449
 30
0.0
 10
55.49683646616051
 20
98.12930742989475
 30
0.0
 10
55.49683646616051
 20
98.12930742989475
 30
0.0
 10
54.19455592178122
 20
97.99748085115166
 30
0.0
 10
51.63540119151823
 20
97.8697367105586
 30
0.0
 10
51.01128769341037
 20
98.80588973224296
 30
0.0
  0
SPLINE
  5
44
330
3C
100
AcDbEntity
  8
Capa 1
370
     0
100
AcDbSpline
210
0.0
220
0.0
230
1.0
 70
    11
 71
     3
 72
    20
 73
    16
 74
     0
 42
0.0000000001
 43
0.0000000001
 40
0.0
 40
0.0
 40
0.0
 40
0.0
 40
1.0
 40
1.0
 40
1.0
 40
2.0
 40
2.0
 40
2.0
 40
3.0
 40
3.0
 40
3.0
 40
4.0
 40
4.0
 40
4.0
 40
5.0
 40
5.0
 40
5.0
 40
5.0
 10
31.85641899160186
 20
64.62358342568437
 30
0.0
 10
31.85641899160186
 20
64.62358342568437
 30
0.0
 10
32.70301675614716
 20
65.89351452345717
 30
0.0
 10
33.54964897164731
 20
65.7876811901503
 30
0.0
 10
34.39628118714746
 20
65.68184785684342
 30
0.0
 10
33.54964897164731
 20
64.62358342568437
 30
0.0
 10
33.54964897164731
 20
64.62358342568437
 30
0.0
 10
33.54964897164731
 20
64.62358342568437
 30
0.0
 10
32.89115342059665
 20
63.77695121018423
 30
0.0
 10
32.89115342059665
 20
63.77695121018423
 30
0.0
 10
32.89115342059665
 20
63.77695121018423
 30
0.0
 10
31.85641899160186
 20
64.09441675915001
 30
0.0
 10
31.85641899160186
 20
64.09441675915001
 30
0.0
 10
31.85641899160186
 20
64.09441675915001
 30
0.0
 10
31.85641899160186
 20
64.62358342568437
 30
0.0
 10
31.85641899160186
 20
64.62358342568437
 30
0.0
  0
SPLINE
  5
45
330
3C
100
AcDbEntity
  8
Capa 1
370
     0
100
AcDbSpline
210
0.0
220
0.0
230
1.0
 70
    11
 71
     3
 72
    17
 73
    13
 74
     0
 42
0.0000000001
 43
0.0000000001
 40
0.0
 40
0.0
 40
0.0
 40
0.0
 40
1.0
 40
1.0
 40
1.0
 40
2.0
 40
2.0
 40
2.0
 40
3.0
 40
3.0
 40
3.0
 40
4.0
 40
4.0
 40
4.0
 40
4.0
 10
33.40853786057147
 20
62.45410344575799
 30
0.0
 10
33.40853786057147
 20
62.45410344575799
 30
0.0
 10
32.89115342059665
 20
62.18952011249081
 30
0.0
 10
32.89115342059665
 20
62.18952011249081
 30
0.0
 10
32.89115342059665
 20
62.18952011249081
 30
0.0
 10
33.33801675598841
 20
63.40653454361017
 30
0.0
 10
33.33801675598841
 20
63.40653454361017
 30
0.0
 10
33.33801675598841
 20
63.40653454361017
 30
0.0
 10
33.29681341398482
 20
62.71865232807033
 30
0.0
 10
33.9259223005463
 20
62.79802732805049
 30
0.0
 10
34.55503118710777
 20
62.87740232803065
 30
0.0
 10
33.40853786057147
 20
62.45410344575799
 30
0.0
 10
33.40853786057147
 20
62.45410344575799
 30
0.0
  0
SPLINE
  5
46
330
3C
100
AcDbEntity
  8
Capa 1
370
     0
100
AcDbSpline
210
0.0
220
0.0
230
1.0
 70
    11
 71
     3
 72
    50
 73
    46
 74
     0
 42
0.0000000001
 43
0.0000000001
 40
0.0
 40
0.0
 40
0.0
 40
0.0
 40
1.0
 40
1.0
 40
1.0
 40
2.0
 40
2.0
 40
2.0
 40
3.0
 40
3.0
 40
3.0
 40
4.0
 40
4.0
 40
4.0
 40
5.0
 40
5.0
 40
5.0
 40
6.0
 40
6.0
 40
6.0
 40
7.0
 40
7.0
 40
7.0
 40
8.0
 40
8.0
 40
8.0
 40
9.0
 40
9.0
 40
9.0
 40
10.0
 40
10.0
 40
10.0
 40
11.0
 40
11.0
 40
11.0
 40
12.0
 40
12.0
 40
12.0
 40
13.0
 40
13.0
 40
13.0
 40
14.0
 40
14.0
 40
14.0
 40
15.0
 40
15.0
 40
15.0
 40
15.0
 10
43.44458332247218
 20
69.7107492230237
 30
0.0
 10
43.44458332247218
 20
69.7107492230237
 30
0.0
 10
43.12708332255156
 20
68.74129935347439
 30
0.0
 10
43.12708332255156
 20
68.74129935347439
 30
0.0
 10
43.12708332255156
 20
68.74129935347439
 30
0.0
 10
42.01590222473908
 20
67.61165254386097
 30
0.0
 10
42.01590222473908
 20
67.61165254386097
 30
0.0
 10
42.01590222473908
 20
67.61165254386097
 30
0.0
 10
41.80423555812533
 20
68.43337671900277
 30
0.0
 10
41.80423555812533
 20
68.43337671900277
 30
0.0
 10
41.80423555812533
 20
68.43337671900277
 30
0.0
 10
40.69305446031284
 20
68.64504338561652
 30
0.0
 10
40.69305446031284
 20
68.64504338561652
 30
0.0
 10
40.69305446031284
 20
68.64504338561652
 30
0.0
 10
40.69305446031284
 20
68.64504338561652
 30
0.0
 10
40.42847112704565
 20
68.74129935347439
 30
0.0
 10
40.16388779377847
 20
68.83755532133227
 30
0.0
 10
40.42847112704565
 20
69.17417560119604
 30
0.0
 10
39.95225557811957
 20
69.59747448346869
 30
0.0
 10
39.47604002919348
 20
70.02077336574133
 30
0.0
 10
38.99979002931255
 20
69.1212589345426
 30
0.0
 10
38.99979002931255
 20
69.1212589345426
 30
0.0
 10
38.99979002931255
 20
69.1212589345426
 30
0.0
 10
37.62402559823288
 20
69.80914115008243
 30
0.0
 10
37.62402559823288
 20
69.80914115008243
 30
0.0
 10
37.62402559823288
 20
69.80914115008243
 30
0.0
 10
39.6347900291538
 20
71.07907224785522
 30
0.0
 10
40.00517224477301
 20
71.77215655757779
 30
0.0
 10
40.37555446039222
 20
72.46524086730035
 30
0.0
 10
42.80961777358579
 20
73.35438556108848
 30
0.0
 10
42.17465222469939
 20
72.93106945333841
 30
0.0
 10
41.53968667581299
 20
72.50775334558834
 30
0.0
 10
42.17465222469939
 20
71.66113835556561
 30
0.0
 10
42.75670110693235
 20
71.44947168895186
 30
0.0
 10
43.33874998916531
 20
71.23780502233811
 30
0.0
 10
43.44458332247218
 20
71.8198711300485
 30
0.0
 10
43.44458332247218
 20
71.8198711300485
 30
0.0
 10
43.44458332247218
 20
71.8198711300485
 30
0.0
 10
43.76208332239281
 20
71.8198711300485
 30
0.0
 10
43.76208332239281
 20
71.8198711300485
 30
0.0
 10
43.76208332239281
 20
71.8198711300485
 30
0.0
 10
43.76208332239281
 20
71.8198711300485
 30
0.0
 10
44.13246553801202
 20
71.5023883556053
 30
0.0
 10
44.50284775363123
 20
71.1849055811621
 30
0.0
 10
43.44458332247218
 20
69.7107492230237
 30
0.0
 10
43.44458332247218
 20
69.7107492230237
 30
0.0
  0
SPLINE
  5
47
330
3C
100
AcDbEntity
  8
Capa 1
370
     0
100
AcDbSpline
210
0.0
220
0.0
230
1.0
 70
    11
 71
     3
 72
    23
 73
    19
 74
     0
 42
0.0000000001
 43
0.0000000001
 40
0.0
 40
0.0
 40
0.0
 40
0.0
 40
1.0
 40
1.0
 40
1.0
 40
2.0
 40
2.0
 40
2.0
 40
3.0
 40
3.0
 40
3.0
 40
4.0
 40
4.0
 40
4.0
 40
5.0
 40
5.0
 40
5.0
 40
6.0
 40
6.0
 40
6.0
 40
6.0
 10
47.36020994909745
 20
73.04088187193075
 30
0.0
 10
47.36020994909745
 20
73.04088187193075
 30
0.0
 10
46.67232773355761
 20
73.52109373161971
 30
0.0
 10
45.98444551801777
 20
73.04088187193075
 30
0.0
 10
45.98444551801777
 20
73.04088187193075
 30
0.0
 10
45.61406330239856
 20
74.09518444328175
 30
0.0
 10
45.61406330239856
 20
74.09518444328175
 30
0.0
 10
45.61406330239856
 20
74.09518444328175
 30
0.0
 10
47.36020994909745
 20
74.46556665890097
 30
0.0
 10
47.36020994909745
 20
74.46556665890097
 30
0.0
 10
47.36020994909745
 20
74.46556665890097
 30
0.0
 10
48.15395994889901
 20
74.51850055103183
 30
0.0
 10
48.41850883121134
 20
74.04226777662832
 30
0.0
 10
48.68305771352367
 20
73.56603500222481
 30
0.0
 10
48.78889104683055
 20
72.77231945337809
 30
0.0
 10
48.78889104683055
 20
72.77231945337809
 30
0.0
 10
48.78889104683055
 20
72.77231945337809
 30
0.0
 10
47.36020994909745
 20
73.04088187193075
 30
0.0
 10
47.36020994909745
 20
73.04088187193075
 30
0.0
  0
HATCH
  5
48
330
3C
100
AcDbEntity
  8
Capa 1
 62
   253
420
  9813199
100
AcDbHatch
 10
0.0
 20
0.0
 30
0.0
210
0.0
220
0.0
230
1.0
  2
SOLID
 70
     1
 71
     0
 91
        5
 92
        1
 93
        1
 72
     4
 94
        3
 73
     0
 74
     1
 95
      302
 96
      298
 40
0.0
 40
0.0
 40
0.0
 40
0.0
 40
1.0
 40
1.0
 40
1.0
 40
2.0
 40
2.0
 40
2.0
 40
3.0
 40
3.0
 40
3.0
 40
4.0
 40
4.0
 40
4.0
 40
5.0
 40
5.0
 40
5.0
 40
6.0
 40
6.0
 40
6.0
 40
7.0
 40
7.0
 40
7.0
 40
8.0
 40
8.0
 40
8.0
 40
9.0
 40
9.0
 40
9.0
 40
10.0
 40
10.0
 40
10.0
 40
11.0
 40
11.0
 40
11.0
 40
12.0
 40
12.0
 40
12.0
 40
13.0
 40
13.0
 40
13.0
 40
14.0
 40
14.0
 40
14.0
 40
15.0
 40
15.0
 40
15.0
 40
16.0
 40
16.0
 40
16.0
 40
17.0
 40
17.0
 40
17.0
 40
18.0
 40
18.0
 40
18.0
 40
19.0
 40
19.0
 40
19.0
 40
20.0
 40
20.0
 40
20.0
 40
21.0
 40
21.0
 40
21.0
 40
22.0
 40
22.0
 40
22.0
 40
23.0
 40
23.0
 40
23.0
 40
24.0
 40
24.0
 40
24.0
 40
25.0
 40
25.0
 40
25.0
 40
26.0
 40
26.0
 40
26.0
 40
27.0
 40
27.0
 40
27.0
 40
28.0
 40
28.0
 40
28.0
 40
29.0
 40
29.0
 40
29.0
 40
30.0
 40
30.0
 40
30.0
 40
31.0
 40
31.0
 40
31.0
 40
32.0
 40
32.0
 40
32.0
 40
33.0
 40
33.0
 40
33.0
 40
34.0
 40
34.0
 40
34.0
 40
35.0
 40
35.0
 40
35.0
 40
36.0
 40
36.0
 40
36.0
 40
37.0
 40
37.0
 40
37.0
 40
38.0
 40
38.0
 40
38.0
 40
39.0
 40
39.0
 40
39.0
 40
40.0
 40
40.0
 40
40.0
 40
41.0
 40
41.0
 40
41.0
 40
42.0
 40
42.0
 40
42.0
 40
43.0
 40
43.0
 40
43.0
 40
44.0
 40
44.0
 40
44.0
 40
45.0
 40
45.0
 40
45.0
 40
46.0
 40
46.0
 40
46.0
 40
47.0
 40
47.0
 40
47.0
 40
48.0
 40
48.0
 40
48.0
 40
49.0
 40
49.0
 40
49.0
 40
50.0
 40
50.0
 40
50.0
 40
51.0
 40
51.0
 40
51.0
 40
52.0
 40
52.0
 40
52.0
 40
53.0
 40
53.0
 40
53.0
 40
54.0
 40
54.0
 40
54.0
 40
55.0
 40
55.0
 40
55.0
 40
56.0
 40
56.0
 40
56.0
 40
57.0
 40
57.0
 40
57.0
 40
58.0
 40
58.0
 40
58.0
 40
59.0
 40
59.0
 40
59.0
 40
60.0
 40
60.0
 40
60.0
 40
61.0
 40
61.0
 40
61.0
 40
62.0
 40
62.0
 40
62.0
 40
63.0
 40
63.0
 40
63.0
 40
64.0
 40
64.0
 40
64.0
 40
65.0
 40
65.0
 40
65.0
 40
66.0
 40
66.0
 40
66.0
 40
67.0
 40
67.0
 40
67.0
 40
68.0
 40
68.0
 40
68.0
 40
69.0
 40
69.0
 40
69.0
 40
70.0
 40
70.0
 40
70.0
 40
71.0
 40
71.0
 40
71.0
 40
72.0
 40
72.0
 40
72.0
 40
73.0
 40
73.0
 40
73.0
 40
74.0
 40
74.0
 40
74.0
 40
75.0
 40
75.0
 40
75.0
 40
76.0
 40
76.0
 40
76.0
 40
77.0
 40
77.0
 40
77.0
 40
78.0
 40
78.0
 40
78.0
 40
79.0
 40
79.0
 40
79.0
 40
80.0
 40
80.0
 40
80.0
 40
81.0
 40
81.0
 40
81.0
 40
82.0
 40
82.0
 40
82.0
 40
83.0
 40
83.0
 40
83.0
 40
84.0
 40
84.0
 40
84.0
 40
85.0
 40
85.0
 40
85.0
 40
86.0
 40
86.0
 40
86.0
 40
87.0
 40
87.0
 40
87.0
 40
88.0
 40
88.0
 40
88.0
 40
89.0
 40
89.0
 40
89.0
 40
90.0
 40
90.0
 40
90.0
 40
91.0
 40
91.0
 40
91.0
 40
92.0
 40
92.0
 40
92.0
 40
93.0
 40
93.0
 40
93.0
 40
94.0
 40
94.0
 40
94.0
 40
95.0
 40
95.0
 40
95.0
 40
96.0
 40
96.0
 40
96.0
 40
97.0
 40
97.0
 40
97.0
 40
98.0
 40
98.0
 40
98.0
 40
99.0
 40
99.0
 40
99.0
 40
99.0
 10
51.01128769341037
 20
98.80588973224296
 10
50.16465547791022
 20
100.0758208300158
 10
48.3655921645579
 20
98.96462250672585
 10
48.3655921645579
 20
98.96462250672585
 10
48.3655921645579
 20
98.96462250672585
 10
44.71451442024498
 20
99.54668861443623
 10
44.71451442024498
 20
99.54668861443623
 10
44.71451442024498
 20
99.54668861443623
 10
43.33874998916531
 20
99.86418861435686
 10
42.80961777358579
 20
98.91172306554984
 10
42.28048555800626
 20
97.95925751674282
 10
38.99979002931255
 20
97.05972586006666
 10
39.15854002927286
 20
94.99607921344716
 10
39.31729002923318
 20
92.93243256682764
 10
40.2697555780402
 20
90.71003592024783
 10
40.2697555780402
 20
90.71003592024783
 10
40.2697555780402
 20
90.71003592024783
 10
41.01055446023347
 20
90.39255314580463
 10
41.01055446023347
 20
90.39255314580463
 10
41.01055446023347
 20
90.39255314580463
 10
41.01055446023347
 20
89.81050426357167
 10
41.01055446023347
 20
89.81050426357167
 10
41.01055446023347
 20
89.81050426357167
 10
40.11100557807988
 20
89.91633759687855
 10
40.11100557807988
 20
89.91633759687855
 10
40.11100557807988
 20
89.91633759687855
 10
40.9047211269266
 20
88.64640649910575
 10
40.85180446027316
 20
87.7997742836056
 10
40.79888779361972
 20
86.95314206810546
 10
36.19537895145462
 20
83.51373099040629
 10
36.19537895145462
 20
83.51373099040629
 10
36.19537895145462
 20
83.51373099040629
 10
35.2429134026476
 20
82.03213322601974
 10
35.2429134026476
 20
82.03213322601974
 10
35.2429134026476
 20
82.03213322601974
 10
30.32187010960703
 20
80.33893769692915
 10
30.11023789394813
 20
79.96853825583251
 10
29.89860567828924
 20
79.59813881473588
 10
30.16318901155642
 20
80.81517047133266
 10
27.67620903170942
 20
77.90489160921301
 10
27.67620903170942
 20
77.90489160921301
 10
28.78735567856705
 20
77.79905827590613
 10
28.73447346286846
 20
77.48157550146293
 10
28.68159124716988
 20
77.16409272701974
 10
28.09954236493692
 20
76.95246051136084
 10
27.19999348278333
 20
76.00001218803123
 10
26.30044460062975
 20
75.04756386470164
 10
22.17315130739074
 20
68.80369003271227
 10
22.80811685627713
 20
67.00462671935995
 10
23.44308240516353
 20
65.20556340600763
 10
23.86641573839103
 20
64.0943478572403
 10
24.50138128727743
 20
63.61813230831421
 10
25.13634683616383
 20
63.14191675938812
 10
26.14166014971458
 20
63.08896564177984
 10
26.03586126736256
 20
62.71858342616063
 10
25.93006238501054
 20
62.34820121054142
 10
22.26000216457389
 20
59.27920679941631
 10
22.26000216457389
 20
59.27920679941631
 10
22.26000216457389
 20
59.27920679941631
 10
20.10950466077123
 20
55.04614907478012
 10
20.69155354300419
 20
54.51698240824575
 10
21.27360242523715
 20
53.98781574171137
 10
21.32651909189059
 20
53.61743352609216
 10
21.32651909189059
 20
53.61743352609216
 10
21.32651909189059
 20
53.61743352609216
 10
18.89245577869702
 20
53.56455131039358
 10
17.72835801423111
 20
52.87666909485375
 10
16.56426024976518
 20
52.18878687931391
 10
15.13557915203208
 20
51.18337021289859
 10
15.0297458187252
 20
50.38968911500674
 10
14.92391248541833
 20
49.59600801711488
 10
14.6064124854977
 20
47.8257112510644
 10
13.54814805433866
 20
47.07051186974279
 10
12.48988362317961
 20
46.31531248842117
 10
12.1195014075604
 20
47.53232691954052
 10
12.1195014075604
 20
47.53232691954052
 10
12.1195014075604
 20
47.53232691954052
 10
10.58498697652042
 20
47.56112791779722
 10
10.42623697656011
 20
47.07051186974279
 10
10.26748697659979
 20
46.57989582168835
 10
9.949986976679169
 20
45.99781248850054
 10
9.473771427753084
 20
46.26239582176773
 10
8.997555878826999
 20
46.52697915503492
 10
8.045090330019978
 20
46.73864582164867
 10
8.045090330019978
 20
46.73864582164867
 10
8.045090330019978
 20
46.73864582164867
 10
-0.3682118054635026
 20
46.47406248838148
 10
-0.3682118054635026
 20
46.47406248838148
 10
-0.3682118054635026
 20
46.47406248838148
 10
-1.479427354230838
 20
45.25704805726212
 10
-1.479427354230838
 20
45.25704805726212
 10
-1.479427354230838
 20
45.25704805726212
 10
-2.537691785389883
 20
44.78875622795211
 10
-2.537691785389883
 20
44.78875622795211
 10
-2.537691785389883
 20
44.78875622795211
 10
-3.38432400089003
 20
44.78875622795211
 10
-3.38432400089003
 20
44.78875622795211
 10
-3.38432400089003
 20
44.78875622795211
 10
-6.188769529702808
 20
43.4675621093588
 10
-6.082936196395933
 20
41.92812119177491
 10
-5.977102863089057
 20
40.38868027419102
 10
-11.79766058732836
 20
42.04542669304767
 10
-11.63891058736805
 20
44.78875622795211
 10
-11.48016058740774
 20
47.53208576285656
 10
-15.28997110620355
 20
50.70691350728855
 10
-18.14733330166976
 20
50.12486462505559
 10
-21.00469549713598
 20
49.54281574282263
 10
-21.05761216378941
 20
48.58242647439953
 10
-21.05761216378941
 20
48.58242647439953
 10
-21.05761216378941
 20
48.58242647439953
 10
-25.76693711378396
 20
50.38941350736792
 10
-27.72476765257402
 20
49.27823240955544
 10
-27.72476765257402
 20
49.27823240955544
 10
-25.25768309915433
 20
57.1830729023709
 10
-26.36442002379084
 20
59.92836614170193
 10
-26.39227362078908
 20
59.99744030618119
 10
-26.42236652985274
 20
60.06324162994947
 10
-26.45483655480122
 20
60.12556340727763
 10
-26.45483655480122
 20
60.12556340727763
 10
-28.51848320142073
 20
59.75518119165842
 10
-28.51848320142073
 20
59.75518119165842
 10
-28.51848320142073
 20
59.75518119165842
 10
-28.09516709367065
 20
61.87171005397651
 10
-30.15881374029016
 20
62.08337672059026
 10
-30.15881374029016
 20
62.08337672059026
 10
-29.10053208365369
 20
62.87712672039182
 10
-29.47093152475032
 20
66.73983668036365
 10
-29.47093152475032
 20
66.73983668036365
 10
-27.24855210364793
 20
67.37469887638548
 10
-26.56066988810809
 20
70.60246051294834
 10
-25.87278767256826
 20
73.83022214951119
 10
-24.28537380035226
 20
77.0050671194206
 10
-24.44410657483515
 20
79.28036320717644
 10
-24.60283934931804
 20
81.55565929493225
 10
-25.39655489816475
 20
85.15382037259175
 10
-25.39655489816475
 20
85.15382037259175
 10
-25.39655489816475
 20
85.15382037259175
 10
-25.47339775296325
 20
86.68075559356419
 10
-25.23782212368186
 20
87.11163368590438
 10
-25.07028713023416
 20
87.41805770383992
 10
-24.02947210770791
 20
87.62279972852832
 10
-24.12662380039195
 20
87.95826590140453
 10
-24.19295911396044
 20
88.18733030021879
 10
-25.02956610159851
 20
88.03729639183615
 10
-25.02615545706811
 20
88.27574867584772
 10
-25.02191798962125
 20
88.57299151431508
 10
-23.93815985187136
 20
88.62515025996176
 10
-24.02079046708508
 20
88.91071422473412
 10
-24.09065700352594
 20
89.15214651634042
 10
-24.86833563288882
 20
88.71510170308163
 10
-25.02615545706811
 20
88.91071422473412
 10
-25.34060654748429
 20
89.30045787698043
 10
-24.15873209031448
 20
90.63715492525738
 10
-24.60283934931804
 20
90.86852753804675
 10
-24.99335814804853
 20
91.07197765192818
 10
-25.73801553718529
 20
89.64427840640838
 10
-26.08443711370458
 20
89.91607921471716
 10
-26.43661199968425
 20
90.19239309811162
 10
-25.45484591377518
 20
91.16423730902316
 10
-25.50238823147162
 20
91.60932642024002
 10
-25.52388562729958
 20
91.81058889848832
 10
-26.10789821395914
 20
91.7084073663958
 10
-26.34757350686797
 20
91.8958205607934
 10
-26.61718667954362
 20
92.10667762996812
 10
-26.46422443999852
 20
92.36655840789794
 10
-26.59014267998441
 20
92.68646997465824
 10
-26.80001789694583
 20
93.2196329519555
 10
-27.03194172501285
 20
93.91953855073886
 10
-25.76695433926139
 20
94.83708805680287
 10
-25.4682473352128
 20
95.05376733734767
 10
-24.91436210857175
 20
95.65981130963539
 10
-24.60860988425583
 20
95.6840992328064
 10
-24.21383639260105
 20
95.71546682719959
 10
-24.06800550071043
 20
95.12999007495881
 10
-23.69743380483953
 20
95.17367388571178
 10
-22.46674234464373
 20
95.31878130755051
 10
-21.48092827153949
 20
95.41913693903584
 10
-21.48092827153949
 20
95.41913693903584
 10
-21.48092827153949
 20
95.41913693903584
 10
-21.8513104871587
 20
97.00655081125183
 10
-21.8513104871587
 20
97.00655081125183
 10
-21.8513104871587
 20
97.00655081125183
 10
-19.36436495826655
 20
98.54106524229181
 10
-19.36436495826655
 20
98.54106524229181
 10
-19.36436495826655
 20
98.54106524229181
 10
-17.08905164503329
 20
98.54106524229181
 10
-17.08905164503329
 20
98.54106524229181
 10
-17.08905164503329
 20
98.54106524229181
 10
-15.5016377728173
 20
97.00655081125183
 10
-15.5016377728173
 20
97.00655081125183
 10
-15.5016377728173
 20
97.00655081125183
 10
-10.4747955974247
 20
97.05946747790526
 10
-10.4747955974247
 20
97.05946747790526
 10
-10.4747955974247
 20
97.05946747790526
 10
-9.734013940708858
 20
96.84781803676894
 10
-9.734013940708858
 20
96.84781803676894
 10
-9.734013940708858
 20
96.84781803676894
 10
-8.252416176322312
 20
97.58861691896222
 10
-8.252416176322312
 20
97.58861691896222
 10
-8.252416176322312
 20
97.58861691896222
 10
-7.723266735265363
 20
96.90073470342237
 10
-7.723266735265363
 20
96.90073470342237
 10
-7.723266735265363
 20
96.90073470342237
 10
-6.082936196395933
 20
96.90073470342237
 10
-6.082936196395933
 20
96.90073470342237
 10
-6.082936196395933
 20
96.90073470342237
 10
-4.601338432009388
 20
96.4774185956723
 10
-4.601338432009388
 20
96.4774185956723
 10
-4.601338432009388
 20
96.4774185956723
 10
-1.585260687537712
 20
95.89536971343935
 10
-1.585260687537712
 20
95.89536971343935
 10
-1.585260687537712
 20
95.89536971343935
 10
2.224567056735525
 20
96.318668595712
 10
2.224567056735525
 20
96.318668595712
 10
2.224567056735525
 20
96.318668595712
 10
2.542032605701297
 20
96.10701915457567
 10
2.542032605701297
 20
96.10701915457567
 10
2.542032605701297
 20
96.10701915457567
 10
3.282831487894569
 20
96.53033526232575
 10
3.282831487894569
 20
96.53033526232575
 10
3.282831487894569
 20
96.53033526232575
 10
4.394047036661904
 20
96.05410248792224
 10
4.394047036661904
 20
96.05410248792224
 10
4.394047036661904
 20
96.05410248792224
 10
5.981443683400472
 20
95.63078638017215
 10
5.981443683400472
 20
95.63078638017215
 10
5.981443683400472
 20
95.63078638017215
 10
7.515958114440455
 20
96.21285248788254
 10
7.515958114440455
 20
96.21285248788254
 10
7.515958114440455
 20
96.21285248788254
 10
10.47915364321354
 20
95.0487374979392
 10
10.47915364321354
 20
95.0487374979392
 10
10.47915364321354
 20
95.0487374979392
 10
12.9660991721057
 20
95.8424530467859
 10
12.9660991721057
 20
95.8424530467859
 10
12.9660991721057
 20
95.8424530467859
 10
14.60482774157449
 20
95.61986542748392
 10
15.33263861378837
 20
101.6068040381834
 10
15.33263861378837
 20
101.6068040381834
 10
-34.8292263367788
 20
101.6068040381834
 10
-34.8292263367788
 20
101.6068040381834
 10
-34.8292263367788
 20
101.6068040381834
 10
-34.8292263367788
 20
33.54916665827938
 10
-34.8292263367788
 20
33.54916665827938
 10
-34.8292263367788
 20
33.54916665827938
 10
-11.71082695562264
 20
33.54916665827938
 10
-11.71082695562264
 20
33.54916665827938
 10
-11.71082695562264
 20
33.54916665827938
 10
-9.522226695753123
 20
39.59499917629916
 10
-9.522226695753123
 20
39.59499917629916
 10
-9.522226695753123
 20
39.59499917629916
 10
-6.770715059071209
 20
39.70014349050899
 10
-6.453215059150585
 20
40.28253688229047
 10
-6.13571505922996
 20
40.86493027407196
 10
-6.559013941502607
 20
37.88506048315026
 10
-4.124985079263892
 20
36.64992484977849
 10
-1.690956217025178
 20
35.41478921640672
 10
-2.325887314956722
 20
33.6156570011447
 10
2.224704860554935
 20
35.52058809875874
 10
2.224704860554935
 20
35.52058809875874
 10
3.12425374270852
 20
34.4623236675997
 10
3.49463595832773
 20
35.2560392164464
 10
3.86501817394694
 20
36.04975476529312
 10
4.976199271759422
 20
35.15020588313953
 10
5.24078260502661
 20
35.15020588313953
 10
5.505365938293797
 20
35.15020588313953
 10
7.886512584833927
 20
35.44486489999295
 10
8.362728133760012
 20
36.85849093045552
 10
8.362728133760012
 20
36.85849093045552
 10
9.526825898225932
 20
33.6157259030544
 10
11.48463921153856
 20
34.62107366756
 10
11.48463921153856
 20
34.62107366756
 10
12.27835476038527
 20
34.35649033429282
 10
13.75995252477182
 20
34.35649033429282
 10
15.24155028915836
 20
34.35649033429282
 10
16.91717583127418
 20
35.26313611314602
 10
19.45703802681977
 20
38.31094318703685
 10
19.45703802681977
 20
38.31094318703685
 10
20.86129339756245
 20
39.5555183820382
 10
20.86129339756245
 20
39.5555183820382
 10
20.86129339756245
 20
39.5555183820382
 10
20.86129339756245
 20
49.68196314947187
 10
20.86129339756245
 20
49.68196314947187
 10
20.86129339756245
 20
49.68196314947187
 10
46.24802977359424
 20
49.68196314947187
 10
46.24802977359424
 20
49.68196314947187
 10
47.4637350684292
 20
50.32988225738281
 10
48.51679740540552
 20
50.9185801739023
 10
50.00590547794991
 20
50.9185801739023
 10
52.38818900600017
 20
50.9185801739023
 10
54.42444714351194
 20
51.75529051440493
 10
55.49683646616051
 20
51.60591117416449
 10
55.49683646616051
 20
51.60591117416449
 10
55.49683646616051
 20
98.12930742989475
 10
55.49683646616051
 20
98.12930742989475
 10
54.19455592178122
 20
97.99748085115166
 10
51.63540119151823
 20
97.8697367105586
 10
51.01128769341037
 20
98.80588973224296
 97
        0
 92
        1
 93
        1
 72
     4
 94
        3
 73
     0
 74
     1
 95
       20
 96
       16
 40
0.0
 40
0.0
 40
0.0
 40
0.0
 40
1.0
 40
1.0
 40
1.0
 40
2.0
 40
2.0
 40
2.0
 40
3.0
 40
3.0
 40
3.0
 40
4.0
 40
4.0
 40
4.0
 40
5.0
 40
5.0
 40
5.0
 40
5.0
 10
31.85641899160186
 20
64.62358342568437
 10
31.85641899160186
 20
64.62358342568437
 10
32.70301675614716
 20
65.89351452345717
 10
33.54964897164731
 20
65.7876811901503
 10
34.39628118714746
 20
65.68184785684342
 10
33.54964897164731
 20
64.62358342568437
 10
33.54964897164731
 20
64.62358342568437
 10
33.54964897164731
 20
64.62358342568437
 10
32.89115342059665
 20
63.77695121018423
 10
32.89115342059665
 20
63.77695121018423
 10
32.89115342059665
 20
63.77695121018423
 10
31.85641899160186
 20
64.09441675915001
 10
31.85641899160186
 20
64.09441675915001
 10
31.85641899160186
 20
64.09441675915001
 10
31.85641899160186
 20
64.62358342568437
 10
31.85641899160186
 20
64.62358342568437
 97
        0
 92
        1
 93
        1
 72
     4
 94
        3
 73
     0
 74
     1
 95
       17
 96
       13
 40
0.0
 40
0.0
 40
0.0
 40
0.0
 40
1.0
 40
1.0
 40
1.0
 40
2.0
 40
2.0
 40
2.0
 40
3.0
 40
3.0
 40
3.0
 40
4.0
 40
4.0
 40
4.0
 40
4.0
 10
33.40853786057147
 20
62.45410344575799
 10
33.40853786057147
 20
62.45410344575799
 10
32.89115342059665
 20
62.18952011249081
 10
32.89115342059665
 20
62.18952011249081
 10
32.89115342059665
 20
62.18952011249081
 10
33.33801675598841
 20
63.40653454361017
 10
33.33801675598841
 20
63.40653454361017
 10
33.33801675598841
 20
63.40653454361017
 10
33.29681341398482
 20
62.71865232807033
 10
33.9259223005463
 20
62.79802732805049
 10
34.55503118710777
 20
62.87740232803065
 10
33.40853786057147
 20
62.45410344575799
 10
33.40853786057147
 20
62.45410344575799
 97
        0
 92
        1
 93
        1
 72
     4
 94
        3
 73
     0
 74
     1
 95
       50
 96
       46
 40
0.0
 40
0.0
 40
0.0
 40
0.0
 40
1.0
 40
1.0
 40
1.0
 40
2.0
 40
2.0
 40
2.0
 40
3.0
 40
3.0
 40
3.0
 40
4.0
 40
4.0
 40
4.0
 40
5.0
 40
5.0
 40
5.0
 40
6.0
 40
6.0
 40
6.0
 40
7.0
 40
7.0
 40
7.0
 40
8.0
 40
8.0
 40
8.0
 40
9.0
 40
9.0
 40
9.0
 40
10.0
 40
10.0
 40
10.0
 40
11.0
 40
11.0
 40
11.0
 40
12.0
 40
12.0
 40
12.0
 40
13.0
 40
13.0
 40
13.0
 40
14.0
 40
14.0
 40
14.0
 40
15.0
 40
15.0
 40
15.0
 40
15.0
 10
43.44458332247218
 20
69.7107492230237
 10
43.44458332247218
 20
69.7107492230237
 10
43.12708332255156
 20
68.74129935347439
 10
43.12708332255156
 20
68.74129935347439
 10
43.12708332255156
 20
68.74129935347439
 10
42.01590222473908
 20
67.61165254386097
 10
42.01590222473908
 20
67.61165254386097
 10
42.01590222473908
 20
67.61165254386097
 10
41.80423555812533
 20
68.43337671900277
 10
41.80423555812533
 20
68.43337671900277
 10
41.80423555812533
 20
68.43337671900277
 10
40.69305446031284
 20
68.64504338561652
 10
40.69305446031284
 20
68.64504338561652
 10
40.69305446031284
 20
68.64504338561652
 10
40.69305446031284
 20
68.64504338561652
 10
40.42847112704565
 20
68.74129935347439
 10
40.16388779377847
 20
68.83755532133227
 10
40.42847112704565
 20
69.17417560119604
 10
39.95225557811957
 20
69.59747448346869
 10
39.47604002919348
 20
70.02077336574133
 10
38.99979002931255
 20
69.1212589345426
 10
38.99979002931255
 20
69.1212589345426
 10
38.99979002931255
 20
69.1212589345426
 10
37.62402559823288
 20
69.80914115008243
 10
37.62402559823288
 20
69.80914115008243
 10
37.62402559823288
 20
69.80914115008243
 10
39.6347900291538
 20
71.07907224785522
 10
40.00517224477301
 20
71.77215655757779
 10
40.37555446039222
 20
72.46524086730035
 10
42.80961777358579
 20
73.35438556108848
 10
42.17465222469939
 20
72.93106945333841
 10
41.53968667581299
 20
72.50775334558834
 10
42.17465222469939
 20
71.66113835556561
 10
42.75670110693235
 20
71.44947168895186
 10
43.33874998916531
 20
71.23780502233811
 10
43.44458332247218
 20
71.8198711300485
 10
43.44458332247218
 20
71.8198711300485
 10
43.44458332247218
 20
71.8198711300485
 10
43.76208332239281
 20
71.8198711300485
 10
43.76208332239281
 20
71.8198711300485
 10
43.76208332239281
 20
71.8198711300485
 10
43.76208332239281
 20
71.8198711300485
 10
44.13246553801202
 20
71.5023883556053
 10
44.50284775363123
 20
71.1849055811621
 10
43.44458332247218
 20
69.7107492230237
 10
43.44458332247218
 20
69.7107492230237
 97
        0
 92
        1
 93
        1
 72
     4
 94
        3
 73
     0
 74
     1
 95
       23
 96
       19
 40
0.0
 40
0.0
 40
0.0
 40
0.0
 40
1.0
 40
1.0
 40
1.0
 40
2.0
 40
2.0
 40
2.0
 40
3.0
 40
3.0
 40
3.0
 40
4.0
 40
4.0
 40
4.0
 40
5.0
 40
5.0
 40
5.0
 40
6.0
 40
6.0
 40
6.0
 40
6.0
 10
47.36020994909745
 20
73.04088187193075
 10
47.36020994909745
 20
73.04088187193075
 10
46.67232773355761
 20
73.52109373161971
 10
45.98444551801777
 20
73.04088187193075
 10
45.98444551801777
 20
73.04088187193075
 10
45.61406330239856
 20
74.09518444328175
 10
45.61406330239856
 20
74.09518444328175
 10
45.61406330239856
 20
74.09518444328175
 10
47.36020994909745
 20
74.46556665890097
 10
47.36020994909745
 20
74.46556665890097
 10
47.36020994909745
 20
74.46556665890097
 10
48.15395994889901
 20
74.51850055103183
 10
48.41850883121134
 20
74.04226777662832
 10
48.68305771352367
 20
73.56603500222481
 10
48.78889104683055
 20
72.77231945337809
 10
48.78889104683055
 20
72.77231945337809
 10
48.78889104683055
 20
72.77231945337809
 10
47.36020994909745
 20
73.04088187193075
 10
47.36020994909745
 20
73.04088187193075
 97
        0
 75
     2
 76
     1
 98
        0
  0
SPLINE
  5
49
330
3C
100
AcDbEntity
  8
Capa 1
370
     0
100
AcDbSpline
210
0.0
220
0.0
230
1.0
 70
    11
 71
     3
 72
    17
 73
    13
 74
     0
 42
0.0000000001
 43
0.0000000001
 40
0.0
 40
0.0
 40
0.0
 40
0.0
 40
1.0
 40
1.0
 40
1.0
 40
2.0
 40
2.0
 40
2.0
 40
3.0
 40
3.0
 40
3.0
 40
4.0
 40
4.0
 40
4.0
 40
4.0
 10
50.00590547794991
 20
50.9185801739023
 30
0.0
 10
48.51679740540552
 20
50.9185801739023
 30
0.0
 10
47.4637350684292
 20
50.32988225738281
 30
0.0
 10
46.24802977359424
 20
49.68196314947187
 30
0.0
 10
46.24802977359424
 20
49.68196314947187
 30
0.0
 10
55.49683646616051
 20
49.68196314947187
 30
0.0
 10
55.49683646616051
 20
49.68196314947187
 30
0.0
 10
55.49683646616051
 20
49.68196314947187
 30
0.0
 10
55.49683646616051
 20
51.60591117416449
 30
0.0
 10
55.49683646616051
 20
51.60591117416449
 30
0.0
 10
54.42444714351194
 20
51.75529051440493
 30
0.0
 10
52.38818900600017
 20
50.9185801739023
 30
0.0
 10
50.00590547794991
 20
50.9185801739023
 30
0.0
  0
HATCH
  5
4A
330
3C
100
AcDbEntity
  8
Capa 1
 62
    25
420
  9529409
100
AcDbHatch
 10
0.0
 20
0.0
 30
0.0
210
0.0
220
0.0
230
1.0
  2
SOLID
 70
     1
 71
     0
 91
        1
 92
        1
 93
        1
 72
     4
 94
        3
 73
     0
 74
     1
 95
       17
 96
       13
 40
0.0
 40
0.0
 40
0.0
 40
0.0
 40
1.0
 40
1.0
 40
1.0
 40
2.0
 40
2.0
 40
2.0
 40
3.0
 40
3.0
 40
3.0
 40
4.0
 40
4.0
 40
4.0
 40
4.0
 10
50.00590547794991
 20
50.9185801739023
 10
48.51679740540552
 20
50.9185801739023
 10
47.4637350684292
 20
50.32988225738281
 10
46.24802977359424
 20
49.68196314947187
 10
46.24802977359424
 20
49.68196314947187
 10
55.49683646616051
 20
49.68196314947187
 10
55.49683646616051
 20
49.68196314947187
 10
55.49683646616051
 20
49.68196314947187
 10
55.49683646616051
 20
51.60591117416449
 10
55.49683646616051
 20
51.60591117416449
 10
54.42444714351194
 20
51.75529051440493
 10
52.38818900600017
 20
50.9185801739023
 10
50.00590547794991
 20
50.9185801739023
 97
        0
 75
     2
 76
     1
 98
        0
  0
SPLINE
  5
4B
330
3C
100
AcDbEntity
  8
Capa 1
370
     0
100
AcDbSpline
210
0.0
220
0.0
230
1.0
 70
    11
 71
     3
 72
    44
 73
    40
 74
     0
 42
0.0000000001
 43
0.0000000001
 40
0.0
 40
0.0
 40
0.0
 40
0.0
 40
1.0
 40
1.0
 40
1.0
 40
2.0
 40
2.0
 40
2.0
 40
3.0
 40
3.0
 40
3.0
 40
4.0
 40
4.0
 40
4.0
 40
5.0
 40
5.0
 40
5.0
 40
6.0
 40
6.0
 40
6.0
 40
7.0
 40
7.0
 40
7.0
 40
8.0
 40
8.0
 40
8.0
 40
9.0
 40
9.0
 40
9.0
 40
10.0
 40
10.0
 40
10.0
 40
11.0
 40
11.0
 40
11.0
 40
12.0
 40
12.0
 40
12.0
 40
13.0
 40
13.0
 40
13.0
 40
13.0
 10
19.45703802681977
 20
38.31094318703685
 30
0.0
 10
16.91717583127418
 20
35.26313611314602
 30
0.0
 10
15.24155028915836
 20
34.35649033429282
 30
0.0
 10
13.75995252477182
 20
34.35649033429282
 30
0.0
 10
12.27835476038527
 20
34.35649033429282
 30
0.0
 10
11.48463921153856
 20
34.62107366756
 30
0.0
 10
11.48463921153856
 20
34.62107366756
 30
0.0
 10
9.526825898225932
 20
33.6157259030544
 30
0.0
 10
8.362728133760012
 20
36.85849093045552
 30
0.0
 10
8.362728133760012
 20
36.85849093045552
 30
0.0
 10
7.886512584833927
 20
35.44486489999295
 30
0.0
 10
5.505365938293797
 20
35.15020588313953
 30
0.0
 10
5.24078260502661
 20
35.15020588313953
 30
0.0
 10
4.976199271759422
 20
35.15020588313953
 30
0.0
 10
3.86501817394694
 20
36.04975476529312
 30
0.0
 10
3.49463595832773
 20
35.2560392164464
 30
0.0
 10
3.12425374270852
 20
34.4623236675997
 30
0.0
 10
2.224704860554935
 20
35.52058809875874
 30
0.0
 10
2.224704860554935
 20
35.52058809875874
 30
0.0
 10
-2.325887314956722
 20
33.6156570011447
 30
0.0
 10
-1.690956217025178
 20
35.41478921640672
 30
0.0
 10
-4.124985079263892
 20
36.64992484977849
 30
0.0
 10
-6.559013941502607
 20
37.88506048315026
 30
0.0
 10
-6.13571505922996
 20
40.86493027407196
 30
0.0
 10
-6.453215059150585
 20
40.28253688229047
 30
0.0
 10
-6.770715059071209
 20
39.70014349050899
 30
0.0
 10
-9.522226695753123
 20
39.59499917629916
 30
0.0
 10
-9.522226695753123
 20
39.59499917629916
 30
0.0
 10
-9.522226695753123
 20
39.59499917629916
 30
0.0
 10
-11.71082695562264
 20
33.54916665827938
 30
0.0
 10
-11.71082695562264
 20
33.54916665827938
 30
0.0
 10
-11.71082695562264
 20
33.54916665827938
 30
0.0
 10
20.86129339756245
 20
33.54916665827938
 30
0.0
 10
20.86129339756245
 20
33.54916665827938
 30
0.0
 10
20.86129339756245
 20
33.54916665827938
 30
0.0
 10
20.86129339756245
 20
39.5555183820382
 30
0.0
 10
20.86129339756245
 20
39.5555183820382
 30
0.0
 10
20.86129339756245
 20
39.5555183820382
 30
0.0
 10
19.45703802681977
 20
38.31094318703685
 30
0.0
 10
19.45703802681977
 20
38.31094318703685
 30
0.0
  0
HATCH
  5
4C
330
3C
100
AcDbEntity
  8
Capa 1
 62
    25
420
  9529409
100
AcDbHatch
 10
0.0
 20
0.0
 30
0.0
210
0.0
220
0.0
230
1.0
  2
SOLID
 70
     1
 71
     0
 91
        1
 92
        1
 93
        1
 72
     4
 94
        3
 73
     0
 74
     1
 95
       44
 96
       40
 40
0.0
 40
0.0
 40
0.0
 40
0.0
 40
1.0
 40
1.0
 40
1.0
 40
2.0
 40
2.0
 40
2.0
 40
3.0
 40
3.0
 40
3.0
 40
4.0
 40
4.0
 40
4.0
 40
5.0
 40
5.0
 40
5.0
 40
6.0
 40
6.0
 40
6.0
 40
7.0
 40
7.0
 40
7.0
 40
8.0
 40
8.0
 40
8.0
 40
9.0
 40
9.0
 40
9.0
 40
10.0
 40
10.0
 40
10.0
 40
11.0
 40
11.0
 40
11.0
 40
12.0
 40
12.0
 40
12.0
 40
13.0
 40
13.0
 40
13.0
 40
13.0
 10
19.45703802681977
 20
38.31094318703685
 10
16.91717583127418
 20
35.26313611314602
 10
15.24155028915836
 20
34.35649033429282
 10
13.75995252477182
 20
34.35649033429282
 10
12.27835476038527
 20
34.35649033429282
 10
11.48463921153856
 20
34.62107366756
 10
11.48463921153856
 20
34.62107366756
 10
9.526825898225932
 20
33.6157259030544
 10
8.362728133760012
 20
36.85849093045552
 10
8.362728133760012
 20
36.85849093045552
 10
7.886512584833927
 20
35.44486489999295
 10
5.505365938293797
 20
35.15020588313953
 10
5.24078260502661
 20
35.15020588313953
 10
4.976199271759422
 20
35.15020588313953
 10
3.86501817394694
 20
36.04975476529312
 10
3.49463595832773
 20
35.2560392164464
 10
3.12425374270852
 20
34.4623236675997
 10
2.224704860554935
 20
35.52058809875874
 10
2.224704860554935
 20
35.52058809875874
 10
-2.325887314956722
 20
33.6156570011447
 10
-1.690956217025178
 20
35.41478921640672
 10
-4.124985079263892
 20
36.64992484977849
 10
-6.559013941502607
 20
37.88506048315026
 10
-6.13571505922996
 20
40.86493027407196
 10
-6.453215059150585
 20
40.28253688229047
 10
-6.770715059071209
 20
39.70014349050899
 10
-9.522226695753123
 20
39.59499917629916
 10
-9.522226695753123
 20
39.59499917629916
 10
-9.522226695753123
 20
39.59499917629916
 10
-11.71082695562264
 20
33.54916665827938
 10
-11.71082695562264
 20
33.54916665827938
 10
-11.71082695562264
 20
33.54916665827938
 10
20.86129339756245
 20
33.54916665827938
 10
20.86129339756245
 20
33.54916665827938
 10
20.86129339756245
 20
33.54916665827938
 10
20.86129339756245
 20
39.5555183820382
 10
20.86129339756245
 20
39.5555183820382
 10
20.86129339756245
 20
39.5555183820382
 10
19.45703802681977
 20
38.31094318703685
 10
19.45703802681977
 20
38.31094318703685
 97
        0
 75
     2
 76
     1
 98
        0
  0
SPLINE
  5
4D
330
3C
100
AcDbEntity
  8
Capa 1
370
     0
100
AcDbSpline
210
0.0
220
0.0
230
1.0
 70
    11
 71
     3
 72
   251
 73
   247
 74
     0
 42
0.0000000001
 43
0.0000000001
 40
0.0
 40
0.0
 40
0.0
 40
0.0
 40
1.0
 40
1.0
 40
1.0
 40
2.0
 40
2.0
 40
2.0
 40
3.0
 40
3.0
 40
3.0
 40
4.0
 40
4.0
 40
4.0
 40
5.0
 40
5.0
 40
5.0
 40
6.0
 40
6.0
 40
6.0
 40
7.0
 40
7.0
 40
7.0
 40
8.0
 40
8.0
 40
8.0
 40
9.0
 40
9.0
 40
9.0
 40
10.0
 40
10.0
 40
10.0
 40
11.0
 40
11.0
 40
11.0
 40
12.0
 40
12.0
 40
12.0
 40
13.0
 40
13.0
 40
13.0
 40
14.0
 40
14.0
 40
14.0
 40
15.0
 40
15.0
 40
15.0
 40
16.0
 40
16.0
 40
16.0
 40
17.0
 40
17.0
 40
17.0
 40
18.0
 40
18.0
 40
18.0
 40
19.0
 40
19.0
 40
19.0
 40
20.0
 40
20.0
 40
20.0
 40
21.0
 40
21.0
 40
21.0
 40
22.0
 40
22.0
 40
22.0
 40
23.0
 40
23.0
 40
23.0
 40
24.0
 40
24.0
 40
24.0
 40
25.0
 40
25.0
 40
25.0
 40
26.0
 40
26.0
 40
26.0
 40
27.0
 40
27.0
 40
27.0
 40
28.0
 40
28.0
 40
28.0
 40
29.0
 40
29.0
 40
29.0
 40
30.0
 40
30.0
 40
30.0
 40
31.0
 40
31.0
 40
31.0
 40
32.0
 40
32.0
 40
32.0
 40
33.0
 40
33.0
 40
33.0
 40
34.0
 40
34.0
 40
34.0
 40
35.0
 40
35.0
 40
35.0
 40
36.0
 40
36.0
 40
36.0
 40
37.0
 40
37.0
 40
37.0
 40
38.0
 40
38.0
 40
38.0
 40
39.0
 40
39.0
 40
39.0
 40
40.0
 40
40.0
 40
40.0
 40
41.0
 40
41.0
 40
41.0
 40
42.0
 40
42.0
 40
42.0
 40
43.0
 40
43.0
 40
43.0
 40
44.0
 40
44.0
 40
44.0
 40
45.0
 40
45.0
 40
45.0
 40
46.0
 40
46.0
 40
46.0
 40
47.0
 40
47.0
 40
47.0
 40
48.0
 40
48.0
 40
48.0
 40
49.0
 40
49.0
 40
49.0
 40
50.0
 40
50.0
 40
50.0
 40
51.0
 40
51.0
 40
51.0
 40
52.0
 40
52.0
 40
52.0
 40
53.0
 40
53.0
 40
53.0
 40
54.0
 40
54.0
 40
54.0
 40
55.0
 40
55.0
 40
55.0
 40
56.0
 40
56.0
 40
56.0
 40
57.0
 40
57.0
 40
57.0
 40
58.0
 40
58.0
 40
58.0
 40
59.0
 40
59.0
 40
59.0
 40
60.0
 40
60.0
 40
60.0
 40
61.0
 40
61.0
 40
61.0
 40
62.0
 40
62.0
 40
62.0
 40
63.0
 40
63.0
 40
63.0
 40
64.0
 40
64.0
 40
64.0
 40
65.0
 40
65.0
 40
65.0
 40
66.0
 40
66.0
 40
66.0
 40
67.0
 40
67.0
 40
67.0
 40
68.0
 40
68.0
 40
68.0
 40
69.0
 40
69.0
 40
69.0
 40
70.0
 40
70.0
 40
70.0
 40
71.0
 40
71.0
 40
71.0
 40
72.0
 40
72.0
 40
72.0
 40
73.0
 40
73.0
 40
73.0
 40
74.0
 40
74.0
 40
74.0
 40
75.0
 40
75.0
 40
75.0
 40
76.0
 40
76.0
 40
76.0
 40
77.0
 40
77.0
 40
77.0
 40
78.0
 40
78.0
 40
78.0
 40
79.0
 40
79.0
 40
79.0
 40
80.0
 40
80.0
 40
80.0
 40
81.0
 40
81.0
 40
81.0
 40
82.0
 40
82.0
 40
82.0
 40
82.0
 10
15.33263861378837
 20
101.6068040381834
 30
0.0
 10
14.60482774157449
 20
95.61986542748392
 30
0.0
 10
12.9660991721057
 20
95.8424530467859
 30
0.0
 10
12.9660991721057
 20
95.8424530467859
 30
0.0
 10
12.9660991721057
 20
95.8424530467859
 30
0.0
 10
10.47915364321354
 20
95.0487374979392
 30
0.0
 10
10.47915364321354
 20
95.0487374979392
 30
0.0
 10
10.47915364321354
 20
95.0487374979392
 30
0.0
 10
7.515958114440455
 20
96.21285248788254
 30
0.0
 10
7.515958114440455
 20
96.21285248788254
 30
0.0
 10
7.515958114440455
 20
96.21285248788254
 30
0.0
 10
5.981443683400472
 20
95.63078638017215
 30
0.0
 10
5.981443683400472
 20
95.63078638017215
 30
0.0
 10
5.981443683400472
 20
95.63078638017215
 30
0.0
 10
4.394047036661904
 20
96.05410248792224
 30
0.0
 10
4.394047036661904
 20
96.05410248792224
 30
0.0
 10
4.394047036661904
 20
96.05410248792224
 30
0.0
 10
3.282831487894569
 20
96.53033526232575
 30
0.0
 10
3.282831487894569
 20
96.53033526232575
 30
0.0
 10
3.282831487894569
 20
96.53033526232575
 30
0.0
 10
2.542032605701297
 20
96.10701915457567
 30
0.0
 10
2.542032605701297
 20
96.10701915457567
 30
0.0
 10
2.542032605701297
 20
96.10701915457567
 30
0.0
 10
2.224567056735525
 20
96.318668595712
 30
0.0
 10
2.224567056735525
 20
96.318668595712
 30
0.0
 10
2.224567056735525
 20
96.318668595712
 30
0.0
 10
-1.585260687537712
 20
95.89536971343935
 30
0.0
 10
-1.585260687537712
 20
95.89536971343935
 30
0.0
 10
-1.585260687537712
 20
95.89536971343935
 30
0.0
 10
-4.601338432009388
 20
96.4774185956723
 30
0.0
 10
-4.601338432009388
 20
96.4774185956723
 30
0.0
 10
-4.601338432009388
 20
96.4774185956723
 30
0.0
 10
-6.082936196395933
 20
96.90073470342237
 30
0.0
 10
-6.082936196395933
 20
96.90073470342237
 30
0.0
 10
-6.082936196395933
 20
96.90073470342237
 30
0.0
 10
-7.723266735265363
 20
96.90073470342237
 30
0.0
 10
-7.723266735265363
 20
96.90073470342237
 30
0.0
 10
-7.723266735265363
 20
96.90073470342237
 30
0.0
 10
-8.252416176322312
 20
97.58861691896222
 30
0.0
 10
-8.252416176322312
 20
97.58861691896222
 30
0.0
 10
-8.252416176322312
 20
97.58861691896222
 30
0.0
 10
-9.734013940708858
 20
96.84781803676894
 30
0.0
 10
-9.734013940708858
 20
96.84781803676894
 30
0.0
 10
-9.734013940708858
 20
96.84781803676894
 30
0.0
 10
-10.4747955974247
 20
97.05946747790526
 30
0.0
 10
-10.4747955974247
 20
97.05946747790526
 30
0.0
 10
-10.4747955974247
 20
97.05946747790526
 30
0.0
 10
-15.5016377728173
 20
97.00655081125183
 30
0.0
 10
-15.5016377728173
 20
97.00655081125183
 30
0.0
 10
-15.5016377728173
 20
97.00655081125183
 30
0.0
 10
-17.08905164503329
 20
98.54106524229181
 30
0.0
 10
-17.08905164503329
 20
98.54106524229181
 30
0.0
 10
-17.08905164503329
 20
98.54106524229181
 30
0.0
 10
-19.36436495826655
 20
98.54106524229181
 30
0.0
 10
-19.36436495826655
 20
98.54106524229181
 30
0.0
 10
-19.36436495826655
 20
98.54106524229181
 30
0.0
 10
-21.8513104871587
 20
97.00655081125183
 30
0.0
 10
-21.8513104871587
 20
97.00655081125183
 30
0.0
 10
-21.8513104871587
 20
97.00655081125183
 30
0.0
 10
-21.48092827153949
 20
95.41913693903584
 30
0.0
 10
-21.48092827153949
 20
95.41913693903584
 30
0.0
 10
-21.48092827153949
 20
95.41913693903584
 30
0.0
 10
-22.46674234464373
 20
95.31878130755051
 30
0.0
 10
-23.69743380483953
 20
95.17367388571178
 30
0.0
 10
-24.06800550071043
 20
95.12999007495881
 30
0.0
 10
-24.21383639260105
 20
95.71546682719959
 30
0.0
 10
-24.60860988425583
 20
95.6840992328064
 30
0.0
 10
-24.91436210857175
 20
95.65981130963539
 30
0.0
 10
-25.4682473352128
 20
95.05376733734767
 30
0.0
 10
-25.76695433926139
 20
94.83708805680287
 30
0.0
 10
-27.03194172501285
 20
93.91953855073886
 30
0.0
 10
-26.80001789694583
 20
93.2196329519555
 30
0.0
 10
-26.59014267998441
 20
92.68646997465824
 30
0.0
 10
-26.46422443999852
 20
92.36655840789794
 30
0.0
 10
-26.61718667954362
 20
92.10667762996812
 30
0.0
 10
-26.34757350686797
 20
91.8958205607934
 30
0.0
 10
-26.10789821395914
 20
91.7084073663958
 30
0.0
 10
-25.52388562729958
 20
91.81058889848832
 30
0.0
 10
-25.50238823147162
 20
91.60932642024002
 30
0.0
 10
-25.45484591377518
 20
91.16423730902316
 30
0.0
 10
-26.43661199968425
 20
90.19239309811162
 30
0.0
 10
-26.08443711370458
 20
89.91607921471716
 30
0.0
 10
-25.73801553718529
 20
89.64427840640838
 30
0.0
 10
-24.99335814804853
 20
91.07197765192818
 30
0.0
 10
-24.60283934931804
 20
90.86852753804675
 30
0.0
 10
-24.15873209031448
 20
90.63715492525738
 30
0.0
 10
-25.34060654748429
 20
89.30045787698043
 30
0.0
 10
-25.02615545706811
 20
88.91071422473412
 30
0.0
 10
-24.86833563288882
 20
88.71510170308163
 30
0.0
 10
-24.09065700352594
 20
89.15214651634042
 30
0.0
 10
-24.02079046708508
 20
88.91071422473412
 30
0.0
 10
-23.93815985187136
 20
88.62515025996176
 30
0.0
 10
-25.02191798962125
 20
88.57299151431508
 30
0.0
 10
-25.02615545706811
 20
88.27574867584772
 30
0.0
 10
-25.02956610159851
 20
88.03729639183615
 30
0.0
 10
-24.19295911396044
 20
88.18733030021879
 30
0.0
 10
-24.12662380039195
 20
87.95826590140453
 30
0.0
 10
-24.02947210770791
 20
87.62279972852832
 30
0.0
 10
-25.07028713023416
 20
87.41805770383992
 30
0.0
 10
-25.23782212368186
 20
87.11163368590438
 30
0.0
 10
-25.47339775296325
 20
86.68075559356419
 30
0.0
 10
-25.39655489816475
 20
85.15382037259175
 30
0.0
 10
-25.39655489816475
 20
85.15382037259175
 30
0.0
 10
-25.39655489816475
 20
85.15382037259175
 30
0.0
 10
-24.60283934931804
 20
81.55565929493225
 30
0.0
 10
-24.44410657483515
 20
79.28036320717644
 30
0.0
 10
-24.28537380035226
 20
77.0050671194206
 30
0.0
 10
-25.87278767256826
 20
73.83022214951119
 30
0.0
 10
-26.56066988810809
 20
70.60246051294834
 30
0.0
 10
-27.24855210364793
 20
67.37469887638548
 30
0.0
 10
-29.47093152475032
 20
66.73983668036365
 30
0.0
 10
-29.47093152475032
 20
66.73983668036365
 30
0.0
 10
-29.10053208365369
 20
62.87712672039182
 30
0.0
 10
-30.15881374029016
 20
62.08337672059026
 30
0.0
 10
-30.15881374029016
 20
62.08337672059026
 30
0.0
 10
-28.09516709367065
 20
61.87171005397651
 30
0.0
 10
-28.51848320142073
 20
59.75518119165842
 30
0.0
 10
-28.51848320142073
 20
59.75518119165842
 30
0.0
 10
-28.51848320142073
 20
59.75518119165842
 30
0.0
 10
-26.45483655480122
 20
60.12556340727763
 30
0.0
 10
-26.45483655480122
 20
60.12556340727763
 30
0.0
 10
-26.42236652985274
 20
60.06324162994947
 30
0.0
 10
-26.39227362078908
 20
59.99744030618119
 30
0.0
 10
-26.36442002379084
 20
59.92836614170193
 30
0.0
 10
-25.25768309915433
 20
57.1830729023709
 30
0.0
 10
-27.72476765257402
 20
49.27823240955544
 30
0.0
 10
-27.72476765257402
 20
49.27823240955544
 30
0.0
 10
-25.76693711378396
 20
50.38941350736792
 30
0.0
 10
-21.05761216378941
 20
48.58242647439953
 30
0.0
 10
-21.05761216378941
 20
48.58242647439953
 30
0.0
 10
-21.05761216378941
 20
48.58242647439953
 30
0.0
 10
-21.00469549713598
 20
49.54281574282263
 30
0.0
 10
-18.14733330166976
 20
50.12486462505559
 30
0.0
 10
-15.28997110620355
 20
50.70691350728855
 30
0.0
 10
-11.48016058740774
 20
47.53208576285656
 30
0.0
 10
-11.63891058736805
 20
44.78875622795211
 30
0.0
 10
-11.79766058732836
 20
42.04542669304767
 30
0.0
 10
-5.977102863089057
 20
40.38868027419102
 30
0.0
 10
-6.082936196395933
 20
41.92812119177491
 30
0.0
 10
-6.188769529702808
 20
43.4675621093588
 30
0.0
 10
-3.38432400089003
 20
44.78875622795211
 30
0.0
 10
-3.38432400089003
 20
44.78875622795211
 30
0.0
 10
-3.38432400089003
 20
44.78875622795211
 30
0.0
 10
-2.537691785389883
 20
44.78875622795211
 30
0.0
 10
-2.537691785389883
 20
44.78875622795211
 30
0.0
 10
-2.537691785389883
 20
44.78875622795211
 30
0.0
 10
-1.479427354230838
 20
45.25704805726212
 30
0.0
 10
-1.479427354230838
 20
45.25704805726212
 30
0.0
 10
-1.479427354230838
 20
45.25704805726212
 30
0.0
 10
-0.3682118054635026
 20
46.47406248838148
 30
0.0
 10
-0.3682118054635026
 20
46.47406248838148
 30
0.0
 10
-0.3682118054635026
 20
46.47406248838148
 30
0.0
 10
8.045090330019978
 20
46.73864582164867
 30
0.0
 10
8.045090330019978
 20
46.73864582164867
 30
0.0
 10
8.045090330019978
 20
46.73864582164867
 30
0.0
 10
8.997555878826999
 20
46.52697915503492
 30
0.0
 10
9.473771427753084
 20
46.26239582176773
 30
0.0
 10
9.949986976679169
 20
45.99781248850054
 30
0.0
 10
10.26748697659979
 20
46.57989582168835
 30
0.0
 10
10.42623697656011
 20
47.07051186974279
 30
0.0
 10
10.58498697652042
 20
47.56112791779722
 30
0.0
 10
12.1195014075604
 20
47.53232691954052
 30
0.0
 10
12.1195014075604
 20
47.53232691954052
 30
0.0
 10
12.1195014075604
 20
47.53232691954052
 30
0.0
 10
12.48988362317961
 20
46.31531248842117
 30
0.0
 10
13.54814805433866
 20
47.07051186974279
 30
0.0
 10
14.6064124854977
 20
47.8257112510644
 30
0.0
 10
14.92391248541833
 20
49.59600801711488
 30
0.0
 10
15.0297458187252
 20
50.38968911500674
 30
0.0
 10
15.13557915203208
 20
51.18337021289859
 30
0.0
 10
16.56426024976518
 20
52.18878687931391
 30
0.0
 10
17.72835801423111
 20
52.87666909485375
 30
0.0
 10
18.89245577869702
 20
53.56455131039358
 30
0.0
 10
21.32651909189059
 20
53.61743352609216
 30
0.0
 10
21.32651909189059
 20
53.61743352609216
 30
0.0
 10
21.32651909189059
 20
53.61743352609216
 30
0.0
 10
21.27360242523715
 20
53.98781574171137
 30
0.0
 10
20.69155354300419
 20
54.51698240824575
 30
0.0
 10
20.10950466077123
 20
55.04614907478012
 30
0.0
 10
22.26000216457389
 20
59.27920679941631
 30
0.0
 10
22.26000216457389
 20
59.27920679941631
 30
0.0
 10
22.26000216457389
 20
59.27920679941631
 30
0.0
 10
25.93006238501054
 20
62.34820121054142
 30
0.0
 10
26.03586126736256
 20
62.71858342616063
 30
0.0
 10
26.14166014971458
 20
63.08896564177984
 30
0.0
 10
25.13634683616383
 20
63.14191675938812
 30
0.0
 10
24.50138128727743
 20
63.61813230831421
 30
0.0
 10
23.86641573839103
 20
64.0943478572403
 30
0.0
 10
23.44308240516353
 20
65.20556340600763
 30
0.0
 10
22.80811685627713
 20
67.00462671935995
 30
0.0
 10
22.17315130739074
 20
68.80369003271227
 30
0.0
 10
26.30044460062975
 20
75.04756386470164
 30
0.0
 10
27.19999348278333
 20
76.00001218803123
 30
0.0
 10
28.09954236493692
 20
76.95246051136084
 30
0.0
 10
28.68159124716988
 20
77.16409272701974
 30
0.0
 10
28.73447346286846
 20
77.48157550146293
 30
0.0
 10
28.78735567856705
 20
77.79905827590613
 30
0.0
 10
27.67620903170942
 20
77.90489160921301
 30
0.0
 10
27.67620903170942
 20
77.90489160921301
 30
0.0
 10
30.16318901155642
 20
80.81517047133266
 30
0.0
 10
29.89860567828924
 20
79.59813881473588
 30
0.0
 10
30.11023789394813
 20
79.96853825583251
 30
0.0
 10
30.32187010960703
 20
80.33893769692915
 30
0.0
 10
35.2429134026476
 20
82.03213322601974
 30
0.0
 10
35.2429134026476
 20
82.03213322601974
 30
0.0
 10
35.2429134026476
 20
82.03213322601974
 30
0.0
 10
36.19537895145462
 20
83.51373099040629
 30
0.0
 10
36.19537895145462
 20
83.51373099040629
 30
0.0
 10
36.19537895145462
 20
83.51373099040629
 30
0.0
 10
40.79888779361972
 20
86.95314206810546
 30
0.0
 10
40.85180446027316
 20
87.7997742836056
 30
0.0
 10
40.9047211269266
 20
88.64640649910575
 30
0.0
 10
40.11100557807988
 20
89.91633759687855
 30
0.0
 10
40.11100557807988
 20
89.91633759687855
 30
0.0
 10
40.11100557807988
 20
89.91633759687855
 30
0.0
 10
41.01055446023347
 20
89.81050426357167
 30
0.0
 10
41.01055446023347
 20
89.81050426357167
 30
0.0
 10
41.01055446023347
 20
89.81050426357167
 30
0.0
 10
41.01055446023347
 20
90.39255314580463
 30
0.0
 10
41.01055446023347
 20
90.39255314580463
 30
0.0
 10
41.01055446023347
 20
90.39255314580463
 30
0.0
 10
40.2697555780402
 20
90.71003592024783
 30
0.0
 10
40.2697555780402
 20
90.71003592024783
 30
0.0
 10
40.2697555780402
 20
90.71003592024783
 30
0.0
 10
39.31729002923318
 20
92.93243256682764
 30
0.0
 10
39.15854002927286
 20
94.99607921344716
 30
0.0
 10
38.99979002931255
 20
97.05972586006666
 30
0.0
 10
42.28048555800626
 20
97.95925751674282
 30
0.0
 10
42.80961777358579
 20
98.91172306554984
 30
0.0
 10
43.33874998916531
 20
99.86418861435686
 30
0.0
 10
44.71451442024498
 20
99.54668861443623
 30
0.0
 10
44.71451442024498
 20
99.54668861443623
 30
0.0
 10
44.71451442024498
 20
99.54668861443623
 30
0.0
 10
48.3655921645579
 20
98.96462250672585
 30
0.0
 10
48.3655921645579
 20
98.96462250672585
 30
0.0
 10
48.3655921645579
 20
98.96462250672585
 30
0.0
 10
50.16465547791022
 20
100.0758208300158
 30
0.0
 10
51.01128769341037
 20
98.80588973224296
 30
0.0
 10
51.63540119151823
 20
97.8697367105586
 30
0.0
 10
54.19455592178122
 20
97.99748085115166
 30
0.0
 10
55.49683646616051
 20
98.12930742989475
 30
0.0
 10
55.49683646616051
 20
98.12930742989475
 30
0.0
 10
55.49683646616051
 20
101.6068040381834
 30
0.0
 10
55.49683646616051
 20
101.6068040381834
 30
0.0
 10
55.49683646616051
 20
101.6068040381834
 30
0.0
 10
15.33263861378837
 20
101.6068040381834
 30
0.0
 10
15.33263861378837
 20
101.6068040381834
 30
0.0
  0
SPLINE
  5
4E
330
3C
100
AcDbEntity
  8
Capa 1
370
     0
100
AcDbSpline
210
0.0
220
0.0
230
1.0
 70
    11
 71
     3
 72
    26
 73
    22
 74
     0
 42
0.0000000001
 43
0.0000000001
 40
0.0
 40
0.0
 40
0.0
 40
0.0
 40
1.0
 40
1.0
 40
1.0
 40
2.0
 40
2.0
 40
2.0
 40
3.0
 40
3.0
 40
3.0
 40
4.0
 40
4.0
 40
4.0
 40
5.0
 40
5.0
 40
5.0
 40
6.0
 40
6.0
 40
6.0
 40
7.0
 40
7.0
 40
7.0
 40
7.0
 10
11.27286919206025
 20
93.99081757632868
 30
0.0
 10
11.27286919206025
 20
93.99081757632868
 30
0.0
 10
15.00838622671665
 20
93.35583480196486
 30
0.0
 10
15.20427435600796
 20
92.19173703749894
 30
0.0
 10
15.40016248529926
 20
91.02763927303302
 30
0.0
 10
16.50758842903283
 20
90.39267372414662
 30
0.0
 10
14.18125325166302
 20
89.96935761639654
 30
0.0
 10
11.85491807429321
 20
89.54604150864647
 30
0.0
 10
10.10873697663948
 20
88.9480418343168
 30
0.0
 10
9.632521427713396
 20
89.5116077792714
 30
0.0
 10
9.156305878787311
 20
90.07517372422599
 30
0.0
 10
8.170801864276743
 20
90.65722260645896
 30
0.0
 10
8.02858832264563
 20
91.08053871420903
 30
0.0
 10
7.886374781014517
 20
91.5038548219591
 30
0.0
 10
7.833458114361079
 20
91.76843815522629
 30
0.0
 10
8.256756996633726
 20
92.29757037080581
 30
0.0
 10
8.680055878906375
 20
92.82670258638534
 30
0.0
 10
9.827617185043096
 20
93.0912686941751
 30
0.0
 10
10.10046874747488
 20
93.2500186941354
 30
0.0
 10
10.37332030990667
 20
93.40876869409571
 30
0.0
 10
11.27286919206025
 20
93.99081757632868
 30
0.0
 10
11.27286919206025
 20
93.99081757632868
 30
0.0
  0
SPLINE
  5
4F
330
3C
100
AcDbEntity
  8
Capa 1
370
     0
100
AcDbSpline
210
0.0
220
0.0
230
1.0
 70
    11
 71
     3
 72
    26
 73
    22
 74
     0
 42
0.0000000001
 43
0.0000000001
 40
0.0
 40
0.0
 40
0.0
 40
0.0
 40
1.0
 40
1.0
 40
1.0
 40
2.0
 40
2.0
 40
2.0
 40
3.0
 40
3.0
 40
3.0
 40
4.0
 40
4.0
 40
4.0
 40
5.0
 40
5.0
 40
5.0
 40
6.0
 40
6.0
 40
6.0
 40
7.0
 40
7.0
 40
7.0
 40
7.0
 10
-12.69719224400452
 20
95.73698144850498
 30
0.0
 10
-8.516982284112073
 20
95.73698144850498
 30
0.0
 10
-1.849809569850047
 20
94.8374325663514
 30
0.0
 10
0.1080037434625824
 20
95.20783200744803
 30
0.0
 10
2.065817056775212
 20
95.57823144854467
 30
0.0
 10
4.552762585667365
 20
95.47241534071522
 30
0.0
 10
4.552762585667365
 20
95.47241534071522
 30
0.0
 10
4.764429252281115
 20
95.47241534071522
 30
0.0
 10
9.15627142783246
 20
95.36658200740835
 30
0.0
 10
8.838805878866687
 20
94.36121701742532
 30
0.0
 10
8.521340329900914
 20
93.35585202744228
 30
0.0
 10
3.970713703434404
 20
92.03298703753862
 30
0.0
 10
2.012900390121775
 20
92.56213647859558
 30
0.0
 10
0.0550870768091449
 20
93.09128591965252
 30
0.0
 10
-1.462305229669146
 20
91.8745643216494
 30
0.0
 10
-3.190571830799579
 20
91.63630151788954
 30
0.0
 10
-4.918838431930013
 20
91.39803871412965
 30
0.0
 10
-11.85056002850437
 20
91.29218815534534
 30
0.0
 10
-13.01467501844772
 20
92.1388203708455
 30
0.0
 10
-14.17879000839106
 20
92.98545258634564
 30
0.0
 10
-16.87740220389697
 20
95.73698144850498
 30
0.0
 10
-12.69719224400452
 20
95.73698144850498
 30
0.0
  0
SPLINE
  5
50
330
3C
100
AcDbEntity
  8
Capa 1
370
     0
100
AcDbSpline
210
0.0
220
0.0
230
1.0
 70
    11
 71
     3
 72
    29
 73
    25
 74
     0
 42
0.0000000001
 43
0.0000000001
 40
0.0
 40
0.0
 40
0.0
 40
0.0
 40
1.0
 40
1.0
 40
1.0
 40
2.0
 40
2.0
 40
2.0
 40
3.0
 40
3.0
 40
3.0
 40
4.0
 40
4.0
 40
4.0
 40
5.0
 40
5.0
 40
5.0
 40
6.0
 40
6.0
 40
6.0
 40
7.0
 40
7.0
 40
7.0
 40
8.0
 40
8.0
 40
8.0
 40
8.0
 10
-12.3800884300647
 20
67.95664440575389
 30
0.0
 10
-12.46723212036409
 20
67.96167424516236
 30
0.0
 10
-12.38718532676431
 20
68.01572779332592
 30
0.0
 10
-9.36361449961222
 20
68.43337671900277
 30
0.0
 10
-5.592130668089814
 20
68.95434405828225
 30
0.0
 10
-1.21484402096365
 20
68.90959226792884
 30
0.0
 10
1.617954643692733
 20
69.33292560115635
 30
0.0
 10
4.450753308349117
 20
69.75625893438385
 30
0.0
 10
6.351860349974534
 20
67.53382783684917
 30
0.0
 10
5.981443683400472
 20
66.63431340565045
 30
0.0
 10
5.61102701682641
 20
65.7347989744517
 30
0.0
 10
2.965365938928797
 20
65.09979897461047
 30
0.0
 10
0.6900526256955424
 20
64.78543401158142
 30
0.0
 10
-1.585260687537712
 20
64.47106904855237
 30
0.0
 10
-0.84446180534444
 20
66.21098007242294
 30
0.0
 10
-3.437240667543467
 20
66.63431340565045
 30
0.0
 10
-6.030019529742495
 20
67.05764673887795
 30
0.0
 10
-8.887381725208709
 20
64.78229897468984
 30
0.0
 10
-11.69182725402149
 20
63.77695121018423
 30
0.0
 10
-14.49627278283426
 20
62.77160344567862
 30
0.0
 10
-13.70255723398755
 20
63.51236787691704
 30
0.0
 10
-15.97785332174338
 20
65.57601452353654
 30
0.0
 10
-18.20193806511097
 20
67.59322128301488
 30
0.0
 10
-13.24673665033415
 20
67.94196829898672
 30
0.0
 10
-12.3800884300647
 20
67.95664440575389
 30
0.0
  0
SPLINE
  5
51
330
3C
100
AcDbEntity
  8
Capa 1
370
     0
100
AcDbSpline
210
0.0
220
0.0
230
1.0
 70
    11
 71
     3
 72
    44
 73
    40
 74
     0
 42
0.0000000001
 43
0.0000000001
 40
0.0
 40
0.0
 40
0.0
 40
0.0
 40
1.0
 40
1.0
 40
1.0
 40
2.0
 40
2.0
 40
2.0
 40
3.0
 40
3.0
 40
3.0
 40
4.0
 40
4.0
 40
4.0
 40
5.0
 40
5.0
 40
5.0
 40
6.0
 40
6.0
 40
6.0
 40
7.0
 40
7.0
 40
7.0
 40
8.0
 40
8.0
 40
8.0
 40
9.0
 40
9.0
 40
9.0
 40
10.0
 40
10.0
 40
10.0
 40
11.0
 40
11.0
 40
11.0
 40
12.0
 40
12.0
 40
12.0
 40
13.0
 40
13.0
 40
13.0
 40
13.0
 10
7.020691187480938
 20
78.38119328552622
 30
0.0
 10
5.505228134474387
 20
77.32291162888976
 30
0.0
 10
4.879943303901541
 20
76.26461274677585
 30
0.0
 10
3.208314072548616
 20
75.3650810900997
 30
0.0
 10
1.53668484119569
 20
74.46554943342353
 30
0.0
 10
1.616369899769519
 20
74.25388276680978
 30
0.0
 10
0.6769957138064455
 20
73.98931665902002
 30
0.0
 10
-0.2623784721566276
 20
73.72475055123027
 30
0.0
 10
0.5842192923886673
 20
73.30946151596082
 30
0.0
 10
-0.84446180534444
 20
73.04088187193075
 30
0.0
 10
-2.273142903077547
 20
72.77230222790067
 30
0.0
 10
-6.453335637492568
 20
71.44943723799702
 30
0.0
 10
-6.770818411935768
 20
71.23778779686069
 30
0.0
 10
-7.088301186378966
 20
71.02613835572436
 30
0.0
 10
-9.522364499572534
 20
70.7615722479346
 30
0.0
 10
-11.42726114623173
 20
71.44945446347444
 30
0.0
 10
-13.33215779289092
 20
72.13733667901427
 30
0.0
 10
-13.43799112619779
 20
72.5077361201109
 30
0.0
 10
-13.43799112619779
 20
72.5077361201109
 30
0.0
 10
-13.43799112619779
 20
72.5077361201109
 30
0.0
 10
-16.18951998835713
 20
72.08442001236084
 30
0.0
 10
-12.43262613621476
 20
75.52383109006001
 30
0.0
 10
-8.675732284072385
 20
78.96324216775919
 30
0.0
 10
-13.91420667512388
 20
80.97397214772525
 30
0.0
 10
-10.26314615628838
 20
81.0268888143787
 30
0.0
 10
-6.612085637452881
 20
81.07980548103212
 30
0.0
 10
-7.820297849607425
 20
78.43410995217967
 30
0.0
 10
-5.073178709669205
 20
79.06907550106605
 30
0.0
 10
-2.326059569730985
 20
79.70404104995245
 30
0.0
 10
-2.273108452122695
 20
78.6457766187934
 30
0.0
 10
-1.0031773543499
 20
80.12735715770253
 30
0.0
 10
0.2667537434228949
 20
81.60893769661165
 30
0.0
 10
2.278103840576307
 20
82.40265324545835
 30
0.0
 10
4.103315428661671
 20
82.13808713766859
 30
0.0
 10
5.928527016747035
 20
81.87352102987883
 30
0.0
 10
7.251374781173267
 20
83.35510156878796
 30
0.0
 10
7.621791447747329
 20
81.39728825547533
 30
0.0
 10
7.992208114321392
 20
79.43947494216269
 30
0.0
 10
8.53615424048749
 20
79.43947494216269
 30
0.0
 10
7.020691187480938
 20
78.38119328552622
 30
0.0
  0
SPLINE
  5
52
330
3C
100
AcDbEntity
  8
Capa 1
370
     0
100
AcDbSpline
210
0.0
220
0.0
230
1.0
 70
    11
 71
     3
 72
    14
 73
    10
 74
     0
 42
0.0000000001
 43
0.0000000001
 40
0.0
 40
0.0
 40
0.0
 40
0.0
 40
1.0
 40
1.0
 40
1.0
 40
2.0
 40
2.0
 40
2.0
 40
3.0
 40
3.0
 40
3.0
 40
3.0
 10
-13.83708821268656
 20
90.44557316532263
 30
0.0
 10
-9.553594290146323
 20
91.50499170346923
 30
0.0
 10
-10.42189615624869
 20
90.71015649858981
 30
0.0
 10
-10.73937893069189
 20
89.06980873424295
 30
0.0
 10
-11.05686170513509
 20
87.4294609698961
 30
0.0
 10
-15.1841549983741
 20
85.36583154875402
 30
0.0
 10
-16.87740220389697
 20
85.63039765654378
 30
0.0
 10
-18.57064940941984
 20
85.89496376433354
 30
0.0
 10
-15.51038831534983
 20
90.031731070157
 30
0.0
 10
-13.83708821268656
 20
90.44557316532263
 30
0.0
  0
SPLINE
  5
53
330
3C
100
AcDbEntity
  8
Capa 1
370
     0
100
AcDbSpline
210
0.0
220
0.0
230
1.0
 70
    11
 71
     3
 72
    32
 73
    28
 74
     0
 42
0.0000000001
 43
0.0000000001
 40
0.0
 40
0.0
 40
0.0
 40
0.0
 40
1.0
 40
1.0
 40
1.0
 40
2.0
 40
2.0
 40
2.0
 40
3.0
 40
3.0
 40
3.0
 40
4.0
 40
4.0
 40
4.0
 40
5.0
 40
5.0
 40
5.0
 40
6.0
 40
6.0
 40
6.0
 40
7.0
 40
7.0
 40
7.0
 40
8.0
 40
8.0
 40
8.0
 40
9.0
 40
9.0
 40
9.0
 40
9.0
 10
-22.22170992825534
 20
87.27072819541321
 30
0.0
 10
-23.22707491823837
 20
87.37656152872009
 30
0.0
 10
-23.70330769264188
 20
86.79452987196456
 30
0.0
 10
-23.65039102598844
 20
87.58822819533384
 30
0.0
 10
-23.60586316684159
 20
88.25605995514952
 30
0.0
 10
-21.5338277127155
 20
89.96934039091911
 30
0.0
 10
-22.69794270265885
 20
91.1863720475159
 30
0.0
 10
-23.86205769260219
 20
92.40340370411269
 30
0.0
 10
-26.08443711370458
 20
93.93790090967524
 30
0.0
 10
-23.65039102598844
 20
93.99081757632868
 30
0.0
 10
-21.2163449382723
 20
94.04373424298211
 30
0.0
 10
-20.52846272273247
 20
93.3558692529197
 30
0.0
 10
-20.52846272273247
 20
94.4670503507322
 30
0.0
 10
-20.52846272273247
 20
95.57823144854467
 30
0.0
 10
-20.74012938934622
 20
97.1656625462381
 30
0.0
 10
-19.57601439940287
 20
97.05982921293122
 30
0.0
 10
-18.41189940945952
 20
96.95399587962434
 30
0.0
 10
-17.49691649953202
 20
97.05982921293122
 30
0.0
 10
-17.37235907226281
 20
95.73698144850498
 30
0.0
 10
-17.2478016449936
 20
94.41413368407875
 30
0.0
 10
-15.31655001787225
 20
91.8213375964023
 30
0.0
 10
-16.54674193922269
 20
90.49848983197606
 30
0.0
 10
-17.77693386057313
 20
89.17564206754983
 30
0.0
 10
-16.77158609606752
 20
88.52212467947537
 30
0.0
 10
-18.67648274272671
 20
88.26682587854093
 30
0.0
 10
-20.5813793893859
 20
88.01152707760649
 30
0.0
 10
-21.2163449382723
 20
87.16489486210634
 30
0.0
 10
-22.22170992825534
 20
87.27072819541321
 30
0.0
  0
SPLINE
  5
54
330
3C
100
AcDbEntity
  8
Capa 1
370
     0
100
AcDbSpline
210
0.0
220
0.0
230
1.0
 70
    11
 71
     3
 72
    20
 73
    16
 74
     0
 42
0.0000000001
 43
0.0000000001
 40
0.0
 40
0.0
 40
0.0
 40
0.0
 40
1.0
 40
1.0
 40
1.0
 40
2.0
 40
2.0
 40
2.0
 40
3.0
 40
3.0
 40
3.0
 40
4.0
 40
4.0
 40
4.0
 40
5.0
 40
5.0
 40
5.0
 40
5.0
 10
12.27821695656586
 20
48.58242647439953
 30
0.0
 10
7.621791447747329
 20
47.20666204331986
 30
0.0
 10
-2.157835557186235
 20
47.25017359929856
 30
0.0
 10
-4.327315537112615
 20
45.50402695259969
 30
0.0
 10
-6.496795517038995
 20
43.75788030590081
 30
0.0
 10
-7.723266735265363
 20
42.87590141072199
 30
0.0
 10
-8.464065617458635
 20
44.14586695944964
 30
0.0
 10
-8.548384329460125
 20
44.29042316601073
 30
0.0
 10
-10.79231282282275
 20
52.18882133026877
 30
0.0
 10
-2.167309569770672
 20
54.09371797692796
 30
0.0
 10
6.457693683281409
 20
55.99861462358714
 30
0.0
 10
11.74911919194119
 20
60.28462346583161
 30
0.0
 10
13.3894325053332
 20
57.95642793689978
 30
0.0
 10
15.0297458187252
 20
55.62823240796794
 30
0.0
 10
16.93464246538439
 20
49.9581909054792
 30
0.0
 10
12.27821695656586
 20
48.58242647439953
 30
0.0
  0
SPLINE
  5
55
330
3C
100
AcDbEntity
  8
Capa 1
370
     0
100
AcDbSpline
210
0.0
220
0.0
230
1.0
 70
    11
 71
     3
 72
    38
 73
    34
 74
     0
 42
0.0000000001
 43
0.0000000001
 40
0.0
 40
0.0
 40
0.0
 40
0.0
 40
1.0
 40
1.0
 40
1.0
 40
2.0
 40
2.0
 40
2.0
 40
3.0
 40
3.0
 40
3.0
 40
4.0
 40
4.0
 40
4.0
 40
5.0
 40
5.0
 40
5.0
 40
6.0
 40
6.0
 40
6.0
 40
7.0
 40
7.0
 40
7.0
 40
8.0
 40
8.0
 40
8.0
 40
9.0
 40
9.0
 40
9.0
 40
10.0
 40
10.0
 40
10.0
 40
11.0
 40
11.0
 40
11.0
 40
11.0
 10
20.37408799403842
 20
64.78543401158142
 30
0.0
 10
18.83957356299844
 20
60.7608390147577
 30
0.0
 10
18.83957356299844
 20
60.1788245834796
 30
0.0
 10
16.61717691641862
 20
59.70257458359865
 30
0.0
 10
14.3947802698388
 20
59.22632458371772
 30
0.0
 10
10.53207030986698
 20
58.83113768060471
 30
0.0
 10
9.050472545480437
 20
58.63187335773786
 30
0.0
 10
7.568874781093892
 20
58.43260903487101
 30
0.0
 10
2.916238877309135
 20
57.48017793701884
 30
0.0
 10
1.617954643692733
 20
57.26851127040509
 30
0.0
 10
0.3196704100763324
 20
57.05684460379134
 30
0.0
 10
-10.58062893073158
 20
53.08830131051264
 30
0.0
 10
-10.58062893073158
 20
53.08830131051264
 30
0.0
 10
-10.58062893073158
 20
53.08830131051264
 30
0.0
 10
-18.8352155172096
 20
52.34753687927422
 30
0.0
 10
-17.19488497834017
 20
54.83448240816637
 30
0.0
 10
-15.55455443947073
 20
57.32142793705853
 30
0.0
 10
-18.0943994095389
 20
58.32681015251899
 30
0.0
 10
-16.66573553728322
 20
60.12587346587131
 30
0.0
 10
-15.23707166502754
 20
61.92493677922362
 30
0.0
 10
-15.1841549983741
 20
62.13660344583737
 30
0.0
 10
-12.69719224400452
 20
62.18952011249081
 30
0.0
 10
-10.21022948963494
 20
62.24243677914425
 30
0.0
 10
-6.540238171107996
 20
65.41726452357624
 30
0.0
 10
-4.327315537112615
 20
64.20025009245688
 30
0.0
 10
-2.114392903117235
 20
62.98323566133752
 30
0.0
 10
0.1609204101160199
 20
61.34288789699066
 30
0.0
 10
2.171650390082087
 20
62.79802732805049
 30
0.0
 10
4.182380370048155
 20
64.25316675911031
 30
0.0
 10
4.764463703235967
 20
65.74730467106316
 30
0.0
 10
10.74373697648073
 20
65.79395126393345
 30
0.0
 10
16.7230102497255
 20
65.84059785680374
 30
0.0
 10
21.9086024250784
 20
68.81002900840512
 30
0.0
 10
20.37408799403842
 20
64.78543401158142
 30
0.0
  0
SPLINE
  5
56
330
3C
100
AcDbEntity
  8
Capa 1
370
     0
100
AcDbSpline
210
0.0
220
0.0
230
1.0
 70
    11
 71
     3
 72
    35
 73
    31
 74
     0
 42
0.0000000001
 43
0.0000000001
 40
0.0
 40
0.0
 40
0.0
 40
0.0
 40
1.0
 40
1.0
 40
1.0
 40
2.0
 40
2.0
 40
2.0
 40
3.0
 40
3.0
 40
3.0
 40
4.0
 40
4.0
 40
4.0
 40
5.0
 40
5.0
 40
5.0
 40
6.0
 40
6.0
 40
6.0
 40
7.0
 40
7.0
 40
7.0
 40
8.0
 40
8.0
 40
8.0
 40
9.0
 40
9.0
 40
9.0
 40
10.0
 40
10.0
 40
10.0
 40
10.0
 10
24.71301350293633
 20
75.2592305313154
 30
0.0
 10
24.34263128731712
 20
74.3067822079858
 30
0.0
 10
23.39020018946495
 20
71.76693723791763
 30
0.0
 10
22.96686685623745
 20
71.55527057130388
 30
0.0
 10
22.54353352300995
 20
71.34360390469014
 30
0.0
 10
20.64645724310227
 20
69.38598007162919
 30
0.0
 10
20.64645724310227
 20
69.38598007162919
 30
0.0
 10
20.64645724310227
 20
69.38598007162919
 30
0.0
 10
14.50064805410053
 20
65.99624727082733
 30
0.0
 10
12.06658474090696
 20
67.61165254386097
 30
0.0
 10
9.632521427713396
 20
69.22705781689461
 30
0.0
 10
12.64863362313992
 20
79.12195771676464
 30
0.0
 10
9.79127142767371
 20
81.23852103003759
 30
0.0
 10
6.933909232207494
 20
83.35508434331052
 30
0.0
 10
8.045090330019978
 20
84.0958832255038
 30
0.0
 10
4.605679252320802
 20
86.37117931325963
 30
0.0
 10
1.166268174621627
 20
88.64647540101546
 30
0.0
 10
5.82269368344016
 20
90.65720538098152
 30
0.0
 10
8.785889212213249
 20
88.75230873432233
 30
0.0
 10
11.74908474098634
 20
86.84741208766314
 30
0.0
 10
11.94238904866371
 20
89.06979150876553
 30
0.0
 10
14.3326996491946
 20
84.94249821552653
 30
0.0
 10
16.7230102497255
 20
80.8152049222875
 30
0.0
 10
16.19387803414597
 20
79.91567326561136
 30
0.0
 10
19.47453911188484
 20
79.49235715786128
 30
0.0
 10
22.7552001896237
 20
79.06904105011121
 30
0.0
 10
24.3955135030157
 20
80.33900659883885
 30
0.0
 10
24.71301350293633
 20
78.64574216783856
 30
0.0
 10
25.03051350285695
 20
76.95247773683826
 30
0.0
 10
25.08339571855554
 20
76.21167885464499
 30
0.0
 10
24.71301350293633
 20
75.2592305313154
 30
0.0
  0
SPLINE
  5
57
330
3C
100
AcDbEntity
  8
Capa 1
370
     0
100
AcDbSpline
210
0.0
220
0.0
230
1.0
 70
    11
 71
     3
 72
    20
 73
    16
 74
     0
 42
0.0000000001
 43
0.0000000001
 40
0.0
 40
0.0
 40
0.0
 40
0.0
 40
1.0
 40
1.0
 40
1.0
 40
2.0
 40
2.0
 40
2.0
 40
3.0
 40
3.0
 40
3.0
 40
4.0
 40
4.0
 40
4.0
 40
5.0
 40
5.0
 40
5.0
 40
5.0
 10
32.89115342059665
 20
87.95861041095304
 30
0.0
 10
32.89115342059665
 20
87.95861041095304
 30
0.0
 10
19.58037244519171
 20
87.95861041095304
 30
0.0
 10
17.46380913191877
 20
88.91107595976007
 30
0.0
 10
15.34724581864583
 20
89.8635415085671
 30
0.0
 10
16.03512803418566
 20
94.67869979186851
 30
0.0
 10
17.25214246530502
 20
94.36121701742532
 30
0.0
 10
18.46915689642438
 20
94.04373424298211
 30
0.0
 10
21.43235242519746
 20
93.03836925299908
 30
0.0
 10
26.088777934016
 20
93.60169404126971
 30
0.0
 10
30.74520344283453
 20
94.16501882954033
 30
0.0
 10
34.13173230483512
 20
92.29757037080581
 30
0.0
 10
36.67159450038071
 20
90.3926564986692
 30
0.0
 10
39.2114566959263
 20
88.48774262653257
 30
0.0
 10
32.91468342276091
 20
87.90571096977703
 30
0.0
 10
32.89115342059665
 20
87.95861041095304
 30
0.0
  0
HATCH
  5
58
330
3C
100
AcDbEntity
  8
Capa 1
 62
    25
420
  9529409
100
AcDbHatch
 10
0.0
 20
0.0
 30
0.0
210
0.0
220
0.0
230
1.0
  2
SOLID
 70
     1
 71
     0
 91
       11
 92
        1
 93
        1
 72
     4
 94
        3
 73
     0
 74
     1
 95
      251
 96
      247
 40
0.0
 40
0.0
 40
0.0
 40
0.0
 40
1.0
 40
1.0
 40
1.0
 40
2.0
 40
2.0
 40
2.0
 40
3.0
 40
3.0
 40
3.0
 40
4.0
 40
4.0
 40
4.0
 40
5.0
 40
5.0
 40
5.0
 40
6.0
 40
6.0
 40
6.0
 40
7.0
 40
7.0
 40
7.0
 40
8.0
 40
8.0
 40
8.0
 40
9.0
 40
9.0
 40
9.0
 40
10.0
 40
10.0
 40
10.0
 40
11.0
 40
11.0
 40
11.0
 40
12.0
 40
12.0
 40
12.0
 40
13.0
 40
13.0
 40
13.0
 40
14.0
 40
14.0
 40
14.0
 40
15.0
 40
15.0
 40
15.0
 40
16.0
 40
16.0
 40
16.0
 40
17.0
 40
17.0
 40
17.0
 40
18.0
 40
18.0
 40
18.0
 40
19.0
 40
19.0
 40
19.0
 40
20.0
 40
20.0
 40
20.0
 40
21.0
 40
21.0
 40
21.0
 40
22.0
 40
22.0
 40
22.0
 40
23.0
 40
23.0
 40
23.0
 40
24.0
 40
24.0
 40
24.0
 40
25.0
 40
25.0
 40
25.0
 40
26.0
 40
26.0
 40
26.0
 40
27.0
 40
27.0
 40
27.0
 40
28.0
 40
28.0
 40
28.0
 40
29.0
 40
29.0
 40
29.0
 40
30.0
 40
30.0
 40
30.0
 40
31.0
 40
31.0
 40
31.0
 40
32.0
 40
32.0
 40
32.0
 40
33.0
 40
33.0
 40
33.0
 40
34.0
 40
34.0
 40
34.0
 40
35.0
 40
35.0
 40
35.0
 40
36.0
 40
36.0
 40
36.0
 40
37.0
 40
37.0
 40
37.0
 40
38.0
 40
38.0
 40
38.0
 40
39.0
 40
39.0
 40
39.0
 40
40.0
 40
40.0
 40
40.0
 40
41.0
 40
41.0
 40
41.0
 40
42.0
 40
42.0
 40
42.0
 40
43.0
 40
43.0
 40
43.0
 40
44.0
 40
44.0
 40
44.0
 40
45.0
 40
45.0
 40
45.0
 40
46.0
 40
46.0
 40
46.0
 40
47.0
 40
47.0
 40
47.0
 40
48.0
 40
48.0
 40
48.0
 40
49.0
 40
49.0
 40
49.0
 40
50.0
 40
50.0
 40
50.0
 40
51.0
 40
51.0
 40
51.0
 40
52.0
 40
52.0
 40
52.0
 40
53.0
 40
53.0
 40
53.0
 40
54.0
 40
54.0
 40
54.0
 40
55.0
 40
55.0
 40
55.0
 40
56.0
 40
56.0
 40
56.0
 40
57.0
 40
57.0
 40
57.0
 40
58.0
 40
58.0
 40
58.0
 40
59.0
 40
59.0
 40
59.0
 40
60.0
 40
60.0
 40
60.0
 40
61.0
 40
61.0
 40
61.0
 40
62.0
 40
62.0
 40
62.0
 40
63.0
 40
63.0
 40
63.0
 40
64.0
 40
64.0
 40
64.0
 40
65.0
 40
65.0
 40
65.0
 40
66.0
 40
66.0
 40
66.0
 40
67.0
 40
67.0
 40
67.0
 40
68.0
 40
68.0
 40
68.0
 40
69.0
 40
69.0
 40
69.0
 40
70.0
 40
70.0
 40
70.0
 40
71.0
 40
71.0
 40
71.0
 40
72.0
 40
72.0
 40
72.0
 40
73.0
 40
73.0
 40
73.0
 40
74.0
 40
74.0
 40
74.0
 40
75.0
 40
75.0
 40
75.0
 40
76.0
 40
76.0
 40
76.0
 40
77.0
 40
77.0
 40
77.0
 40
78.0
 40
78.0
 40
78.0
 40
79.0
 40
79.0
 40
79.0
 40
80.0
 40
80.0
 40
80.0
 40
81.0
 40
81.0
 40
81.0
 40
82.0
 40
82.0
 40
82.0
 40
82.0
 10
15.33263861378837
 20
101.6068040381834
 10
14.60482774157449
 20
95.61986542748392
 10
12.9660991721057
 20
95.8424530467859
 10
12.9660991721057
 20
95.8424530467859
 10
12.9660991721057
 20
95.8424530467859
 10
10.47915364321354
 20
95.0487374979392
 10
10.47915364321354
 20
95.0487374979392
 10
10.47915364321354
 20
95.0487374979392
 10
7.515958114440455
 20
96.21285248788254
 10
7.515958114440455
 20
96.21285248788254
 10
7.515958114440455
 20
96.21285248788254
 10
5.981443683400472
 20
95.63078638017215
 10
5.981443683400472
 20
95.63078638017215
 10
5.981443683400472
 20
95.63078638017215
 10
4.394047036661904
 20
96.05410248792224
 10
4.394047036661904
 20
96.05410248792224
 10
4.394047036661904
 20
96.05410248792224
 10
3.282831487894569
 20
96.53033526232575
 10
3.282831487894569
 20
96.53033526232575
 10
3.282831487894569
 20
96.53033526232575
 10
2.542032605701297
 20
96.10701915457567
 10
2.542032605701297
 20
96.10701915457567
 10
2.542032605701297
 20
96.10701915457567
 10
2.224567056735525
 20
96.318668595712
 10
2.224567056735525
 20
96.318668595712
 10
2.224567056735525
 20
96.318668595712
 10
-1.585260687537712
 20
95.89536971343935
 10
-1.585260687537712
 20
95.89536971343935
 10
-1.585260687537712
 20
95.89536971343935
 10
-4.601338432009388
 20
96.4774185956723
 10
-4.601338432009388
 20
96.4774185956723
 10
-4.601338432009388
 20
96.4774185956723
 10
-6.082936196395933
 20
96.90073470342237
 10
-6.082936196395933
 20
96.90073470342237
 10
-6.082936196395933
 20
96.90073470342237
 10
-7.723266735265363
 20
96.90073470342237
 10
-7.723266735265363
 20
96.90073470342237
 10
-7.723266735265363
 20
96.90073470342237
 10
-8.252416176322312
 20
97.58861691896222
 10
-8.252416176322312
 20
97.58861691896222
 10
-8.252416176322312
 20
97.58861691896222
 10
-9.734013940708858
 20
96.84781803676894
 10
-9.734013940708858
 20
96.84781803676894
 10
-9.734013940708858
 20
96.84781803676894
 10
-10.4747955974247
 20
97.05946747790526
 10
-10.4747955974247
 20
97.05946747790526
 10
-10.4747955974247
 20
97.05946747790526
 10
-15.5016377728173
 20
97.00655081125183
 10
-15.5016377728173
 20
97.00655081125183
 10
-15.5016377728173
 20
97.00655081125183
 10
-17.08905164503329
 20
98.54106524229181
 10
-17.08905164503329
 20
98.54106524229181
 10
-17.08905164503329
 20
98.54106524229181
 10
-19.36436495826655
 20
98.54106524229181
 10
-19.36436495826655
 20
98.54106524229181
 10
-19.36436495826655
 20
98.54106524229181
 10
-21.8513104871587
 20
97.00655081125183
 10
-21.8513104871587
 20
97.00655081125183
 10
-21.8513104871587
 20
97.00655081125183
 10
-21.48092827153949
 20
95.41913693903584
 10
-21.48092827153949
 20
95.41913693903584
 10
-21.48092827153949
 20
95.41913693903584
 10
-22.46674234464373
 20
95.31878130755051
 10
-23.69743380483953
 20
95.17367388571178
 10
-24.06800550071043
 20
95.12999007495881
 10
-24.21383639260105
 20
95.71546682719959
 10
-24.60860988425583
 20
95.6840992328064
 10
-24.91436210857175
 20
95.65981130963539
 10
-25.4682473352128
 20
95.05376733734767
 10
-25.76695433926139
 20
94.83708805680287
 10
-27.03194172501285
 20
93.91953855073886
 10
-26.80001789694583
 20
93.2196329519555
 10
-26.59014267998441
 20
92.68646997465824
 10
-26.46422443999852
 20
92.36655840789794
 10
-26.61718667954362
 20
92.10667762996812
 10
-26.34757350686797
 20
91.8958205607934
 10
-26.10789821395914
 20
91.7084073663958
 10
-25.52388562729958
 20
91.81058889848832
 10
-25.50238823147162
 20
91.60932642024002
 10
-25.45484591377518
 20
91.16423730902316
 10
-26.43661199968425
 20
90.19239309811162
 10
-26.08443711370458
 20
89.91607921471716
 10
-25.73801553718529
 20
89.64427840640838
 10
-24.99335814804853
 20
91.07197765192818
 10
-24.60283934931804
 20
90.86852753804675
 10
-24.15873209031448
 20
90.63715492525738
 10
-25.34060654748429
 20
89.30045787698043
 10
-25.02615545706811
 20
88.91071422473412
 10
-24.86833563288882
 20
88.71510170308163
 10
-24.09065700352594
 20
89.15214651634042
 10
-24.02079046708508
 20
88.91071422473412
 10
-23.93815985187136
 20
88.62515025996176
 10
-25.02191798962125
 20
88.57299151431508
 10
-25.02615545706811
 20
88.27574867584772
 10
-25.02956610159851
 20
88.03729639183615
 10
-24.19295911396044
 20
88.18733030021879
 10
-24.12662380039195
 20
87.95826590140453
 10
-24.02947210770791
 20
87.62279972852832
 10
-25.07028713023416
 20
87.41805770383992
 10
-25.23782212368186
 20
87.11163368590438
 10
-25.47339775296325
 20
86.68075559356419
 10
-25.39655489816475
 20
85.15382037259175
 10
-25.39655489816475
 20
85.15382037259175
 10
-25.39655489816475
 20
85.15382037259175
 10
-24.60283934931804
 20
81.55565929493225
 10
-24.44410657483515
 20
79.28036320717644
 10
-24.28537380035226
 20
77.0050671194206
 10
-25.87278767256826
 20
73.83022214951119
 10
-26.56066988810809
 20
70.60246051294834
 10
-27.24855210364793
 20
67.37469887638548
 10
-29.47093152475032
 20
66.73983668036365
 10
-29.47093152475032
 20
66.73983668036365
 10
-29.10053208365369
 20
62.87712672039182
 10
-30.15881374029016
 20
62.08337672059026
 10
-30.15881374029016
 20
62.08337672059026
 10
-28.09516709367065
 20
61.87171005397651
 10
-28.51848320142073
 20
59.75518119165842
 10
-28.51848320142073
 20
59.75518119165842
 10
-28.51848320142073
 20
59.75518119165842
 10
-26.45483655480122
 20
60.12556340727763
 10
-26.45483655480122
 20
60.12556340727763
 10
-26.42236652985274
 20
60.06324162994947
 10
-26.39227362078908
 20
59.99744030618119
 10
-26.36442002379084
 20
59.92836614170193
 10
-25.25768309915433
 20
57.1830729023709
 10
-27.72476765257402
 20
49.27823240955544
 10
-27.72476765257402
 20
49.27823240955544
 10
-25.76693711378396
 20
50.38941350736792
 10
-21.05761216378941
 20
48.58242647439953
 10
-21.05761216378941
 20
48.58242647439953
 10
-21.05761216378941
 20
48.58242647439953
 10
-21.00469549713598
 20
49.54281574282263
 10
-18.14733330166976
 20
50.12486462505559
 10
-15.28997110620355
 20
50.70691350728855
 10
-11.48016058740774
 20
47.53208576285656
 10
-11.63891058736805
 20
44.78875622795211
 10
-11.79766058732836
 20
42.04542669304767
 10
-5.977102863089057
 20
40.38868027419102
 10
-6.082936196395933
 20
41.92812119177491
 10
-6.188769529702808
 20
43.4675621093588
 10
-3.38432400089003
 20
44.78875622795211
 10
-3.38432400089003
 20
44.78875622795211
 10
-3.38432400089003
 20
44.78875622795211
 10
-2.537691785389883
 20
44.78875622795211
 10
-2.537691785389883
 20
44.78875622795211
 10
-2.537691785389883
 20
44.78875622795211
 10
-1.479427354230838
 20
45.25704805726212
 10
-1.479427354230838
 20
45.25704805726212
 10
-1.479427354230838
 20
45.25704805726212
 10
-0.3682118054635026
 20
46.47406248838148
 10
-0.3682118054635026
 20
46.47406248838148
 10
-0.3682118054635026
 20
46.47406248838148
 10
8.045090330019978
 20
46.73864582164867
 10
8.045090330019978
 20
46.73864582164867
 10
8.045090330019978
 20
46.73864582164867
 10
8.997555878826999
 20
46.52697915503492
 10
9.473771427753084
 20
46.26239582176773
 10
9.949986976679169
 20
45.99781248850054
 10
10.26748697659979
 20
46.57989582168835
 10
10.42623697656011
 20
47.07051186974279
 10
10.58498697652042
 20
47.56112791779722
 10
12.1195014075604
 20
47.53232691954052
 10
12.1195014075604
 20
47.53232691954052
 10
12.1195014075604
 20
47.53232691954052
 10
12.48988362317961
 20
46.31531248842117
 10
13.54814805433866
 20
47.07051186974279
 10
14.6064124854977
 20
47.8257112510644
 10
14.92391248541833
 20
49.59600801711488
 10
15.0297458187252
 20
50.38968911500674
 10
15.13557915203208
 20
51.18337021289859
 10
16.56426024976518
 20
52.18878687931391
 10
17.72835801423111
 20
52.87666909485375
 10
18.89245577869702
 20
53.56455131039358
 10
21.32651909189059
 20
53.61743352609216
 10
21.32651909189059
 20
53.61743352609216
 10
21.32651909189059
 20
53.61743352609216
 10
21.27360242523715
 20
53.98781574171137
 10
20.69155354300419
 20
54.51698240824575
 10
20.10950466077123
 20
55.04614907478012
 10
22.26000216457389
 20
59.27920679941631
 10
22.26000216457389
 20
59.27920679941631
 10
22.26000216457389
 20
59.27920679941631
 10
25.93006238501054
 20
62.34820121054142
 10
26.03586126736256
 20
62.71858342616063
 10
26.14166014971458
 20
63.08896564177984
 10
25.13634683616383
 20
63.14191675938812
 10
24.50138128727743
 20
63.61813230831421
 10
23.86641573839103
 20
64.0943478572403
 10
23.44308240516353
 20
65.20556340600763
 10
22.80811685627713
 20
67.00462671935995
 10
22.17315130739074
 20
68.80369003271227
 10
26.30044460062975
 20
75.04756386470164
 10
27.19999348278333
 20
76.00001218803123
 10
28.09954236493692
 20
76.95246051136084
 10
28.68159124716988
 20
77.16409272701974
 10
28.73447346286846
 20
77.48157550146293
 10
28.78735567856705
 20
77.79905827590613
 10
27.67620903170942
 20
77.90489160921301
 10
27.67620903170942
 20
77.90489160921301
 10
30.16318901155642
 20
80.81517047133266
 10
29.89860567828924
 20
79.59813881473588
 10
30.11023789394813
 20
79.96853825583251
 10
30.32187010960703
 20
80.33893769692915
 10
35.2429134026476
 20
82.03213322601974
 10
35.2429134026476
 20
82.03213322601974
 10
35.2429134026476
 20
82.03213322601974
 10
36.19537895145462
 20
83.51373099040629
 10
36.19537895145462
 20
83.51373099040629
 10
36.19537895145462
 20
83.51373099040629
 10
40.79888779361972
 20
86.95314206810546
 10
40.85180446027316
 20
87.7997742836056
 10
40.9047211269266
 20
88.64640649910575
 10
40.11100557807988
 20
89.91633759687855
 10
40.11100557807988
 20
89.91633759687855
 10
40.11100557807988
 20
89.91633759687855
 10
41.01055446023347
 20
89.81050426357167
 10
41.01055446023347
 20
89.81050426357167
 10
41.01055446023347
 20
89.81050426357167
 10
41.01055446023347
 20
90.39255314580463
 10
41.01055446023347
 20
90.39255314580463
 10
41.01055446023347
 20
90.39255314580463
 10
40.2697555780402
 20
90.71003592024783
 10
40.2697555780402
 20
90.71003592024783
 10
40.2697555780402
 20
90.71003592024783
 10
39.31729002923318
 20
92.93243256682764
 10
39.15854002927286
 20
94.99607921344716
 10
38.99979002931255
 20
97.05972586006666
 10
42.28048555800626
 20
97.95925751674282
 10
42.80961777358579
 20
98.91172306554984
 10
43.33874998916531
 20
99.86418861435686
 10
44.71451442024498
 20
99.54668861443623
 10
44.71451442024498
 20
99.54668861443623
 10
44.71451442024498
 20
99.54668861443623
 10
48.3655921645579
 20
98.96462250672585
 10
48.3655921645579
 20
98.96462250672585
 10
48.3655921645579
 20
98.96462250672585
 10
50.16465547791022
 20
100.0758208300158
 10
51.01128769341037
 20
98.80588973224296
 10
51.63540119151823
 20
97.8697367105586
 10
54.19455592178122
 20
97.99748085115166
 10
55.49683646616051
 20
98.12930742989475
 10
55.49683646616051
 20
98.12930742989475
 10
55.49683646616051
 20
101.6068040381834
 10
55.49683646616051
 20
101.6068040381834
 10
55.49683646616051
 20
101.6068040381834
 10
15.33263861378837
 20
101.6068040381834
 10
15.33263861378837
 20
101.6068040381834
 97
        0
 92
        1
 93
        1
 72
     4
 94
        3
 73
     0
 74
     1
 95
       26
 96
       22
 40
0.0
 40
0.0
 40
0.0
 40
0.0
 40
1.0
 40
1.0
 40
1.0
 40
2.0
 40
2.0
 40
2.0
 40
3.0
 40
3.0
 40
3.0
 40
4.0
 40
4.0
 40
4.0
 40
5.0
 40
5.0
 40
5.0
 40
6.0
 40
6.0
 40
6.0
 40
7.0
 40
7.0
 40
7.0
 40
7.0
 10
11.27286919206025
 20
93.99081757632868
 10
11.27286919206025
 20
93.99081757632868
 10
15.00838622671665
 20
93.35583480196486
 10
15.20427435600796
 20
92.19173703749894
 10
15.40016248529926
 20
91.02763927303302
 10
16.50758842903283
 20
90.39267372414662
 10
14.18125325166302
 20
89.96935761639654
 10
11.85491807429321
 20
89.54604150864647
 10
10.10873697663948
 20
88.9480418343168
 10
9.632521427713396
 20
89.5116077792714
 10
9.156305878787311
 20
90.07517372422599
 10
8.170801864276743
 20
90.65722260645896
 10
8.02858832264563
 20
91.08053871420903
 10
7.886374781014517
 20
91.5038548219591
 10
7.833458114361079
 20
91.76843815522629
 10
8.256756996633726
 20
92.29757037080581
 10
8.680055878906375
 20
92.82670258638534
 10
9.827617185043096
 20
93.0912686941751
 10
10.10046874747488
 20
93.2500186941354
 10
10.37332030990667
 20
93.40876869409571
 10
11.27286919206025
 20
93.99081757632868
 10
11.27286919206025
 20
93.99081757632868
 97
        0
 92
        1
 93
        1
 72
     4
 94
        3
 73
     0
 74
     1
 95
       26
 96
       22
 40
0.0
 40
0.0
 40
0.0
 40
0.0
 40
1.0
 40
1.0
 40
1.0
 40
2.0
 40
2.0
 40
2.0
 40
3.0
 40
3.0
 40
3.0
 40
4.0
 40
4.0
 40
4.0
 40
5.0
 40
5.0
 40
5.0
 40
6.0
 40
6.0
 40
6.0
 40
7.0
 40
7.0
 40
7.0
 40
7.0
 10
-12.69719224400452
 20
95.73698144850498
 10
-8.516982284112073
 20
95.73698144850498
 10
-1.849809569850047
 20
94.8374325663514
 10
0.1080037434625824
 20
95.20783200744803
 10
2.065817056775212
 20
95.57823144854467
 10
4.552762585667365
 20
95.47241534071522
 10
4.552762585667365
 20
95.47241534071522
 10
4.764429252281115
 20
95.47241534071522
 10
9.15627142783246
 20
95.36658200740835
 10
8.838805878866687
 20
94.36121701742532
 10
8.521340329900914
 20
93.35585202744228
 10
3.970713703434404
 20
92.03298703753862
 10
2.012900390121775
 20
92.56213647859558
 10
0.0550870768091449
 20
93.09128591965252
 10
-1.462305229669146
 20
91.8745643216494
 10
-3.190571830799579
 20
91.63630151788954
 10
-4.918838431930013
 20
91.39803871412965
 10
-11.85056002850437
 20
91.29218815534534
 10
-13.01467501844772
 20
92.1388203708455
 10
-14.17879000839106
 20
92.98545258634564
 10
-16.87740220389697
 20
95.73698144850498
 10
-12.69719224400452
 20
95.73698144850498
 97
        0
 92
        1
 93
        1
 72
     4
 94
        3
 73
     0
 74
     1
 95
       29
 96
       25
 40
0.0
 40
0.0
 40
0.0
 40
0.0
 40
1.0
 40
1.0
 40
1.0
 40
2.0
 40
2.0
 40
2.0
 40
3.0
 40
3.0
 40
3.0
 40
4.0
 40
4.0
 40
4.0
 40
5.0
 40
5.0
 40
5.0
 40
6.0
 40
6.0
 40
6.0
 40
7.0
 40
7.0
 40
7.0
 40
8.0
 40
8.0
 40
8.0
 40
8.0
 10
-12.3800884300647
 20
67.95664440575389
 10
-12.46723212036409
 20
67.96167424516236
 10
-12.38718532676431
 20
68.01572779332592
 10
-9.36361449961222
 20
68.43337671900277
 10
-5.592130668089814
 20
68.95434405828225
 10
-1.21484402096365
 20
68.90959226792884
 10
1.617954643692733
 20
69.33292560115635
 10
4.450753308349117
 20
69.75625893438385
 10
6.351860349974534
 20
67.53382783684917
 10
5.981443683400472
 20
66.63431340565045
 10
5.61102701682641
 20
65.7347989744517
 10
2.965365938928797
 20
65.09979897461047
 10
0.6900526256955424
 20
64.78543401158142
 10
-1.585260687537712
 20
64.47106904855237
 10
-0.84446180534444
 20
66.21098007242294
 10
-3.437240667543467
 20
66.63431340565045
 10
-6.030019529742495
 20
67.05764673887795
 10
-8.887381725208709
 20
64.78229897468984
 10
-11.69182725402149
 20
63.77695121018423
 10
-14.49627278283426
 20
62.77160344567862
 10
-13.70255723398755
 20
63.51236787691704
 10
-15.97785332174338
 20
65.57601452353654
 10
-18.20193806511097
 20
67.59322128301488
 10
-13.24673665033415
 20
67.94196829898672
 10
-12.3800884300647
 20
67.95664440575389
 97
        0
 92
        1
 93
        1
 72
     4
 94
        3
 73
     0
 74
     1
 95
       44
 96
       40
 40
0.0
 40
0.0
 40
0.0
 40
0.0
 40
1.0
 40
1.0
 40
1.0
 40
2.0
 40
2.0
 40
2.0
 40
3.0
 40
3.0
 40
3.0
 40
4.0
 40
4.0
 40
4.0
 40
5.0
 40
5.0
 40
5.0
 40
6.0
 40
6.0
 40
6.0
 40
7.0
 40
7.0
 40
7.0
 40
8.0
 40
8.0
 40
8.0
 40
9.0
 40
9.0
 40
9.0
 40
10.0
 40
10.0
 40
10.0
 40
11.0
 40
11.0
 40
11.0
 40
12.0
 40
12.0
 40
12.0
 40
13.0
 40
13.0
 40
13.0
 40
13.0
 10
7.020691187480938
 20
78.38119328552622
 10
5.505228134474387
 20
77.32291162888976
 10
4.879943303901541
 20
76.26461274677585
 10
3.208314072548616
 20
75.3650810900997
 10
1.53668484119569
 20
74.46554943342353
 10
1.616369899769519
 20
74.25388276680978
 10
0.6769957138064455
 20
73.98931665902002
 10
-0.2623784721566276
 20
73.72475055123027
 10
0.5842192923886673
 20
73.30946151596082
 10
-0.84446180534444
 20
73.04088187193075
 10
-2.273142903077547
 20
72.77230222790067
 10
-6.453335637492568
 20
71.44943723799702
 10
-6.770818411935768
 20
71.23778779686069
 10
-7.088301186378966
 20
71.02613835572436
 10
-9.522364499572534
 20
70.7615722479346
 10
-11.42726114623173
 20
71.44945446347444
 10
-13.33215779289092
 20
72.13733667901427
 10
-13.43799112619779
 20
72.5077361201109
 10
-13.43799112619779
 20
72.5077361201109
 10
-13.43799112619779
 20
72.5077361201109
 10
-16.18951998835713
 20
72.08442001236084
 10
-12.43262613621476
 20
75.52383109006001
 10
-8.675732284072385
 20
78.96324216775919
 10
-13.91420667512388
 20
80.97397214772525
 10
-10.26314615628838
 20
81.0268888143787
 10
-6.612085637452881
 20
81.07980548103212
 10
-7.820297849607425
 20
78.43410995217967
 10
-5.073178709669205
 20
79.06907550106605
 10
-2.326059569730985
 20
79.70404104995245
 10
-2.273108452122695
 20
78.6457766187934
 10
-1.0031773543499
 20
80.12735715770253
 10
0.2667537434228949
 20
81.60893769661165
 10
2.278103840576307
 20
82.40265324545835
 10
4.103315428661671
 20
82.13808713766859
 10
5.928527016747035
 20
81.87352102987883
 10
7.251374781173267
 20
83.35510156878796
 10
7.621791447747329
 20
81.39728825547533
 10
7.992208114321392
 20
79.43947494216269
 10
8.53615424048749
 20
79.43947494216269
 10
7.020691187480938
 20
78.38119328552622
 97
        0
 92
        1
 93
        1
 72
     4
 94
        3
 73
     0
 74
     1
 95
       14
 96
       10
 40
0.0
 40
0.0
 40
0.0
 40
0.0
 40
1.0
 40
1.0
 40
1.0
 40
2.0
 40
2.0
 40
2.0
 40
3.0
 40
3.0
 40
3.0
 40
3.0
 10
-13.83708821268656
 20
90.44557316532263
 10
-9.553594290146323
 20
91.50499170346923
 10
-10.42189615624869
 20
90.71015649858981
 10
-10.73937893069189
 20
89.06980873424295
 10
-11.05686170513509
 20
87.4294609698961
 10
-15.1841549983741
 20
85.36583154875402
 10
-16.87740220389697
 20
85.63039765654378
 10
-18.57064940941984
 20
85.89496376433354
 10
-15.51038831534983
 20
90.031731070157
 10
-13.83708821268656
 20
90.44557316532263
 97
        0
 92
        1
 93
        1
 72
     4
 94
        3
 73
     0
 74
     1
 95
       32
 96
       28
 40
0.0
 40
0.0
 40
0.0
 40
0.0
 40
1.0
 40
1.0
 40
1.0
 40
2.0
 40
2.0
 40
2.0
 40
3.0
 40
3.0
 40
3.0
 40
4.0
 40
4.0
 40
4.0
 40
5.0
 40
5.0
 40
5.0
 40
6.0
 40
6.0
 40
6.0
 40
7.0
 40
7.0
 40
7.0
 40
8.0
 40
8.0
 40
8.0
 40
9.0
 40
9.0
 40
9.0
 40
9.0
 10
-22.22170992825534
 20
87.27072819541321
 10
-23.22707491823837
 20
87.37656152872009
 10
-23.70330769264188
 20
86.79452987196456
 10
-23.65039102598844
 20
87.58822819533384
 10
-23.60586316684159
 20
88.25605995514952
 10
-21.5338277127155
 20
89.96934039091911
 10
-22.69794270265885
 20
91.1863720475159
 10
-23.86205769260219
 20
92.40340370411269
 10
-26.08443711370458
 20
93.93790090967524
 10
-23.65039102598844
 20
93.99081757632868
 10
-21.2163449382723
 20
94.04373424298211
 10
-20.52846272273247
 20
93.3558692529197
 10
-20.52846272273247
 20
94.4670503507322
 10
-20.52846272273247
 20
95.57823144854467
 10
-20.74012938934622
 20
97.1656625462381
 10
-19.57601439940287
 20
97.05982921293122
 10
-18.41189940945952
 20
96.95399587962434
 10
-17.49691649953202
 20
97.05982921293122
 10
-17.37235907226281
 20
95.73698144850498
 10
-17.2478016449936
 20
94.41413368407875
 10
-15.31655001787225
 20
91.8213375964023
 10
-16.54674193922269
 20
90.49848983197606
 10
-17.77693386057313
 20
89.17564206754983
 10
-16.77158609606752
 20
88.52212467947537
 10
-18.67648274272671
 20
88.26682587854093
 10
-20.5813793893859
 20
88.01152707760649
 10
-21.2163449382723
 20
87.16489486210634
 10
-22.22170992825534
 20
87.27072819541321
 97
        0
 92
        1
 93
        1
 72
     4
 94
        3
 73
     0
 74
     1
 95
       20
 96
       16
 40
0.0
 40
0.0
 40
0.0
 40
0.0
 40
1.0
 40
1.0
 40
1.0
 40
2.0
 40
2.0
 40
2.0
 40
3.0
 40
3.0
 40
3.0
 40
4.0
 40
4.0
 40
4.0
 40
5.0
 40
5.0
 40
5.0
 40
5.0
 10
12.27821695656586
 20
48.58242647439953
 10
7.621791447747329
 20
47.20666204331986
 10
-2.157835557186235
 20
47.25017359929856
 10
-4.327315537112615
 20
45.50402695259969
 10
-6.496795517038995
 20
43.75788030590081
 10
-7.723266735265363
 20
42.87590141072199
 10
-8.464065617458635
 20
44.14586695944964
 10
-8.548384329460125
 20
44.29042316601073
 10
-10.79231282282275
 20
52.18882133026877
 10
-2.167309569770672
 20
54.09371797692796
 10
6.457693683281409
 20
55.99861462358714
 10
11.74911919194119
 20
60.28462346583161
 10
13.3894325053332
 20
57.95642793689978
 10
15.0297458187252
 20
55.62823240796794
 10
16.93464246538439
 20
49.9581909054792
 10
12.27821695656586
 20
48.58242647439953
 97
        0
 92
        1
 93
        1
 72
     4
 94
        3
 73
     0
 74
     1
 95
       38
 96
       34
 40
0.0
 40
0.0
 40
0.0
 40
0.0
 40
1.0
 40
1.0
 40
1.0
 40
2.0
 40
2.0
 40
2.0
 40
3.0
 40
3.0
 40
3.0
 40
4.0
 40
4.0
 40
4.0
 40
5.0
 40
5.0
 40
5.0
 40
6.0
 40
6.0
 40
6.0
 40
7.0
 40
7.0
 40
7.0
 40
8.0
 40
8.0
 40
8.0
 40
9.0
 40
9.0
 40
9.0
 40
10.0
 40
10.0
 40
10.0
 40
11.0
 40
11.0
 40
11.0
 40
11.0
 10
20.37408799403842
 20
64.78543401158142
 10
18.83957356299844
 20
60.7608390147577
 10
18.83957356299844
 20
60.1788245834796
 10
16.61717691641862
 20
59.70257458359865
 10
14.3947802698388
 20
59.22632458371772
 10
10.53207030986698
 20
58.83113768060471
 10
9.050472545480437
 20
58.63187335773786
 10
7.568874781093892
 20
58.43260903487101
 10
2.916238877309135
 20
57.48017793701884
 10
1.617954643692733
 20
57.26851127040509
 10
0.3196704100763324
 20
57.05684460379134
 10
-10.58062893073158
 20
53.08830131051264
 10
-10.58062893073158
 20
53.08830131051264
 10
-10.58062893073158
 20
53.08830131051264
 10
-18.8352155172096
 20
52.34753687927422
 10
-17.19488497834017
 20
54.83448240816637
 10
-15.55455443947073
 20
57.32142793705853
 10
-18.0943994095389
 20
58.32681015251899
 10
-16.66573553728322
 20
60.12587346587131
 10
-15.23707166502754
 20
61.92493677922362
 10
-15.1841549983741
 20
62.13660344583737
 10
-12.69719224400452
 20
62.18952011249081
 10
-10.21022948963494
 20
62.24243677914425
 10
-6.540238171107996
 20
65.41726452357624
 10
-4.327315537112615
 20
64.20025009245688
 10
-2.114392903117235
 20
62.98323566133752
 10
0.1609204101160199
 20
61.34288789699066
 10
2.171650390082087
 20
62.79802732805049
 10
4.182380370048155
 20
64.25316675911031
 10
4.764463703235967
 20
65.74730467106316
 10
10.74373697648073
 20
65.79395126393345
 10
16.7230102497255
 20
65.84059785680374
 10
21.9086024250784
 20
68.81002900840512
 10
20.37408799403842
 20
64.78543401158142
 97
        0
 92
        1
 93
        1
 72
     4
 94
        3
 73
     0
 74
     1
 95
       35
 96
       31
 40
0.0
 40
0.0
 40
0.0
 40
0.0
 40
1.0
 40
1.0
 40
1.0
 40
2.0
 40
2.0
 40
2.0
 40
3.0
 40
3.0
 40
3.0
 40
4.0
 40
4.0
 40
4.0
 40
5.0
 40
5.0
 40
5.0
 40
6.0
 40
6.0
 40
6.0
 40
7.0
 40
7.0
 40
7.0
 40
8.0
 40
8.0
 40
8.0
 40
9.0
 40
9.0
 40
9.0
 40
10.0
 40
10.0
 40
10.0
 40
10.0
 10
24.71301350293633
 20
75.2592305313154
 10
24.34263128731712
 20
74.3067822079858
 10
23.39020018946495
 20
71.76693723791763
 10
22.96686685623745
 20
71.55527057130388
 10
22.54353352300995
 20
71.34360390469014
 10
20.64645724310227
 20
69.38598007162919
 10
20.64645724310227
 20
69.38598007162919
 10
20.64645724310227
 20
69.38598007162919
 10
14.50064805410053
 20
65.99624727082733
 10
12.06658474090696
 20
67.61165254386097
 10
9.632521427713396
 20
69.22705781689461
 10
12.64863362313992
 20
79.12195771676464
 10
9.79127142767371
 20
81.23852103003759
 10
6.933909232207494
 20
83.35508434331052
 10
8.045090330019978
 20
84.0958832255038
 10
4.605679252320802
 20
86.37117931325963
 10
1.166268174621627
 20
88.64647540101546
 10
5.82269368344016
 20
90.65720538098152
 10
8.785889212213249
 20
88.75230873432233
 10
11.74908474098634
 20
86.84741208766314
 10
11.94238904866371
 20
89.06979150876553
 10
14.3326996491946
 20
84.94249821552653
 10
16.7230102497255
 20
80.8152049222875
 10
16.19387803414597
 20
79.91567326561136
 10
19.47453911188484
 20
79.49235715786128
 10
22.7552001896237
 20
79.06904105011121
 10
24.3955135030157
 20
80.33900659883885
 10
24.71301350293633
 20
78.64574216783856
 10
25.03051350285695
 20
76.95247773683826
 10
25.08339571855554
 20
76.21167885464499
 10
24.71301350293633
 20
75.2592305313154
 97
        0
 92
        1
 93
        1
 72
     4
 94
        3
 73
     0
 74
     1
 95
       20
 96
       16
 40
0.0
 40
0.0
 40
0.0
 40
0.0
 40
1.0
 40
1.0
 40
1.0
 40
2.0
 40
2.0
 40
2.0
 40
3.0
 40
3.0
 40
3.0
 40
4.0
 40
4.0
 40
4.0
 40
5.0
 40
5.0
 40
5.0
 40
5.0
 10
32.89115342059665
 20
87.95861041095304
 10
32.89115342059665
 20
87.95861041095304
 10
19.58037244519171
 20
87.95861041095304
 10
17.46380913191877
 20
88.91107595976007
 10
15.34724581864583
 20
89.8635415085671
 10
16.03512803418566
 20
94.67869979186851
 10
17.25214246530502
 20
94.36121701742532
 10
18.46915689642438
 20
94.04373424298211
 10
21.43235242519746
 20
93.03836925299908
 10
26.088777934016
 20
93.60169404126971
 10
30.74520344283453
 20
94.16501882954033
 10
34.13173230483512
 20
92.29757037080581
 10
36.67159450038071
 20
90.3926564986692
 10
39.2114566959263
 20
88.48774262653257
 10
32.91468342276091
 20
87.90571096977703
 10
32.89115342059665
 20
87.95861041095304
 97
        0
 75
     2
 76
     1
 98
        0
  0
SPLINE
  5
59
330
3C
100
AcDbEntity
  8
Capa 1
370
     0
100
AcDbSpline
210
0.0
220
0.0
230
1.0
 70
    11
 71
     3
 72
    20
 73
    16
 74
     0
 42
0.0000000001
 43
0.0000000001
 40
0.0
 40
0.0
 40
0.0
 40
0.0
 40
1.0
 40
1.0
 40
1.0
 40
2.0
 40
2.0
 40
2.0
 40
3.0
 40
3.0
 40
3.0
 40
4.0
 40
4.0
 40
4.0
 40
5.0
 40
5.0
 40
5.0
 40
5.0
 10
33.54964897164731
 20
64.62358342568437
 30
0.0
 10
33.54964897164731
 20
64.62358342568437
 30
0.0
 10
34.39628118714746
 20
65.68184785684342
 30
0.0
 10
33.54964897164731
 20
65.7876811901503
 30
0.0
 10
32.70301675614716
 20
65.89351452345717
 30
0.0
 10
31.85641899160186
 20
64.62358342568437
 30
0.0
 10
31.85641899160186
 20
64.62358342568437
 30
0.0
 10
31.85641899160186
 20
64.62358342568437
 30
0.0
 10
31.85641899160186
 20
64.09441675915001
 30
0.0
 10
31.85641899160186
 20
64.09441675915001
 30
0.0
 10
31.85641899160186
 20
64.09441675915001
 30
0.0
 10
32.89115342059665
 20
63.77695121018423
 30
0.0
 10
32.89115342059665
 20
63.77695121018423
 30
0.0
 10
32.89115342059665
 20
63.77695121018423
 30
0.0
 10
33.54964897164731
 20
64.62358342568437
 30
0.0
 10
33.54964897164731
 20
64.62358342568437
 30
0.0
  0
HATCH
  5
5A
330
3C
100
AcDbEntity
  8
Capa 1
 62
    25
420
  9529409
100
AcDbHatch
 10
0.0
 20
0.0
 30
0.0
210
0.0
220
0.0
230
1.0
  2
SOLID
 70
     1
 71
     0
 91
        1
 92
        1
 93
        1
 72
     4
 94
        3
 73
     0
 74
     1
 95
       20
 96
       16
 40
0.0
 40
0.0
 40
0.0
 40
0.0
 40
1.0
 40
1.0
 40
1.0
 40
2.0
 40
2.0
 40
2.0
 40
3.0
 40
3.0
 40
3.0
 40
4.0
 40
4.0
 40
4.0
 40
5.0
 40
5.0
 40
5.0
 40
5.0
 10
33.54964897164731
 20
64.62358342568437
 10
33.54964897164731
 20
64.62358342568437
 10
34.39628118714746
 20
65.68184785684342
 10
33.54964897164731
 20
65.7876811901503
 10
32.70301675614716
 20
65.89351452345717
 10
31.85641899160186
 20
64.62358342568437
 10
31.85641899160186
 20
64.62358342568437
 10
31.85641899160186
 20
64.62358342568437
 10
31.85641899160186
 20
64.09441675915001
 10
31.85641899160186
 20
64.09441675915001
 10
31.85641899160186
 20
64.09441675915001
 10
32.89115342059665
 20
63.77695121018423
 10
32.89115342059665
 20
63.77695121018423
 10
32.89115342059665
 20
63.77695121018423
 10
33.54964897164731
 20
64.62358342568437
 10
33.54964897164731
 20
64.62358342568437
 97
        0
 75
     2
 76
     1
 98
        0
  0
SPLINE
  5
5B
330
3C
100
AcDbEntity
  8
Capa 1
370
     0
100
AcDbSpline
210
0.0
220
0.0
230
1.0
 70
    11
 71
     3
 72
    17
 73
    13
 74
     0
 42
0.0000000001
 43
0.0000000001
 40
0.0
 40
0.0
 40
0.0
 40
0.0
 40
1.0
 40
1.0
 40
1.0
 40
2.0
 40
2.0
 40
2.0
 40
3.0
 40
3.0
 40
3.0
 40
4.0
 40
4.0
 40
4.0
 40
4.0
 10
33.9259223005463
 20
62.79802732805049
 30
0.0
 10
33.29681341398482
 20
62.71865232807033
 30
0.0
 10
33.33801675598841
 20
63.40653454361017
 30
0.0
 10
33.33801675598841
 20
63.40653454361017
 30
0.0
 10
33.33801675598841
 20
63.40653454361017
 30
0.0
 10
32.89115342059665
 20
62.18952011249081
 30
0.0
 10
32.89115342059665
 20
62.18952011249081
 30
0.0
 10
32.89115342059665
 20
62.18952011249081
 30
0.0
 10
33.40853786057147
 20
62.45410344575799
 30
0.0
 10
33.40853786057147
 20
62.45410344575799
 30
0.0
 10
33.40853786057147
 20
62.45410344575799
 30
0.0
 10
34.55503118710777
 20
62.87740232803065
 30
0.0
 10
33.9259223005463
 20
62.79802732805049
 30
0.0
  0
HATCH
  5
5C
330
3C
100
AcDbEntity
  8
Capa 1
 62
    25
420
  9529409
100
AcDbHatch
 10
0.0
 20
0.0
 30
0.0
210
0.0
220
0.0
230
1.0
  2
SOLID
 70
     1
 71
     0
 91
        1
 92
        1
 93
        1
 72
     4
 94
        3
 73
     0
 74
     1
 95
       17
 96
       13
 40
0.0
 40
0.0
 40
0.0
 40
0.0
 40
1.0
 40
1.0
 40
1.0
 40
2.0
 40
2.0
 40
2.0
 40
3.0
 40
3.0
 40
3.0
 40
4.0
 40
4.0
 40
4.0
 40
4.0
 10
33.9259223005463
 20
62.79802732805049
 10
33.29681341398482
 20
62.71865232807033
 10
33.33801675598841
 20
63.40653454361017
 10
33.33801675598841
 20
63.40653454361017
 10
33.33801675598841
 20
63.40653454361017
 10
32.89115342059665
 20
62.18952011249081
 10
32.89115342059665
 20
62.18952011249081
 10
32.89115342059665
 20
62.18952011249081
 10
33.40853786057147
 20
62.45410344575799
 10
33.40853786057147
 20
62.45410344575799
 10
33.40853786057147
 20
62.45410344575799
 10
34.55503118710777
 20
62.87740232803065
 10
33.9259223005463
 20
62.79802732805049
 97
        0
 75
     2
 76
     1
 98
        0
  0
SPLINE
  5
5D
330
3C
100
AcDbEntity
  8
Capa 1
370
     0
100
AcDbSpline
210
0.0
220
0.0
230
1.0
 70
    11
 71
     3
 72
    50
 73
    46
 74
     0
 42
0.0000000001
 43
0.0000000001
 40
0.0
 40
0.0
 40
0.0
 40
0.0
 40
1.0
 40
1.0
 40
1.0
 40
2.0
 40
2.0
 40
2.0
 40
3.0
 40
3.0
 40
3.0
 40
4.0
 40
4.0
 40
4.0
 40
5.0
 40
5.0
 40
5.0
 40
6.0
 40
6.0
 40
6.0
 40
7.0
 40
7.0
 40
7.0
 40
8.0
 40
8.0
 40
8.0
 40
9.0
 40
9.0
 40
9.0
 40
10.0
 40
10.0
 40
10.0
 40
11.0
 40
11.0
 40
11.0
 40
12.0
 40
12.0
 40
12.0
 40
13.0
 40
13.0
 40
13.0
 40
14.0
 40
14.0
 40
14.0
 40
15.0
 40
15.0
 40
15.0
 40
15.0
 10
44.13246553801202
 20
71.5023883556053
 30
0.0
 10
43.76208332239281
 20
71.8198711300485
 30
0.0
 10
43.76208332239281
 20
71.8198711300485
 30
0.0
 10
43.76208332239281
 20
71.8198711300485
 30
0.0
 10
43.76208332239281
 20
71.8198711300485
 30
0.0
 10
43.44458332247218
 20
71.8198711300485
 30
0.0
 10
43.44458332247218
 20
71.8198711300485
 30
0.0
 10
43.44458332247218
 20
71.8198711300485
 30
0.0
 10
43.33874998916531
 20
71.23780502233811
 30
0.0
 10
42.75670110693235
 20
71.44947168895186
 30
0.0
 10
42.17465222469939
 20
71.66113835556561
 30
0.0
 10
41.53968667581299
 20
72.50775334558834
 30
0.0
 10
42.17465222469939
 20
72.93106945333841
 30
0.0
 10
42.80961777358579
 20
73.35438556108848
 30
0.0
 10
40.37555446039222
 20
72.46524086730035
 30
0.0
 10
40.00517224477301
 20
71.77215655757779
 30
0.0
 10
39.6347900291538
 20
71.07907224785522
 30
0.0
 10
37.62402559823288
 20
69.80914115008243
 30
0.0
 10
37.62402559823288
 20
69.80914115008243
 30
0.0
 10
37.62402559823288
 20
69.80914115008243
 30
0.0
 10
38.99979002931255
 20
69.1212589345426
 30
0.0
 10
38.99979002931255
 20
69.1212589345426
 30
0.0
 10
38.99979002931255
 20
69.1212589345426
 30
0.0
 10
39.47604002919348
 20
70.02077336574133
 30
0.0
 10
39.95225557811957
 20
69.59747448346869
 30
0.0
 10
40.42847112704565
 20
69.17417560119604
 30
0.0
 10
40.16388779377847
 20
68.83755532133227
 30
0.0
 10
40.42847112704565
 20
68.74129935347439
 30
0.0
 10
40.69305446031284
 20
68.64504338561652
 30
0.0
 10
40.69305446031284
 20
68.64504338561652
 30
0.0
 10
40.69305446031284
 20
68.64504338561652
 30
0.0
 10
40.69305446031284
 20
68.64504338561652
 30
0.0
 10
41.80423555812533
 20
68.43337671900277
 30
0.0
 10
41.80423555812533
 20
68.43337671900277
 30
0.0
 10
41.80423555812533
 20
68.43337671900277
 30
0.0
 10
42.01590222473908
 20
67.61165254386097
 30
0.0
 10
42.01590222473908
 20
67.61165254386097
 30
0.0
 10
42.01590222473908
 20
67.61165254386097
 30
0.0
 10
43.12708332255156
 20
68.74129935347439
 30
0.0
 10
43.12708332255156
 20
68.74129935347439
 30
0.0
 10
43.12708332255156
 20
68.74129935347439
 30
0.0
 10
43.44458332247218
 20
69.7107492230237
 30
0.0
 10
43.44458332247218
 20
69.7107492230237
 30
0.0
 10
43.44458332247218
 20
69.7107492230237
 30
0.0
 10
44.50284775363123
 20
71.1849055811621
 30
0.0
 10
44.13246553801202
 20
71.5023883556053
 30
0.0
  0
HATCH
  5
5E
330
3C
100
AcDbEntity
  8
Capa 1
 62
    25
420
  9529409
100
AcDbHatch
 10
0.0
 20
0.0
 30
0.0
210
0.0
220
0.0
230
1.0
  2
SOLID
 70
     1
 71
     0
 91
        1
 92
        1
 93
        1
 72
     4
 94
        3
 73
     0
 74
     1
 95
       50
 96
       46
 40
0.0
 40
0.0
 40
0.0
 40
0.0
 40
1.0
 40
1.0
 40
1.0
 40
2.0
 40
2.0
 40
2.0
 40
3.0
 40
3.0
 40
3.0
 40
4.0
 40
4.0
 40
4.0
 40
5.0
 40
5.0
 40
5.0
 40
6.0
 40
6.0
 40
6.0
 40
7.0
 40
7.0
 40
7.0
 40
8.0
 40
8.0
 40
8.0
 40
9.0
 40
9.0
 40
9.0
 40
10.0
 40
10.0
 40
10.0
 40
11.0
 40
11.0
 40
11.0
 40
12.0
 40
12.0
 40
12.0
 40
13.0
 40
13.0
 40
13.0
 40
14.0
 40
14.0
 40
14.0
 40
15.0
 40
15.0
 40
15.0
 40
15.0
 10
44.13246553801202
 20
71.5023883556053
 10
43.76208332239281
 20
71.8198711300485
 10
43.76208332239281
 20
71.8198711300485
 10
43.76208332239281
 20
71.8198711300485
 10
43.76208332239281
 20
71.8198711300485
 10
43.44458332247218
 20
71.8198711300485
 10
43.44458332247218
 20
71.8198711300485
 10
43.44458332247218
 20
71.8198711300485
 10
43.33874998916531
 20
71.23780502233811
 10
42.75670110693235
 20
71.44947168895186
 10
42.17465222469939
 20
71.66113835556561
 10
41.53968667581299
 20
72.50775334558834
 10
42.17465222469939
 20
72.93106945333841
 10
42.80961777358579
 20
73.35438556108848
 10
40.37555446039222
 20
72.46524086730035
 10
40.00517224477301
 20
71.77215655757779
 10
39.6347900291538
 20
71.07907224785522
 10
37.62402559823288
 20
69.80914115008243
 10
37.62402559823288
 20
69.80914115008243
 10
37.62402559823288
 20
69.80914115008243
 10
38.99979002931255
 20
69.1212589345426
 10
38.99979002931255
 20
69.1212589345426
 10
38.99979002931255
 20
69.1212589345426
 10
39.47604002919348
 20
70.02077336574133
 10
39.95225557811957
 20
69.59747448346869
 10
40.42847112704565
 20
69.17417560119604
 10
40.16388779377847
 20
68.83755532133227
 10
40.42847112704565
 20
68.74129935347439
 10
40.69305446031284
 20
68.64504338561652
 10
40.69305446031284
 20
68.64504338561652
 10
40.69305446031284
 20
68.64504338561652
 10
40.69305446031284
 20
68.64504338561652
 10
41.80423555812533
 20
68.43337671900277
 10
41.80423555812533
 20
68.43337671900277
 10
41.80423555812533
 20
68.43337671900277
 10
42.01590222473908
 20
67.61165254386097
 10
42.01590222473908
 20
67.61165254386097
 10
42.01590222473908
 20
67.61165254386097
 10
43.12708332255156
 20
68.74129935347439
 10
43.12708332255156
 20
68.74129935347439
 10
43.12708332255156
 20
68.74129935347439
 10
43.44458332247218
 20
69.7107492230237
 10
43.44458332247218
 20
69.7107492230237
 10
43.44458332247218
 20
69.7107492230237
 10
44.50284775363123
 20
71.1849055811621
 10
44.13246553801202
 20
71.5023883556053
 97
        0
 75
     2
 76
     1
 98
        0
  0
SPLINE
  5
5F
330
3C
100
AcDbEntity
  8
Capa 1
370
     0
100
AcDbSpline
210
0.0
220
0.0
230
1.0
 70
    11
 71
     3
 72
    23
 73
    19
 74
     0
 42
0.0000000001
 43
0.0000000001
 40
0.0
 40
0.0
 40
0.0
 40
0.0
 40
1.0
 40
1.0
 40
1.0
 40
2.0
 40
2.0
 40
2.0
 40
3.0
 40
3.0
 40
3.0
 40
4.0
 40
4.0
 40
4.0
 40
5.0
 40
5.0
 40
5.0
 40
6.0
 40
6.0
 40
6.0
 40
6.0
 10
47.36020994909745
 20
74.46556665890097
 30
0.0
 10
47.36020994909745
 20
74.46556665890097
 30
0.0
 10
45.61406330239856
 20
74.09518444328175
 30
0.0
 10
45.61406330239856
 20
74.09518444328175
 30
0.0
 10
45.61406330239856
 20
74.09518444328175
 30
0.0
 10
45.98444551801777
 20
73.04088187193075
 30
0.0
 10
45.98444551801777
 20
73.04088187193075
 30
0.0
 10
46.67232773355761
 20
73.52109373161971
 30
0.0
 10
47.36020994909745
 20
73.04088187193075
 30
0.0
 10
47.36020994909745
 20
73.04088187193075
 30
0.0
 10
47.36020994909745
 20
73.04088187193075
 30
0.0
 10
48.78889104683055
 20
72.77231945337809
 30
0.0
 10
48.78889104683055
 20
72.77231945337809
 30
0.0
 10
48.78889104683055
 20
72.77231945337809
 30
0.0
 10
48.68305771352367
 20
73.56603500222481
 30
0.0
 10
48.41850883121134
 20
74.04226777662832
 30
0.0
 10
48.15395994889901
 20
74.51850055103183
 30
0.0
 10
47.36020994909745
 20
74.46556665890097
 30
0.0
 10
47.36020994909745
 20
74.46556665890097
 30
0.0
  0
HATCH
  5
60
330
3C
100
AcDbEntity
  8
Capa 1
 62
    25
420
  9529409
100
AcDbHatch
 10
0.0
 20
0.0
 30
0.0
210
0.0
220
0.0
230
1.0
  2
SOLID
 70
     1
 71
     0
 91
        1
 92
        1
 93
        1
 72
     4
 94
        3
 73
     0
 74
     1
 95
       23
 96
       19
 40
0.0
 40
0.0
 40
0.0
 40
0.0
 40
1.0
 40
1.0
 40
1.0
 40
2.0
 40
2.0
 40
2.0
 40
3.0
 40
3.0
 40
3.0
 40
4.0
 40
4.0
 40
4.0
 40
5.0
 40
5.0
 40
5.0
 40
6.0
 40
6.0
 40
6.0
 40
6.0
 10
47.36020994909745
 20
74.46556665890097
 10
47.36020994909745
 20
74.46556665890097
 10
45.61406330239856
 20
74.09518444328175
 10
45.61406330239856
 20
74.09518444328175
 10
45.61406330239856
 20
74.09518444328175
 10
45.98444551801777
 20
73.04088187193075
 10
45.98444551801777
 20
73.04088187193075
 10
46.67232773355761
 20
73.52109373161971
 10
47.36020994909745
 20
73.04088187193075
 10
47.36020994909745
 20
73.04088187193075
 10
47.36020994909745
 20
73.04088187193075
 10
48.78889104683055
 20
72.77231945337809
 10
48.78889104683055
 20
72.77231945337809
 10
48.78889104683055
 20
72.77231945337809
 10
48.68305771352367
 20
73.56603500222481
 10
48.41850883121134
 20
74.04226777662832
 10
48.15395994889901
 20
74.51850055103183
 10
47.36020994909745
 20
74.46556665890097
 10
47.36020994909745
 20
74.46556665890097
 97
        0
 75
     2
 76
     1
 98
        0
  0
SPLINE
  5
61
330
3C
100
AcDbEntity
  8
Capa 1
370
     0
100
AcDbSpline
210
0.0
220
0.0
230
1.0
 70
    11
 71
     3
 72
    20
 73
    16
 74
     0
 42
0.0000000001
 43
0.0000000001
 40
0.0
 40
0.0
 40
0.0
 40
0.0
 40
1.0
 40
1.0
 40
1.0
 40
2.0
 40
2.0
 40
2.0
 40
3.0
 40
3.0
 40
3.0
 40
4.0
 40
4.0
 40
4.0
 40
5.0
 40
5.0
 40
5.0
 40
5.0
 10
-2.167309569770672
 20
54.09371797692796
 30
0.0
 10
-10.79231282282275
 20
52.18882133026877
 30
0.0
 10
-8.548384329460125
 20
44.29042316601073
 30
0.0
 10
-8.464065617458635
 20
44.14586695944964
 30
0.0
 10
-7.723266735265363
 20
42.87590141072199
 30
0.0
 10
-6.496795517038995
 20
43.75788030590081
 30
0.0
 10
-4.327315537112615
 20
45.50402695259969
 30
0.0
 10
-2.157835557186235
 20
47.25017359929856
 30
0.0
 10
7.621791447747329
 20
47.20666204331986
 30
0.0
 10
12.27821695656586
 20
48.58242647439953
 30
0.0
 10
16.93464246538439
 20
49.9581909054792
 30
0.0
 10
15.0297458187252
 20
55.62823240796794
 30
0.0
 10
13.3894325053332
 20
57.95642793689978
 30
0.0
 10
11.74911919194119
 20
60.28462346583161
 30
0.0
 10
6.457693683281409
 20
55.99861462358714
 30
0.0
 10
-2.167309569770672
 20
54.09371797692796
 30
0.0
  0
SPLINE
  5
62
330
3C
100
AcDbEntity
  8
Capa 1
370
     0
100
AcDbSpline
210
0.0
220
0.0
230
1.0
 70
    11
 71
     3
 72
    20
 73
    16
 74
     0
 42
0.0000000001
 43
0.0000000001
 40
0.0
 40
0.0
 40
0.0
 40
0.0
 40
1.0
 40
1.0
 40
1.0
 40
2.0
 40
2.0
 40
2.0
 40
3.0
 40
3.0
 40
3.0
 40
4.0
 40
4.0
 40
4.0
 40
5.0
 40
5.0
 40
5.0
 40
5.0
 10
12.64863362313992
 20
49.86059135038207
 30
0.0
 10
11.11415364305479
 20
48.53774358595584
 30
0.0
 10
6.298909232366245
 20
46.95034693921727
 30
0.0
 10
3.970713703434404
 20
47.95569470372288
 30
0.0
 10
1.642518174502565
 20
48.96104246822848
 30
0.0
 10
-1.479427354230838
 20
49.01395913488192
 30
0.0
 10
-0.2094962564580426
 20
52.29465466357563
 30
0.0
 10
1.060434841314752
 20
55.57535019226935
 30
0.0
 10
11.11411919209994
 20
57.74479572124088
 30
0.0
 10
11.37870252536713
 20
57.74479572124088
 30
0.0
 10
11.37870252536713
 20
57.74479572124088
 30
0.0
 10
11.6961680743329
 20
58.06226127020665
 30
0.0
 10
13.60106472099209
 20
56.26319795685433
 30
0.0
 10
15.50596136765129
 20
54.46413464350202
 30
0.0
 10
14.18311360322505
 20
51.1834391148083
 30
0.0
 10
12.64863362313992
 20
49.86059135038207
 30
0.0
  0
HATCH
  5
63
330
3C
100
AcDbEntity
  8
Capa 1
 62
    17
420
  7027250
100
AcDbHatch
 10
0.0
 20
0.0
 30
0.0
210
0.0
220
0.0
230
1.0
  2
SOLID
 70
     1
 71
     0
 91
        2
 92
        1
 93
        1
 72
     4
 94
        3
 73
     0
 74
     1
 95
       20
 96
       16
 40
0.0
 40
0.0
 40
0.0
 40
0.0
 40
1.0
 40
1.0
 40
1.0
 40
2.0
 40
2.0
 40
2.0
 40
3.0
 40
3.0
 40
3.0
 40
4.0
 40
4.0
 40
4.0
 40
5.0
 40
5.0
 40
5.0
 40
5.0
 10
-2.167309569770672
 20
54.09371797692796
 10
-10.79231282282275
 20
52.18882133026877
 10
-8.548384329460125
 20
44.29042316601073
 10
-8.464065617458635
 20
44.14586695944964
 10
-7.723266735265363
 20
42.87590141072199
 10
-6.496795517038995
 20
43.75788030590081
 10
-4.327315537112615
 20
45.50402695259969
 10
-2.157835557186235
 20
47.25017359929856
 10
7.621791447747329
 20
47.20666204331986
 10
12.27821695656586
 20
48.58242647439953
 10
16.93464246538439
 20
49.9581909054792
 10
15.0297458187252
 20
55.62823240796794
 10
13.3894325053332
 20
57.95642793689978
 10
11.74911919194119
 20
60.28462346583161
 10
6.457693683281409
 20
55.99861462358714
 10
-2.167309569770672
 20
54.09371797692796
 97
        0
 92
        1
 93
        1
 72
     4
 94
        3
 73
     0
 74
     1
 95
       20
 96
       16
 40
0.0
 40
0.0
 40
0.0
 40
0.0
 40
1.0
 40
1.0
 40
1.0
 40
2.0
 40
2.0
 40
2.0
 40
3.0
 40
3.0
 40
3.0
 40
4.0
 40
4.0
 40
4.0
 40
5.0
 40
5.0
 40
5.0
 40
5.0
 10
12.64863362313992
 20
49.86059135038207
 10
11.11415364305479
 20
48.53774358595584
 10
6.298909232366245
 20
46.95034693921727
 10
3.970713703434404
 20
47.95569470372288
 10
1.642518174502565
 20
48.96104246822848
 10
-1.479427354230838
 20
49.01395913488192
 10
-0.2094962564580426
 20
52.29465466357563
 10
1.060434841314752
 20
55.57535019226935
 10
11.11411919209994
 20
57.74479572124088
 10
11.37870252536713
 20
57.74479572124088
 10
11.37870252536713
 20
57.74479572124088
 10
11.6961680743329
 20
58.06226127020665
 10
13.60106472099209
 20
56.26319795685433
 10
15.50596136765129
 20
54.46413464350202
 10
14.18311360322505
 20
51.1834391148083
 10
12.64863362313992
 20
49.86059135038207
 97
        0
 75
     2
 76
     1
 98
        0
  0
SPLINE
  5
64
330
3C
100
AcDbEntity
  8
Capa 1
370
     0
100
AcDbSpline
210
0.0
220
0.0
230
1.0
 70
    11
 71
     3
 72
    20
 73
    16
 74
     0
 42
0.0000000001
 43
0.0000000001
 40
0.0
 40
0.0
 40
0.0
 40
0.0
 40
1.0
 40
1.0
 40
1.0
 40
2.0
 40
2.0
 40
2.0
 40
3.0
 40
3.0
 40
3.0
 40
4.0
 40
4.0
 40
4.0
 40
5.0
 40
5.0
 40
5.0
 40
5.0
 10
11.37870252536713
 20
57.74479572124088
 30
0.0
 10
11.11411919209994
 20
57.74479572124088
 30
0.0
 10
1.060434841314752
 20
55.57535019226935
 30
0.0
 10
-0.2094962564580426
 20
52.29465466357563
 30
0.0
 10
-1.479427354230838
 20
49.01395913488192
 30
0.0
 10
1.642518174502565
 20
48.96104246822848
 30
0.0
 10
3.970713703434404
 20
47.95569470372288
 30
0.0
 10
6.298909232366245
 20
46.95034693921727
 30
0.0
 10
11.11415364305479
 20
48.53774358595584
 30
0.0
 10
12.64863362313992
 20
49.86059135038207
 30
0.0
 10
14.18311360322505
 20
51.1834391148083
 30
0.0
 10
15.50596136765129
 20
54.46413464350202
 30
0.0
 10
13.60106472099209
 20
56.26319795685433
 30
0.0
 10
11.6961680743329
 20
58.06226127020665
 30
0.0
 10
11.37870252536713
 20
57.74479572124088
 30
0.0
 10
11.37870252536713
 20
57.74479572124088
 30
0.0
  0
SPLINE
  5
65
330
3C
100
AcDbEntity
  8
Capa 1
370
     0
100
AcDbSpline
210
0.0
220
0.0
230
1.0
 70
    11
 71
     3
 72
    17
 73
    13
 74
     0
 42
0.0000000001
 43
0.0000000001
 40
0.0
 40
0.0
 40
0.0
 40
0.0
 40
1.0
 40
1.0
 40
1.0
 40
2.0
 40
2.0
 40
2.0
 40
3.0
 40
3.0
 40
3.0
 40
4.0
 40
4.0
 40
4.0
 40
4.0
 10
6.878477645849824
 20
48.58242647439953
 30
0.0
 10
5.825036348370129
 20
48.58242647439953
 30
0.0
 10
4.9710660794864
 20
48.96331623124875
 30
0.0
 10
4.9710660794864
 20
49.43319280448198
 30
0.0
 10
4.9710660794864
 20
49.90303492676035
 30
0.0
 10
5.825036348370129
 20
50.28392468360957
 30
0.0
 10
6.878477645849824
 20
50.28392468360957
 30
0.0
 10
7.93191894332952
 20
50.28392468360957
 30
0.0
 10
8.785889212213249
 20
49.90303492676035
 30
0.0
 10
8.785889212213249
 20
49.43319280448198
 30
0.0
 10
8.785889212213249
 20
48.96331623124875
 30
0.0
 10
7.93191894332952
 20
48.58242647439953
 30
0.0
 10
6.878477645849824
 20
48.58242647439953
 30
0.0
  0
SPLINE
  5
66
330
3C
100
AcDbEntity
  8
Capa 1
370
     0
100
AcDbSpline
210
0.0
220
0.0
230
1.0
 70
    11
 71
     3
 72
    17
 73
    13
 74
     0
 42
0.0000000001
 43
0.0000000001
 40
0.0
 40
0.0
 40
0.0
 40
0.0
 40
1.0
 40
1.0
 40
1.0
 40
2.0
 40
2.0
 40
2.0
 40
3.0
 40
3.0
 40
3.0
 40
4.0
 40
4.0
 40
4.0
 40
4.0
 10
9.730086531855672
 20
50.01934135034238
 30
0.0
 10
8.790402287298926
 20
50.01934135034238
 30
0.0
 10
8.02858832264563
 20
50.37859590754424
 30
0.0
 10
8.02858832264563
 20
50.82173853981192
 30
0.0
 10
8.02858832264563
 20
51.26488117207961
 30
0.0
 10
8.790402287298926
 20
51.62410127832661
 30
0.0
 10
9.730086531855672
 20
51.62410127832661
 30
0.0
 10
10.66980522736727
 20
51.62410127832661
 30
0.0
 10
11.43158474106571
 20
51.26488117207961
 30
0.0
 10
11.43158474106571
 20
50.82173853981192
 30
0.0
 10
11.43158474106571
 20
50.37859590754424
 30
0.0
 10
10.66980522736727
 20
50.01934135034238
 30
0.0
 10
9.730086531855672
 20
50.01934135034238
 30
0.0
  0
SPLINE
  5
67
330
3C
100
AcDbEntity
  8
Capa 1
370
     0
100
AcDbSpline
210
0.0
220
0.0
230
1.0
 70
    11
 71
     3
 72
    17
 73
    13
 74
     0
 42
0.0000000001
 43
0.0000000001
 40
0.0
 40
0.0
 40
0.0
 40
0.0
 40
1.0
 40
1.0
 40
1.0
 40
2.0
 40
2.0
 40
2.0
 40
3.0
 40
3.0
 40
3.0
 40
4.0
 40
4.0
 40
4.0
 40
4.0
 10
12.17238362325899
 20
55.78698240792825
 30
0.0
 10
12.17238362325899
 20
55.14405868847093
 30
0.0
 10
11.24475721290062
 20
54.62285019250748
 30
0.0
 10
10.10050319842973
 20
54.62285019250748
 30
0.0
 10
8.956214733004002
 20
54.62285019250748
 30
0.0
 10
8.02858832264563
 20
55.14405868847093
 30
0.0
 10
8.02858832264563
 20
55.78698240792825
 30
0.0
 10
8.02858832264563
 20
56.42987167643072
 30
0.0
 10
8.956214733004002
 20
56.95108017239417
 30
0.0
 10
10.10050319842973
 20
56.95108017239417
 30
0.0
 10
11.24475721290062
 20
56.95108017239417
 30
0.0
 10
12.17238362325899
 20
56.42987167643072
 30
0.0
 10
12.17238362325899
 20
55.78698240792825
 30
0.0
  0
HATCH
  5
68
330
3C
100
AcDbEntity
  8
Capa 1
 62
    29
420
  5845034
100
AcDbHatch
 10
0.0
 20
0.0
 30
0.0
210
0.0
220
0.0
230
1.0
  2
SOLID
 70
     1
 71
     0
 91
        4
 92
        1
 93
        1
 72
     4
 94
        3
 73
     0
 74
     1
 95
       20
 96
       16
 40
0.0
 40
0.0
 40
0.0
 40
0.0
 40
1.0
 40
1.0
 40
1.0
 40
2.0
 40
2.0
 40
2.0
 40
3.0
 40
3.0
 40
3.0
 40
4.0
 40
4.0
 40
4.0
 40
5.0
 40
5.0
 40
5.0
 40
5.0
 10
11.37870252536713
 20
57.74479572124088
 10
11.11411919209994
 20
57.74479572124088
 10
1.060434841314752
 20
55.57535019226935
 10
-0.2094962564580426
 20
52.29465466357563
 10
-1.479427354230838
 20
49.01395913488192
 10
1.642518174502565
 20
48.96104246822848
 10
3.970713703434404
 20
47.95569470372288
 10
6.298909232366245
 20
46.95034693921727
 10
11.11415364305479
 20
48.53774358595584
 10
12.64863362313992
 20
49.86059135038207
 10
14.18311360322505
 20
51.1834391148083
 10
15.50596136765129
 20
54.46413464350202
 10
13.60106472099209
 20
56.26319795685433
 10
11.6961680743329
 20
58.06226127020665
 10
11.37870252536713
 20
57.74479572124088
 10
11.37870252536713
 20
57.74479572124088
 97
        0
 92
        1
 93
        1
 72
     4
 94
        3
 73
     0
 74
     1
 95
       17
 96
       13
 40
0.0
 40
0.0
 40
0.0
 40
0.0
 40
1.0
 40
1.0
 40
1.0
 40
2.0
 40
2.0
 40
2.0
 40
3.0
 40
3.0
 40
3.0
 40
4.0
 40
4.0
 40
4.0
 40
4.0
 10
6.878477645849824
 20
48.58242647439953
 10
5.825036348370129
 20
48.58242647439953
 10
4.9710660794864
 20
48.96331623124875
 10
4.9710660794864
 20
49.43319280448198
 10
4.9710660794864
 20
49.90303492676035
 10
5.825036348370129
 20
50.28392468360957
 10
6.878477645849824
 20
50.28392468360957
 10
7.93191894332952
 20
50.28392468360957
 10
8.785889212213249
 20
49.90303492676035
 10
8.785889212213249
 20
49.43319280448198
 10
8.785889212213249
 20
48.96331623124875
 10
7.93191894332952
 20
48.58242647439953
 10
6.878477645849824
 20
48.58242647439953
 97
        0
 92
        1
 93
        1
 72
     4
 94
        3
 73
     0
 74
     1
 95
       17
 96
       13
 40
0.0
 40
0.0
 40
0.0
 40
0.0
 40
1.0
 40
1.0
 40
1.0
 40
2.0
 40
2.0
 40
2.0
 40
3.0
 40
3.0
 40
3.0
 40
4.0
 40
4.0
 40
4.0
 40
4.0
 10
9.730086531855672
 20
50.01934135034238
 10
8.790402287298926
 20
50.01934135034238
 10
8.02858832264563
 20
50.37859590754424
 10
8.02858832264563
 20
50.82173853981192
 10
8.02858832264563
 20
51.26488117207961
 10
8.790402287298926
 20
51.62410127832661
 10
9.730086531855672
 20
51.62410127832661
 10
10.66980522736727
 20
51.62410127832661
 10
11.43158474106571
 20
51.26488117207961
 10
11.43158474106571
 20
50.82173853981192
 10
11.43158474106571
 20
50.37859590754424
 10
10.66980522736727
 20
50.01934135034238
 10
9.730086531855672
 20
50.01934135034238
 97
        0
 92
        1
 93
        1
 72
     4
 94
        3
 73
     0
 74
     1
 95
       17
 96
       13
 40
0.0
 40
0.0
 40
0.0
 40
0.0
 40
1.0
 40
1.0
 40
1.0
 40
2.0
 40
2.0
 40
2.0
 40
3.0
 40
3.0
 40
3.0
 40
4.0
 40
4.0
 40
4.0
 40
4.0
 10
12.17238362325899
 20
55.78698240792825
 10
12.17238362325899
 20
55.14405868847093
 10
11.24475721290062
 20
54.62285019250748
 10
10.10050319842973
 20
54.62285019250748
 10
8.956214733004002
 20
54.62285019250748
 10
8.02858832264563
 20
55.14405868847093
 10
8.02858832264563
 20
55.78698240792825
 10
8.02858832264563
 20
56.42987167643072
 10
8.956214733004002
 20
56.95108017239417
 10
10.10050319842973
 20
56.95108017239417
 10
11.24475721290062
 20
56.95108017239417
 10
12.17238362325899
 20
56.42987167643072
 10
12.17238362325899
 20
55.78698240792825
 97
        0
 75
     2
 76
     1
 98
        0
  0
SPLINE
  5
69
330
3C
100
AcDbEntity
  8
Capa 1
370
     0
100
AcDbSpline
210
0.0
220
0.0
230
1.0
 70
    11
 71
     3
 72
    38
 73
    34
 74
     0
 42
0.0000000001
 43
0.0000000001
 40
0.0
 40
0.0
 40
0.0
 40
0.0
 40
1.0
 40
1.0
 40
1.0
 40
2.0
 40
2.0
 40
2.0
 40
3.0
 40
3.0
 40
3.0
 40
4.0
 40
4.0
 40
4.0
 40
5.0
 40
5.0
 40
5.0
 40
6.0
 40
6.0
 40
6.0
 40
7.0
 40
7.0
 40
7.0
 40
8.0
 40
8.0
 40
8.0
 40
9.0
 40
9.0
 40
9.0
 40
10.0
 40
10.0
 40
10.0
 40
11.0
 40
11.0
 40
11.0
 40
11.0
 10
10.74373697648073
 20
65.79395126393345
 30
0.0
 10
4.764463703235967
 20
65.74730467106316
 30
0.0
 10
4.182380370048155
 20
64.25316675911031
 30
0.0
 10
2.171650390082087
 20
62.79802732805049
 30
0.0
 10
0.1609204101160199
 20
61.34288789699066
 30
0.0
 10
-2.114392903117235
 20
62.98323566133752
 30
0.0
 10
-4.327315537112615
 20
64.20025009245688
 30
0.0
 10
-6.540238171107996
 20
65.41726452357624
 30
0.0
 10
-10.21022948963494
 20
62.24243677914425
 30
0.0
 10
-12.69719224400452
 20
62.18952011249081
 30
0.0
 10
-15.1841549983741
 20
62.13660344583737
 30
0.0
 10
-15.23707166502754
 20
61.92493677922362
 30
0.0
 10
-16.66573553728322
 20
60.12587346587131
 30
0.0
 10
-18.0943994095389
 20
58.32681015251899
 30
0.0
 10
-15.55455443947073
 20
57.32142793705853
 30
0.0
 10
-17.19488497834017
 20
54.83448240816637
 30
0.0
 10
-18.8352155172096
 20
52.34753687927422
 30
0.0
 10
-10.58062893073158
 20
53.08830131051264
 30
0.0
 10
-10.58062893073158
 20
53.08830131051264
 30
0.0
 10
-10.58062893073158
 20
53.08830131051264
 30
0.0
 10
0.3196704100763324
 20
57.05684460379134
 30
0.0
 10
1.617954643692733
 20
57.26851127040509
 30
0.0
 10
2.916238877309135
 20
57.48017793701884
 30
0.0
 10
7.568874781093892
 20
58.43260903487101
 30
0.0
 10
9.050472545480437
 20
58.63187335773786
 30
0.0
 10
10.53207030986698
 20
58.83113768060471
 30
0.0
 10
14.3947802698388
 20
59.22632458371772
 30
0.0
 10
16.61717691641862
 20
59.70257458359865
 30
0.0
 10
18.83957356299844
 20
60.1788245834796
 30
0.0
 10
18.83957356299844
 20
60.7608390147577
 30
0.0
 10
20.37408799403842
 20
64.78543401158142
 30
0.0
 10
21.9086024250784
 20
68.81002900840512
 30
0.0
 10
16.7230102497255
 20
65.84059785680374
 30
0.0
 10
10.74373697648073
 20
65.79395126393345
 30
0.0
  0
SPLINE
  5
6A
330
3C
100
AcDbEntity
  8
Capa 1
370
     0
100
AcDbSpline
210
0.0
220
0.0
230
1.0
 70
    11
 71
     3
 72
    20
 73
    16
 74
     0
 42
0.0000000001
 43
0.0000000001
 40
0.0
 40
0.0
 40
0.0
 40
0.0
 40
1.0
 40
1.0
 40
1.0
 40
2.0
 40
2.0
 40
2.0
 40
3.0
 40
3.0
 40
3.0
 40
4.0
 40
4.0
 40
4.0
 40
5.0
 40
5.0
 40
5.0
 40
5.0
 10
18.25752468076548
 20
63.77695121018423
 30
0.0
 10
17.78127468088454
 20
61.92493677922362
 30
0.0
 10
15.20427435600796
 20
60.91958901471801
 30
0.0
 10
15.20427435600796
 20
60.91958901471801
 30
0.0
 10
14.97682915207176
 20
60.91958901471801
 30
0.0
 10
4.711512585627677
 20
58.64055499836069
 30
0.0
 10
4.976095918894864
 20
59.93880478102224
 30
0.0
 10
5.240679252162052
 20
61.23705456368378
 30
0.0
 10
8.627139212252937
 20
66.4226467390367
 30
0.0
 10
10.95536919213963
 20
64.41191675907062
 30
0.0
 10
13.28359917202632
 20
62.40118677910456
 30
0.0
 10
14.07728026991818
 20
61.71327011260987
 30
0.0
 10
15.55887803430472
 20
63.40653454361017
 30
0.0
 10
17.04047579869127
 20
65.09979897461047
 30
0.0
 10
18.73377468064642
 20
65.62896564114483
 30
0.0
 10
18.25752468076548
 20
63.77695121018423
 30
0.0
  0
HATCH
  5
6B
330
3C
100
AcDbEntity
  8
Capa 1
 62
    17
420
  7027250
100
AcDbHatch
 10
0.0
 20
0.0
 30
0.0
210
0.0
220
0.0
230
1.0
  2
SOLID
 70
     1
 71
     0
 91
        2
 92
        1
 93
        1
 72
     4
 94
        3
 73
     0
 74
     1
 95
       38
 96
       34
 40
0.0
 40
0.0
 40
0.0
 40
0.0
 40
1.0
 40
1.0
 40
1.0
 40
2.0
 40
2.0
 40
2.0
 40
3.0
 40
3.0
 40
3.0
 40
4.0
 40
4.0
 40
4.0
 40
5.0
 40
5.0
 40
5.0
 40
6.0
 40
6.0
 40
6.0
 40
7.0
 40
7.0
 40
7.0
 40
8.0
 40
8.0
 40
8.0
 40
9.0
 40
9.0
 40
9.0
 40
10.0
 40
10.0
 40
10.0
 40
11.0
 40
11.0
 40
11.0
 40
11.0
 10
10.74373697648073
 20
65.79395126393345
 10
4.764463703235967
 20
65.74730467106316
 10
4.182380370048155
 20
64.25316675911031
 10
2.171650390082087
 20
62.79802732805049
 10
0.1609204101160199
 20
61.34288789699066
 10
-2.114392903117235
 20
62.98323566133752
 10
-4.327315537112615
 20
64.20025009245688
 10
-6.540238171107996
 20
65.41726452357624
 10
-10.21022948963494
 20
62.24243677914425
 10
-12.69719224400452
 20
62.18952011249081
 10
-15.1841549983741
 20
62.13660344583737
 10
-15.23707166502754
 20
61.92493677922362
 10
-16.66573553728322
 20
60.12587346587131
 10
-18.0943994095389
 20
58.32681015251899
 10
-15.55455443947073
 20
57.32142793705853
 10
-17.19488497834017
 20
54.83448240816637
 10
-18.8352155172096
 20
52.34753687927422
 10
-10.58062893073158
 20
53.08830131051264
 10
-10.58062893073158
 20
53.08830131051264
 10
-10.58062893073158
 20
53.08830131051264
 10
0.3196704100763324
 20
57.05684460379134
 10
1.617954643692733
 20
57.26851127040509
 10
2.916238877309135
 20
57.48017793701884
 10
7.568874781093892
 20
58.43260903487101
 10
9.050472545480437
 20
58.63187335773786
 10
10.53207030986698
 20
58.83113768060471
 10
14.3947802698388
 20
59.22632458371772
 10
16.61717691641862
 20
59.70257458359865
 10
18.83957356299844
 20
60.1788245834796
 10
18.83957356299844
 20
60.7608390147577
 10
20.37408799403842
 20
64.78543401158142
 10
21.9086024250784
 20
68.81002900840512
 10
16.7230102497255
 20
65.84059785680374
 10
10.74373697648073
 20
65.79395126393345
 97
        0
 92
        1
 93
        1
 72
     4
 94
        3
 73
     0
 74
     1
 95
       20
 96
       16
 40
0.0
 40
0.0
 40
0.0
 40
0.0
 40
1.0
 40
1.0
 40
1.0
 40
2.0
 40
2.0
 40
2.0
 40
3.0
 40
3.0
 40
3.0
 40
4.0
 40
4.0
 40
4.0
 40
5.0
 40
5.0
 40
5.0
 40
5.0
 10
18.25752468076548
 20
63.77695121018423
 10
17.78127468088454
 20
61.92493677922362
 10
15.20427435600796
 20
60.91958901471801
 10
15.20427435600796
 20
60.91958901471801
 10
14.97682915207176
 20
60.91958901471801
 10
4.711512585627677
 20
58.64055499836069
 10
4.976095918894864
 20
59.93880478102224
 10
5.240679252162052
 20
61.23705456368378
 10
8.627139212252937
 20
66.4226467390367
 10
10.95536919213963
 20
64.41191675907062
 10
13.28359917202632
 20
62.40118677910456
 10
14.07728026991818
 20
61.71327011260987
 10
15.55887803430472
 20
63.40653454361017
 10
17.04047579869127
 20
65.09979897461047
 10
18.73377468064642
 20
65.62896564114483
 10
18.25752468076548
 20
63.77695121018423
 97
        0
 75
     2
 76
     1
 98
        0
  0
SPLINE
  5
6C
330
3C
100
AcDbEntity
  8
Capa 1
370
     0
100
AcDbSpline
210
0.0
220
0.0
230
1.0
 70
    11
 71
     3
 72
    20
 73
    16
 74
     0
 42
0.0000000001
 43
0.0000000001
 40
0.0
 40
0.0
 40
0.0
 40
0.0
 40
1.0
 40
1.0
 40
1.0
 40
2.0
 40
2.0
 40
2.0
 40
3.0
 40
3.0
 40
3.0
 40
4.0
 40
4.0
 40
4.0
 40
5.0
 40
5.0
 40
5.0
 40
5.0
 10
15.55887803430472
 20
63.40653454361017
 30
0.0
 10
14.07728026991818
 20
61.71327011260987
 30
0.0
 10
13.28359917202632
 20
62.40118677910456
 30
0.0
 10
10.95536919213963
 20
64.41191675907062
 30
0.0
 10
8.627139212252937
 20
66.4226467390367
 30
0.0
 10
5.240679252162052
 20
61.23705456368378
 30
0.0
 10
4.976095918894864
 20
59.93880478102224
 30
0.0
 10
4.711512585627677
 20
58.64055499836069
 30
0.0
 10
14.97682915207176
 20
60.91958901471801
 30
0.0
 10
15.20427435600796
 20
60.91958901471801
 30
0.0
 10
15.20427435600796
 20
60.91958901471801
 30
0.0
 10
17.78127468088454
 20
61.92493677922362
 30
0.0
 10
18.25752468076548
 20
63.77695121018423
 30
0.0
 10
18.73377468064642
 20
65.62896564114483
 30
0.0
 10
17.04047579869127
 20
65.09979897461047
 30
0.0
 10
15.55887803430472
 20
63.40653454361017
 30
0.0
  0
HATCH
  5
6D
330
3C
100
AcDbEntity
  8
Capa 1
 62
    29
420
  5845034
100
AcDbHatch
 10
0.0
 20
0.0
 30
0.0
210
0.0
220
0.0
230
1.0
  2
SOLID
 70
     1
 71
     0
 91
        1
 92
        1
 93
        1
 72
     4
 94
        3
 73
     0
 74
     1
 95
       20
 96
       16
 40
0.0
 40
0.0
 40
0.0
 40
0.0
 40
1.0
 40
1.0
 40
1.0
 40
2.0
 40
2.0
 40
2.0
 40
3.0
 40
3.0
 40
3.0
 40
4.0
 40
4.0
 40
4.0
 40
5.0
 40
5.0
 40
5.0
 40
5.0
 10
15.55887803430472
 20
63.40653454361017
 10
14.07728026991818
 20
61.71327011260987
 10
13.28359917202632
 20
62.40118677910456
 10
10.95536919213963
 20
64.41191675907062
 10
8.627139212252937
 20
66.4226467390367
 10
5.240679252162052
 20
61.23705456368378
 10
4.976095918894864
 20
59.93880478102224
 10
4.711512585627677
 20
58.64055499836069
 10
14.97682915207176
 20
60.91958901471801
 10
15.20427435600796
 20
60.91958901471801
 10
15.20427435600796
 20
60.91958901471801
 10
17.78127468088454
 20
61.92493677922362
 10
18.25752468076548
 20
63.77695121018423
 10
18.73377468064642
 20
65.62896564114483
 10
17.04047579869127
 20
65.09979897461047
 10
15.55887803430472
 20
63.40653454361017
 97
        0
 75
     2
 76
     1
 98
        0
  0
SPLINE
  5
6E
330
3C
100
AcDbEntity
  8
Capa 1
370
     0
100
AcDbSpline
210
0.0
220
0.0
230
1.0
 70
    11
 71
     3
 72
    17
 73
    13
 74
     0
 42
0.0000000001
 43
0.0000000001
 40
0.0
 40
0.0
 40
0.0
 40
0.0
 40
1.0
 40
1.0
 40
1.0
 40
2.0
 40
2.0
 40
2.0
 40
3.0
 40
3.0
 40
3.0
 40
4.0
 40
4.0
 40
4.0
 40
4.0
 10
-0.7386284720375651
 20
65.79395126393345
 30
0.0
 10
0.1080037434625824
 20
64.3715402399835
 30
0.0
 10
1.166268174621627
 20
65.47018119022967
 30
0.0
 10
3.208314072548616
 20
65.79395126393345
 30
0.0
 10
5.250359970475604
 20
66.11772133763724
 30
0.0
 10
3.282831487894569
 20
66.26389673907639
 30
0.0
 10
2.383317056695837
 20
67.61165254386097
 30
0.0
 10
1.483802625497105
 20
68.95940834864555
 30
0.0
 10
-2.749358452003632
 20
68.22171005238901
 30
0.0
 10
-2.749358452003632
 20
68.22171005238901
 30
0.0
 10
-2.749358452003632
 20
68.22171005238901
 30
0.0
 10
-1.585260687537712
 20
67.2163622878834
 30
0.0
 10
-0.7386284720375651
 20
65.79395126393345
 30
0.0
  0
HATCH
  5
6F
330
3C
100
AcDbEntity
  8
Capa 1
 62
    29
420
  5845034
100
AcDbHatch
 10
0.0
 20
0.0
 30
0.0
210
0.0
220
0.0
230
1.0
  2
SOLID
 70
     1
 71
     0
 91
        1
 92
        1
 93
        1
 72
     4
 94
        3
 73
     0
 74
     1
 95
       17
 96
       13
 40
0.0
 40
0.0
 40
0.0
 40
0.0
 40
1.0
 40
1.0
 40
1.0
 40
2.0
 40
2.0
 40
2.0
 40
3.0
 40
3.0
 40
3.0
 40
4.0
 40
4.0
 40
4.0
 40
4.0
 10
-0.7386284720375651
 20
65.79395126393345
 10
0.1080037434625824
 20
64.3715402399835
 10
1.166268174621627
 20
65.47018119022967
 10
3.208314072548616
 20
65.79395126393345
 10
5.250359970475604
 20
66.11772133763724
 10
3.282831487894569
 20
66.26389673907639
 10
2.383317056695837
 20
67.61165254386097
 10
1.483802625497105
 20
68.95940834864555
 10
-2.749358452003632
 20
68.22171005238901
 10
-2.749358452003632
 20
68.22171005238901
 10
-2.749358452003632
 20
68.22171005238901
 10
-1.585260687537712
 20
67.2163622878834
 10
-0.7386284720375651
 20
65.79395126393345
 97
        0
 75
     2
 76
     1
 98
        0
  0
SPLINE
  5
70
330
3C
100
AcDbEntity
  8
Capa 1
370
     0
100
AcDbSpline
210
0.0
220
0.0
230
1.0
 70
    11
 71
     3
 72
    44
 73
    40
 74
     0
 42
0.0000000001
 43
0.0000000001
 40
0.0
 40
0.0
 40
0.0
 40
0.0
 40
1.0
 40
1.0
 40
1.0
 40
2.0
 40
2.0
 40
2.0
 40
3.0
 40
3.0
 40
3.0
 40
4.0
 40
4.0
 40
4.0
 40
5.0
 40
5.0
 40
5.0
 40
6.0
 40
6.0
 40
6.0
 40
7.0
 40
7.0
 40
7.0
 40
8.0
 40
8.0
 40
8.0
 40
9.0
 40
9.0
 40
9.0
 40
10.0
 40
10.0
 40
10.0
 40
11.0
 40
11.0
 40
11.0
 40
12.0
 40
12.0
 40
12.0
 40
13.0
 40
13.0
 40
13.0
 40
13.0
 10
4.103315428661671
 20
82.13808713766859
 30
0.0
 10
2.278103840576307
 20
82.40265324545835
 30
0.0
 10
0.2667537434228949
 20
81.60893769661165
 30
0.0
 10
-1.0031773543499
 20
80.12735715770253
 30
0.0
 10
-2.273108452122695
 20
78.6457766187934
 30
0.0
 10
-2.326059569730985
 20
79.70404104995245
 30
0.0
 10
-5.073178709669205
 20
79.06907550106605
 30
0.0
 10
-7.820297849607425
 20
78.43410995217967
 30
0.0
 10
-6.612085637452881
 20
81.07980548103212
 30
0.0
 10
-10.26314615628838
 20
81.0268888143787
 30
0.0
 10
-13.91420667512388
 20
80.97397214772525
 30
0.0
 10
-8.675732284072385
 20
78.96324216775919
 30
0.0
 10
-12.43262613621476
 20
75.52383109006001
 30
0.0
 10
-16.18951998835713
 20
72.08442001236084
 30
0.0
 10
-13.43799112619779
 20
72.5077361201109
 30
0.0
 10
-13.43799112619779
 20
72.5077361201109
 30
0.0
 10
-13.43799112619779
 20
72.5077361201109
 30
0.0
 10
-13.33215779289092
 20
72.13733667901427
 30
0.0
 10
-11.42726114623173
 20
71.44945446347444
 30
0.0
 10
-9.522364499572534
 20
70.7615722479346
 30
0.0
 10
-7.088301186378966
 20
71.02613835572436
 30
0.0
 10
-6.770818411935768
 20
71.23778779686069
 30
0.0
 10
-6.453335637492568
 20
71.44943723799702
 30
0.0
 10
-2.273142903077547
 20
72.77230222790067
 30
0.0
 10
-0.84446180534444
 20
73.04088187193075
 30
0.0
 10
0.5842192923886673
 20
73.30946151596082
 30
0.0
 10
-0.2623784721566276
 20
73.72475055123027
 30
0.0
 10
0.6769957138064455
 20
73.98931665902002
 30
0.0
 10
1.616369899769519
 20
74.25388276680978
 30
0.0
 10
1.53668484119569
 20
74.46554943342353
 30
0.0
 10
3.208314072548616
 20
75.3650810900997
 30
0.0
 10
4.879943303901541
 20
76.26461274677585
 30
0.0
 10
5.505228134474387
 20
77.32291162888976
 30
0.0
 10
7.020691187480938
 20
78.38119328552622
 30
0.0
 10
8.53615424048749
 20
79.43947494216269
 30
0.0
 10
7.992208114321392
 20
79.43947494216269
 30
0.0
 10
7.621791447747329
 20
81.39728825547533
 30
0.0
 10
7.251374781173267
 20
83.35510156878796
 30
0.0
 10
5.928527016747035
 20
81.87352102987883
 30
0.0
 10
4.103315428661671
 20
82.13808713766859
 30
0.0
  0
SPLINE
  5
71
330
3C
100
AcDbEntity
  8
Capa 1
370
     0
100
AcDbSpline
210
0.0
220
0.0
230
1.0
 70
    11
 71
     3
 72
    23
 73
    19
 74
     0
 42
0.0000000001
 43
0.0000000001
 40
0.0
 40
0.0
 40
0.0
 40
0.0
 40
1.0
 40
1.0
 40
1.0
 40
2.0
 40
2.0
 40
2.0
 40
3.0
 40
3.0
 40
3.0
 40
4.0
 40
4.0
 40
4.0
 40
5.0
 40
5.0
 40
5.0
 40
6.0
 40
6.0
 40
6.0
 40
6.0
 10
6.027504610038262
 20
79.1219921677195
 30
0.0
 10
5.279849987829342
 20
78.4870266188331
 30
0.0
 10
-0.0507462564977301
 20
74.94178220782705
 30
0.0
 10
-2.23083713051868
 20
73.61983016822698
 30
0.0
 10
-4.410928004539628
 20
72.29787812862692
 30
0.0
 10
-8.040749509708562
 20
71.396537796821
 30
0.0
 10
-9.099031166345034
 20
72.77231945337809
 30
0.0
 10
-10.1573128229815
 20
74.1481011099352
 30
0.0
 10
-8.516982284112073
 20
74.35971610011666
 30
0.0
 10
-6.71790174528233
 20
74.46732365759844
 30
0.0
 10
-4.918838431930013
 20
74.57493121508023
 30
0.0
 10
-0.7386284720375651
 20
77.0583455211
 30
0.0
 10
1.377934841235377
 20
78.85740883445231
 30
0.0
 10
3.49449815450832
 20
80.65647214780462
 30
0.0
 10
4.9710660794864
 20
80.65648937328206
 30
0.0
 10
4.9710660794864
 20
80.65648937328206
 30
0.0
 10
7.558815102276962
 20
80.86813881441837
 30
0.0
 10
6.775159232247182
 20
79.7569577166059
 30
0.0
 10
6.027504610038262
 20
79.1219921677195
 30
0.0
  0
HATCH
  5
72
330
3C
100
AcDbEntity
  8
Capa 1
 62
    17
420
  7027250
100
AcDbHatch
 10
0.0
 20
0.0
 30
0.0
210
0.0
220
0.0
230
1.0
  2
SOLID
 70
     1
 71
     0
 91
        2
 92
        1
 93
        1
 72
     4
 94
        3
 73
     0
 74
     1
 95
       44
 96
       40
 40
0.0
 40
0.0
 40
0.0
 40
0.0
 40
1.0
 40
1.0
 40
1.0
 40
2.0
 40
2.0
 40
2.0
 40
3.0
 40
3.0
 40
3.0
 40
4.0
 40
4.0
 40
4.0
 40
5.0
 40
5.0
 40
5.0
 40
6.0
 40
6.0
 40
6.0
 40
7.0
 40
7.0
 40
7.0
 40
8.0
 40
8.0
 40
8.0
 40
9.0
 40
9.0
 40
9.0
 40
10.0
 40
10.0
 40
10.0
 40
11.0
 40
11.0
 40
11.0
 40
12.0
 40
12.0
 40
12.0
 40
13.0
 40
13.0
 40
13.0
 40
13.0
 10
4.103315428661671
 20
82.13808713766859
 10
2.278103840576307
 20
82.40265324545835
 10
0.2667537434228949
 20
81.60893769661165
 10
-1.0031773543499
 20
80.12735715770253
 10
-2.273108452122695
 20
78.6457766187934
 10
-2.326059569730985
 20
79.70404104995245
 10
-5.073178709669205
 20
79.06907550106605
 10
-7.820297849607425
 20
78.43410995217967
 10
-6.612085637452881
 20
81.07980548103212
 10
-10.26314615628838
 20
81.0268888143787
 10
-13.91420667512388
 20
80.97397214772525
 10
-8.675732284072385
 20
78.96324216775919
 10
-12.43262613621476
 20
75.52383109006001
 10
-16.18951998835713
 20
72.08442001236084
 10
-13.43799112619779
 20
72.5077361201109
 10
-13.43799112619779
 20
72.5077361201109
 10
-13.43799112619779
 20
72.5077361201109
 10
-13.33215779289092
 20
72.13733667901427
 10
-11.42726114623173
 20
71.44945446347444
 10
-9.522364499572534
 20
70.7615722479346
 10
-7.088301186378966
 20
71.02613835572436
 10
-6.770818411935768
 20
71.23778779686069
 10
-6.453335637492568
 20
71.44943723799702
 10
-2.273142903077547
 20
72.77230222790067
 10
-0.84446180534444
 20
73.04088187193075
 10
0.5842192923886673
 20
73.30946151596082
 10
-0.2623784721566276
 20
73.72475055123027
 10
0.6769957138064455
 20
73.98931665902002
 10
1.616369899769519
 20
74.25388276680978
 10
1.53668484119569
 20
74.46554943342353
 10
3.208314072548616
 20
75.3650810900997
 10
4.879943303901541
 20
76.26461274677585
 10
5.505228134474387
 20
77.32291162888976
 10
7.020691187480938
 20
78.38119328552622
 10
8.53615424048749
 20
79.43947494216269
 10
7.992208114321392
 20
79.43947494216269
 10
7.621791447747329
 20
81.39728825547533
 10
7.251374781173267
 20
83.35510156878796
 10
5.928527016747035
 20
81.87352102987883
 10
4.103315428661671
 20
82.13808713766859
 97
        0
 92
        1
 93
        1
 72
     4
 94
        3
 73
     0
 74
     1
 95
       23
 96
       19
 40
0.0
 40
0.0
 40
0.0
 40
0.0
 40
1.0
 40
1.0
 40
1.0
 40
2.0
 40
2.0
 40
2.0
 40
3.0
 40
3.0
 40
3.0
 40
4.0
 40
4.0
 40
4.0
 40
5.0
 40
5.0
 40
5.0
 40
6.0
 40
6.0
 40
6.0
 40
6.0
 10
6.027504610038262
 20
79.1219921677195
 10
5.279849987829342
 20
78.4870266188331
 10
-0.0507462564977301
 20
74.94178220782705
 10
-2.23083713051868
 20
73.61983016822698
 10
-4.410928004539628
 20
72.29787812862692
 10
-8.040749509708562
 20
71.396537796821
 10
-9.099031166345034
 20
72.77231945337809
 10
-10.1573128229815
 20
74.1481011099352
 10
-8.516982284112073
 20
74.35971610011666
 10
-6.71790174528233
 20
74.46732365759844
 10
-4.918838431930013
 20
74.57493121508023
 10
-0.7386284720375651
 20
77.0583455211
 10
1.377934841235377
 20
78.85740883445231
 10
3.49449815450832
 20
80.65647214780462
 10
4.9710660794864
 20
80.65648937328206
 10
4.9710660794864
 20
80.65648937328206
 10
7.558815102276962
 20
80.86813881441837
 10
6.775159232247182
 20
79.7569577166059
 10
6.027504610038262
 20
79.1219921677195
 97
        0
 75
     2
 76
     1
 98
        0
  0
SPLINE
  5
73
330
3C
100
AcDbEntity
  8
Capa 1
370
     0
100
AcDbSpline
210
0.0
220
0.0
230
1.0
 70
    11
 71
     3
 72
    23
 73
    19
 74
     0
 42
0.0000000001
 43
0.0000000001
 40
0.0
 40
0.0
 40
0.0
 40
0.0
 40
1.0
 40
1.0
 40
1.0
 40
2.0
 40
2.0
 40
2.0
 40
3.0
 40
3.0
 40
3.0
 40
4.0
 40
4.0
 40
4.0
 40
5.0
 40
5.0
 40
5.0
 40
6.0
 40
6.0
 40
6.0
 40
6.0
 10
4.9710660794864
 20
80.65648937328206
 30
0.0
 10
4.9710660794864
 20
80.65648937328206
 30
0.0
 10
3.49449815450832
 20
80.65647214780462
 30
0.0
 10
1.377934841235377
 20
78.85740883445231
 30
0.0
 10
-0.7386284720375651
 20
77.0583455211
 30
0.0
 10
-4.918838431930013
 20
74.57493121508023
 30
0.0
 10
-6.71790174528233
 20
74.46732365759844
 30
0.0
 10
-8.516982284112073
 20
74.35971610011666
 30
0.0
 10
-10.1573128229815
 20
74.1481011099352
 30
0.0
 10
-9.099031166345034
 20
72.77231945337809
 30
0.0
 10
-8.040749509708562
 20
71.396537796821
 30
0.0
 10
-4.410928004539628
 20
72.29787812862692
 30
0.0
 10
-2.23083713051868
 20
73.61983016822698
 30
0.0
 10
-0.0507462564977301
 20
74.94178220782705
 30
0.0
 10
5.279849987829342
 20
78.4870266188331
 30
0.0
 10
6.027504610038262
 20
79.1219921677195
 30
0.0
 10
6.775159232247182
 20
79.7569577166059
 30
0.0
 10
7.558815102276962
 20
80.86813881441837
 30
0.0
 10
4.9710660794864
 20
80.65648937328206
 30
0.0
  0
SPLINE
  5
74
330
3C
100
AcDbEntity
  8
Capa 1
370
     0
100
AcDbSpline
210
0.0
220
0.0
230
1.0
 70
    11
 71
     3
 72
    17
 73
    13
 74
     0
 42
0.0000000001
 43
0.0000000001
 40
0.0
 40
0.0
 40
0.0
 40
0.0
 40
1.0
 40
1.0
 40
1.0
 40
2.0
 40
2.0
 40
2.0
 40
3.0
 40
3.0
 40
3.0
 40
4.0
 40
4.0
 40
4.0
 40
4.0
 10
-4.835811630735491
 20
73.04954628707615
 30
0.0
 10
-4.835811630735491
 20
72.73457843233719
 30
0.0
 10
-5.494031574147325
 20
72.47926240592531
 30
0.0
 10
-6.306006129065859
 20
72.47926240592531
 30
0.0
 10
-7.117963458506967
 20
72.47926240592531
 30
0.0
 10
-7.776183401918801
 20
72.73457843233719
 30
0.0
 10
-7.776183401918801
 20
73.04954628707615
 30
0.0
 10
-7.776183401918801
 20
73.36449691633769
 30
0.0
 10
-7.117963458506967
 20
73.61983016822698
 30
0.0
 10
-6.306006129065859
 20
73.61983016822698
 30
0.0
 10
-5.494031574147325
 20
73.61983016822698
 30
0.0
 10
-4.835811630735491
 20
73.36449691633769
 30
0.0
 10
-4.835811630735491
 20
73.04954628707615
 30
0.0
  0
HATCH
  5
75
330
3C
100
AcDbEntity
  8
Capa 1
 62
    29
420
  5845034
100
AcDbHatch
 10
0.0
 20
0.0
 30
0.0
210
0.0
220
0.0
230
1.0
  2
SOLID
 70
     1
 71
     0
 91
        2
 92
        1
 93
        1
 72
     4
 94
        3
 73
     0
 74
     1
 95
       23
 96
       19
 40
0.0
 40
0.0
 40
0.0
 40
0.0
 40
1.0
 40
1.0
 40
1.0
 40
2.0
 40
2.0
 40
2.0
 40
3.0
 40
3.0
 40
3.0
 40
4.0
 40
4.0
 40
4.0
 40
5.0
 40
5.0
 40
5.0
 40
6.0
 40
6.0
 40
6.0
 40
6.0
 10
4.9710660794864
 20
80.65648937328206
 10
4.9710660794864
 20
80.65648937328206
 10
3.49449815450832
 20
80.65647214780462
 10
1.377934841235377
 20
78.85740883445231
 10
-0.7386284720375651
 20
77.0583455211
 10
-4.918838431930013
 20
74.57493121508023
 10
-6.71790174528233
 20
74.46732365759844
 10
-8.516982284112073
 20
74.35971610011666
 10
-10.1573128229815
 20
74.1481011099352
 10
-9.099031166345034
 20
72.77231945337809
 10
-8.040749509708562
 20
71.396537796821
 10
-4.410928004539628
 20
72.29787812862692
 10
-2.23083713051868
 20
73.61983016822698
 10
-0.0507462564977301
 20
74.94178220782705
 10
5.279849987829342
 20
78.4870266188331
 10
6.027504610038262
 20
79.1219921677195
 10
6.775159232247182
 20
79.7569577166059
 10
7.558815102276962
 20
80.86813881441837
 10
4.9710660794864
 20
80.65648937328206
 97
        0
 92
        1
 93
        1
 72
     4
 94
        3
 73
     0
 74
     1
 95
       17
 96
       13
 40
0.0
 40
0.0
 40
0.0
 40
0.0
 40
1.0
 40
1.0
 40
1.0
 40
2.0
 40
2.0
 40
2.0
 40
3.0
 40
3.0
 40
3.0
 40
4.0
 40
4.0
 40
4.0
 40
4.0
 10
-4.835811630735491
 20
73.04954628707615
 10
-4.835811630735491
 20
72.73457843233719
 10
-5.494031574147325
 20
72.47926240592531
 10
-6.306006129065859
 20
72.47926240592531
 10
-7.117963458506967
 20
72.47926240592531
 10
-7.776183401918801
 20
72.73457843233719
 10
-7.776183401918801
 20
73.04954628707615
 10
-7.776183401918801
 20
73.36449691633769
 10
-7.117963458506967
 20
73.61983016822698
 10
-6.306006129065859
 20
73.61983016822698
 10
-5.494031574147325
 20
73.61983016822698
 10
-4.835811630735491
 20
73.36449691633769
 10
-4.835811630735491
 20
73.04954628707615
 97
        0
 75
     2
 76
     1
 98
        0
  0
SPLINE
  5
76
330
3C
100
AcDbEntity
  8
Capa 1
370
     0
100
AcDbSpline
210
0.0
220
0.0
230
1.0
 70
    11
 71
     3
 72
    17
 73
    13
 74
     0
 42
0.0000000001
 43
0.0000000001
 40
0.0
 40
0.0
 40
0.0
 40
0.0
 40
1.0
 40
1.0
 40
1.0
 40
2.0
 40
2.0
 40
2.0
 40
3.0
 40
3.0
 40
3.0
 40
4.0
 40
4.0
 40
4.0
 40
4.0
 10
-7.776183401918801
 20
73.04954628707615
 30
0.0
 10
-7.776183401918801
 20
72.73457843233719
 30
0.0
 10
-7.117963458506967
 20
72.47926240592531
 30
0.0
 10
-6.306006129065859
 20
72.47926240592531
 30
0.0
 10
-5.494031574147325
 20
72.47926240592531
 30
0.0
 10
-4.835811630735491
 20
72.73457843233719
 30
0.0
 10
-4.835811630735491
 20
73.04954628707615
 30
0.0
 10
-4.835811630735491
 20
73.36449691633769
 30
0.0
 10
-5.494031574147325
 20
73.61983016822698
 30
0.0
 10
-6.306006129065859
 20
73.61983016822698
 30
0.0
 10
-7.117963458506967
 20
73.61983016822698
 30
0.0
 10
-7.776183401918801
 20
73.36449691633769
 30
0.0
 10
-7.776183401918801
 20
73.04954628707615
 30
0.0
  0
HATCH
  5
77
330
3C
100
AcDbEntity
  8
Capa 1
 62
    19
420
  4204577
100
AcDbHatch
 10
0.0
 20
0.0
 30
0.0
210
0.0
220
0.0
230
1.0
  2
SOLID
 70
     1
 71
     0
 91
        1
 92
        1
 93
        1
 72
     4
 94
        3
 73
     0
 74
     1
 95
       17
 96
       13
 40
0.0
 40
0.0
 40
0.0
 40
0.0
 40
1.0
 40
1.0
 40
1.0
 40
2.0
 40
2.0
 40
2.0
 40
3.0
 40
3.0
 40
3.0
 40
4.0
 40
4.0
 40
4.0
 40
4.0
 10
-7.776183401918801
 20
73.04954628707615
 10
-7.776183401918801
 20
72.73457843233719
 10
-7.117963458506967
 20
72.47926240592531
 10
-6.306006129065859
 20
72.47926240592531
 10
-5.494031574147325
 20
72.47926240592531
 10
-4.835811630735491
 20
72.73457843233719
 10
-4.835811630735491
 20
73.04954628707615
 10
-4.835811630735491
 20
73.36449691633769
 10
-5.494031574147325
 20
73.61983016822698
 10
-6.306006129065859
 20
73.61983016822698
 10
-7.117963458506967
 20
73.61983016822698
 10
-7.776183401918801
 20
73.36449691633769
 10
-7.776183401918801
 20
73.04954628707615
 97
        0
 75
     2
 76
     1
 98
        0
  0
SPLINE
  5
78
330
3C
100
AcDbEntity
  8
Capa 1
370
     0
100
AcDbSpline
210
0.0
220
0.0
230
1.0
 70
    11
 71
     3
 72
    17
 73
    13
 74
     0
 42
0.0000000001
 43
0.0000000001
 40
0.0
 40
0.0
 40
0.0
 40
0.0
 40
1.0
 40
1.0
 40
1.0
 40
2.0
 40
2.0
 40
2.0
 40
3.0
 40
3.0
 40
3.0
 40
4.0
 40
4.0
 40
4.0
 40
4.0
 10
6.878477645849824
 20
50.28392468360957
 30
0.0
 10
5.825036348370129
 20
50.28392468360957
 30
0.0
 10
4.9710660794864
 20
49.90303492676035
 30
0.0
 10
4.9710660794864
 20
49.43319280448198
 30
0.0
 10
4.9710660794864
 20
48.96331623124875
 30
0.0
 10
5.825036348370129
 20
48.58242647439953
 30
0.0
 10
6.878477645849824
 20
48.58242647439953
 30
0.0
 10
7.93191894332952
 20
48.58242647439953
 30
0.0
 10
8.785889212213249
 20
48.96331623124875
 30
0.0
 10
8.785889212213249
 20
49.43319280448198
 30
0.0
 10
8.785889212213249
 20
49.90303492676035
 30
0.0
 10
7.93191894332952
 20
50.28392468360957
 30
0.0
 10
6.878477645849824
 20
50.28392468360957
 30
0.0
  0
HATCH
  5
79
330
3C
100
AcDbEntity
  8
Capa 1
 62
    19
420
  4204577
100
AcDbHatch
 10
0.0
 20
0.0
 30
0.0
210
0.0
220
0.0
230
1.0
  2
SOLID
 70
     1
 71
     0
 91
        1
 92
        1
 93
        1
 72
     4
 94
        3
 73
     0
 74
     1
 95
       17
 96
       13
 40
0.0
 40
0.0
 40
0.0
 40
0.0
 40
1.0
 40
1.0
 40
1.0
 40
2.0
 40
2.0
 40
2.0
 40
3.0
 40
3.0
 40
3.0
 40
4.0
 40
4.0
 40
4.0
 40
4.0
 10
6.878477645849824
 20
50.28392468360957
 10
5.825036348370129
 20
50.28392468360957
 10
4.9710660794864
 20
49.90303492676035
 10
4.9710660794864
 20
49.43319280448198
 10
4.9710660794864
 20
48.96331623124875
 10
5.825036348370129
 20
48.58242647439953
 10
6.878477645849824
 20
48.58242647439953
 10
7.93191894332952
 20
48.58242647439953
 10
8.785889212213249
 20
48.96331623124875
 10
8.785889212213249
 20
49.43319280448198
 10
8.785889212213249
 20
49.90303492676035
 10
7.93191894332952
 20
50.28392468360957
 10
6.878477645849824
 20
50.28392468360957
 97
        0
 75
     2
 76
     1
 98
        0
  0
SPLINE
  5
7A
330
3C
100
AcDbEntity
  8
Capa 1
370
     0
100
AcDbSpline
210
0.0
220
0.0
230
1.0
 70
    11
 71
     3
 72
    17
 73
    13
 74
     0
 42
0.0000000001
 43
0.0000000001
 40
0.0
 40
0.0
 40
0.0
 40
0.0
 40
1.0
 40
1.0
 40
1.0
 40
2.0
 40
2.0
 40
2.0
 40
3.0
 40
3.0
 40
3.0
 40
4.0
 40
4.0
 40
4.0
 40
4.0
 10
9.730086531855672
 20
51.62410127832661
 30
0.0
 10
8.790402287298926
 20
51.62410127832661
 30
0.0
 10
8.02858832264563
 20
51.26488117207961
 30
0.0
 10
8.02858832264563
 20
50.82173853981192
 30
0.0
 10
8.02858832264563
 20
50.37859590754424
 30
0.0
 10
8.790402287298926
 20
50.01934135034238
 30
0.0
 10
9.730086531855672
 20
50.01934135034238
 30
0.0
 10
10.66980522736727
 20
50.01934135034238
 30
0.0
 10
11.43158474106571
 20
50.37859590754424
 30
0.0
 10
11.43158474106571
 20
50.82173853981192
 30
0.0
 10
11.43158474106571
 20
51.26488117207961
 30
0.0
 10
10.66980522736727
 20
51.62410127832661
 30
0.0
 10
9.730086531855672
 20
51.62410127832661
 30
0.0
  0
HATCH
  5
7B
330
3C
100
AcDbEntity
  8
Capa 1
 62
    19
420
  4204577
100
AcDbHatch
 10
0.0
 20
0.0
 30
0.0
210
0.0
220
0.0
230
1.0
  2
SOLID
 70
     1
 71
     0
 91
        1
 92
        1
 93
        1
 72
     4
 94
        3
 73
     0
 74
     1
 95
       17
 96
       13
 40
0.0
 40
0.0
 40
0.0
 40
0.0
 40
1.0
 40
1.0
 40
1.0
 40
2.0
 40
2.0
 40
2.0
 40
3.0
 40
3.0
 40
3.0
 40
4.0
 40
4.0
 40
4.0
 40
4.0
 10
9.730086531855672
 20
51.62410127832661
 10
8.790402287298926
 20
51.62410127832661
 10
8.02858832264563
 20
51.26488117207961
 10
8.02858832264563
 20
50.82173853981192
 10
8.02858832264563
 20
50.37859590754424
 10
8.790402287298926
 20
50.01934135034238
 10
9.730086531855672
 20
50.01934135034238
 10
10.66980522736727
 20
50.01934135034238
 10
11.43158474106571
 20
50.37859590754424
 10
11.43158474106571
 20
50.82173853981192
 10
11.43158474106571
 20
51.26488117207961
 10
10.66980522736727
 20
51.62410127832661
 10
9.730086531855672
 20
51.62410127832661
 97
        0
 75
     2
 76
     1
 98
        0
  0
SPLINE
  5
7C
330
3C
100
AcDbEntity
  8
Capa 1
370
     0
100
AcDbSpline
210
0.0
220
0.0
230
1.0
 70
    11
 71
     3
 72
    17
 73
    13
 74
     0
 42
0.0000000001
 43
0.0000000001
 40
0.0
 40
0.0
 40
0.0
 40
0.0
 40
1.0
 40
1.0
 40
1.0
 40
2.0
 40
2.0
 40
2.0
 40
3.0
 40
3.0
 40
3.0
 40
4.0
 40
4.0
 40
4.0
 40
4.0
 10
8.02858832264563
 20
55.78698240792825
 30
0.0
 10
8.02858832264563
 20
55.14405868847093
 30
0.0
 10
8.956214733004002
 20
54.62285019250748
 30
0.0
 10
10.10050319842973
 20
54.62285019250748
 30
0.0
 10
11.24475721290062
 20
54.62285019250748
 30
0.0
 10
12.17238362325899
 20
55.14405868847093
 30
0.0
 10
12.17238362325899
 20
55.78698240792825
 30
0.0
 10
12.17238362325899
 20
56.42987167643072
 30
0.0
 10
11.24475721290062
 20
56.95108017239417
 30
0.0
 10
10.10050319842973
 20
56.95108017239417
 30
0.0
 10
8.956214733004002
 20
56.95108017239417
 30
0.0
 10
8.02858832264563
 20
56.42987167643072
 30
0.0
 10
8.02858832264563
 20
55.78698240792825
 30
0.0
  0
HATCH
  5
7D
330
3C
100
AcDbEntity
  8
Capa 1
 62
    19
420
  4204577
100
AcDbHatch
 10
0.0
 20
0.0
 30
0.0
210
0.0
220
0.0
230
1.0
  2
SOLID
 70
     1
 71
     0
 91
        1
 92
        1
 93
        1
 72
     4
 94
        3
 73
     0
 74
     1
 95
       17
 96
       13
 40
0.0
 40
0.0
 40
0.0
 40
0.0
 40
1.0
 40
1.0
 40
1.0
 40
2.0
 40
2.0
 40
2.0
 40
3.0
 40
3.0
 40
3.0
 40
4.0
 40
4.0
 40
4.0
 40
4.0
 10
8.02858832264563
 20
55.78698240792825
 10
8.02858832264563
 20
55.14405868847093
 10
8.956214733004002
 20
54.62285019250748
 10
10.10050319842973
 20
54.62285019250748
 10
11.24475721290062
 20
54.62285019250748
 10
12.17238362325899
 20
55.14405868847093
 10
12.17238362325899
 20
55.78698240792825
 10
12.17238362325899
 20
56.42987167643072
 10
11.24475721290062
 20
56.95108017239417
 10
10.10050319842973
 20
56.95108017239417
 10
8.956214733004002
 20
56.95108017239417
 10
8.02858832264563
 20
56.42987167643072
 10
8.02858832264563
 20
55.78698240792825
 97
        0
 75
     2
 76
     1
 98
        0
  0
SPLINE
  5
7E
330
3C
100
AcDbEntity
  8
Capa 1
370
     0
100
AcDbSpline
210
0.0
220
0.0
230
1.0
 70
    11
 71
     3
 72
    35
 73
    31
 74
     0
 42
0.0000000001
 43
0.0000000001
 40
0.0
 40
0.0
 40
0.0
 40
0.0
 40
1.0
 40
1.0
 40
1.0
 40
2.0
 40
2.0
 40
2.0
 40
3.0
 40
3.0
 40
3.0
 40
4.0
 40
4.0
 40
4.0
 40
5.0
 40
5.0
 40
5.0
 40
6.0
 40
6.0
 40
6.0
 40
7.0
 40
7.0
 40
7.0
 40
8.0
 40
8.0
 40
8.0
 40
9.0
 40
9.0
 40
9.0
 40
10.0
 40
10.0
 40
10.0
 40
10.0
 10
19.47453911188484
 20
79.49235715786128
 30
0.0
 10
16.19387803414597
 20
79.91567326561136
 30
0.0
 10
16.7230102497255
 20
80.8152049222875
 30
0.0
 10
14.3326996491946
 20
84.94249821552653
 30
0.0
 10
11.94238904866371
 20
89.06979150876553
 30
0.0
 10
11.74908474098634
 20
86.84741208766314
 30
0.0
 10
8.785889212213249
 20
88.75230873432233
 30
0.0
 10
5.82269368344016
 20
90.65720538098152
 30
0.0
 10
1.166268174621627
 20
88.64647540101546
 30
0.0
 10
4.605679252320802
 20
86.37117931325963
 30
0.0
 10
8.045090330019978
 20
84.0958832255038
 30
0.0
 10
6.933909232207494
 20
83.35508434331052
 30
0.0
 10
9.79127142767371
 20
81.23852103003759
 30
0.0
 10
12.64863362313992
 20
79.12195771676464
 30
0.0
 10
9.632521427713396
 20
69.22705781689461
 30
0.0
 10
12.06658474090696
 20
67.61165254386097
 30
0.0
 10
14.50064805410053
 20
65.99624727082733
 30
0.0
 10
20.64645724310227
 20
69.38598007162919
 30
0.0
 10
20.64645724310227
 20
69.38598007162919
 30
0.0
 10
20.64645724310227
 20
69.38598007162919
 30
0.0
 10
22.54353352300995
 20
71.34360390469014
 30
0.0
 10
22.96686685623745
 20
71.55527057130388
 30
0.0
 10
23.39020018946495
 20
71.76693723791763
 30
0.0
 10
24.34263128731712
 20
74.3067822079858
 30
0.0
 10
24.71301350293633
 20
75.2592305313154
 30
0.0
 10
25.08339571855554
 20
76.21167885464499
 30
0.0
 10
25.03051350285695
 20
76.95247773683826
 30
0.0
 10
24.71301350293633
 20
78.64574216783856
 30
0.0
 10
24.3955135030157
 20
80.33900659883885
 30
0.0
 10
22.7552001896237
 20
79.06904105011121
 30
0.0
 10
19.47453911188484
 20
79.49235715786128
 30
0.0
  0
HATCH
  5
7F
330
3C
100
AcDbEntity
  8
Capa 1
 62
    17
420
  7027250
100
AcDbHatch
 10
0.0
 20
0.0
 30
0.0
210
0.0
220
0.0
230
1.0
  2
SOLID
 70
     1
 71
     0
 91
        1
 92
        1
 93
        1
 72
     4
 94
        3
 73
     0
 74
     1
 95
       35
 96
       31
 40
0.0
 40
0.0
 40
0.0
 40
0.0
 40
1.0
 40
1.0
 40
1.0
 40
2.0
 40
2.0
 40
2.0
 40
3.0
 40
3.0
 40
3.0
 40
4.0
 40
4.0
 40
4.0
 40
5.0
 40
5.0
 40
5.0
 40
6.0
 40
6.0
 40
6.0
 40
7.0
 40
7.0
 40
7.0
 40
8.0
 40
8.0
 40
8.0
 40
9.0
 40
9.0
 40
9.0
 40
10.0
 40
10.0
 40
10.0
 40
10.0
 10
19.47453911188484
 20
79.49235715786128
 10
16.19387803414597
 20
79.91567326561136
 10
16.7230102497255
 20
80.8152049222875
 10
14.3326996491946
 20
84.94249821552653
 10
11.94238904866371
 20
89.06979150876553
 10
11.74908474098634
 20
86.84741208766314
 10
8.785889212213249
 20
88.75230873432233
 10
5.82269368344016
 20
90.65720538098152
 10
1.166268174621627
 20
88.64647540101546
 10
4.605679252320802
 20
86.37117931325963
 10
8.045090330019978
 20
84.0958832255038
 10
6.933909232207494
 20
83.35508434331052
 10
9.79127142767371
 20
81.23852103003759
 10
12.64863362313992
 20
79.12195771676464
 10
9.632521427713396
 20
69.22705781689461
 10
12.06658474090696
 20
67.61165254386097
 10
14.50064805410053
 20
65.99624727082733
 10
20.64645724310227
 20
69.38598007162919
 10
20.64645724310227
 20
69.38598007162919
 10
20.64645724310227
 20
69.38598007162919
 10
22.54353352300995
 20
71.34360390469014
 10
22.96686685623745
 20
71.55527057130388
 10
23.39020018946495
 20
71.76693723791763
 10
24.34263128731712
 20
74.3067822079858
 10
24.71301350293633
 20
75.2592305313154
 10
25.08339571855554
 20
76.21167885464499
 10
25.03051350285695
 20
76.95247773683826
 10
24.71301350293633
 20
78.64574216783856
 10
24.3955135030157
 20
80.33900659883885
 10
22.7552001896237
 20
79.06904105011121
 10
19.47453911188484
 20
79.49235715786128
 97
        0
 75
     2
 76
     1
 98
        0
  0
SPLINE
  5
80
330
3C
100
AcDbEntity
  8
Capa 1
370
     0
100
AcDbSpline
210
0.0
220
0.0
230
1.0
 70
    11
 71
     3
 72
    26
 73
    22
 74
     0
 42
0.0000000001
 43
0.0000000001
 40
0.0
 40
0.0
 40
0.0
 40
0.0
 40
1.0
 40
1.0
 40
1.0
 40
2.0
 40
2.0
 40
2.0
 40
3.0
 40
3.0
 40
3.0
 40
4.0
 40
4.0
 40
4.0
 40
5.0
 40
5.0
 40
5.0
 40
6.0
 40
6.0
 40
6.0
 40
7.0
 40
7.0
 40
7.0
 40
7.0
 10
8.256756996633726
 20
92.29757037080581
 30
0.0
 10
7.833458114361079
 20
91.76843815522629
 30
0.0
 10
7.886374781014517
 20
91.5038548219591
 30
0.0
 10
8.02858832264563
 20
91.08053871420903
 30
0.0
 10
8.170801864276743
 20
90.65722260645896
 30
0.0
 10
9.156305878787311
 20
90.07517372422599
 30
0.0
 10
9.632521427713396
 20
89.5116077792714
 30
0.0
 10
10.10873697663948
 20
88.9480418343168
 30
0.0
 10
11.85491807429321
 20
89.54604150864647
 30
0.0
 10
14.18125325166302
 20
89.96935761639654
 30
0.0
 10
16.50758842903283
 20
90.39267372414662
 30
0.0
 10
15.40016248529926
 20
91.02763927303302
 30
0.0
 10
15.20427435600796
 20
92.19173703749894
 30
0.0
 10
15.00838622671665
 20
93.35583480196486
 30
0.0
 10
11.27286919206025
 20
93.99081757632868
 30
0.0
 10
11.27286919206025
 20
93.99081757632868
 30
0.0
 10
11.27286919206025
 20
93.99081757632868
 30
0.0
 10
10.37332030990667
 20
93.40876869409571
 30
0.0
 10
10.10046874747488
 20
93.2500186941354
 30
0.0
 10
9.827617185043096
 20
93.0912686941751
 30
0.0
 10
8.680055878906375
 20
92.82670258638534
 30
0.0
 10
8.256756996633726
 20
92.29757037080581
 30
0.0
  0
HATCH
  5
81
330
3C
100
AcDbEntity
  8
Capa 1
 62
    17
420
  7027250
100
AcDbHatch
 10
0.0
 20
0.0
 30
0.0
210
0.0
220
0.0
230
1.0
  2
SOLID
 70
     1
 71
     0
 91
        1
 92
        1
 93
        1
 72
     4
 94
        3
 73
     0
 74
     1
 95
       26
 96
       22
 40
0.0
 40
0.0
 40
0.0
 40
0.0
 40
1.0
 40
1.0
 40
1.0
 40
2.0
 40
2.0
 40
2.0
 40
3.0
 40
3.0
 40
3.0
 40
4.0
 40
4.0
 40
4.0
 40
5.0
 40
5.0
 40
5.0
 40
6.0
 40
6.0
 40
6.0
 40
7.0
 40
7.0
 40
7.0
 40
7.0
 10
8.256756996633726
 20
92.29757037080581
 10
7.833458114361079
 20
91.76843815522629
 10
7.886374781014517
 20
91.5038548219591
 10
8.02858832264563
 20
91.08053871420903
 10
8.170801864276743
 20
90.65722260645896
 10
9.156305878787311
 20
90.07517372422599
 10
9.632521427713396
 20
89.5116077792714
 10
10.10873697663948
 20
88.9480418343168
 10
11.85491807429321
 20
89.54604150864647
 10
14.18125325166302
 20
89.96935761639654
 10
16.50758842903283
 20
90.39267372414662
 10
15.40016248529926
 20
91.02763927303302
 10
15.20427435600796
 20
92.19173703749894
 10
15.00838622671665
 20
93.35583480196486
 10
11.27286919206025
 20
93.99081757632868
 10
11.27286919206025
 20
93.99081757632868
 10
11.27286919206025
 20
93.99081757632868
 10
10.37332030990667
 20
93.40876869409571
 10
10.10046874747488
 20
93.2500186941354
 10
9.827617185043096
 20
93.0912686941751
 10
8.680055878906375
 20
92.82670258638534
 10
8.256756996633726
 20
92.29757037080581
 97
        0
 75
     2
 76
     1
 98
        0
  0
SPLINE
  5
82
330
3C
100
AcDbEntity
  8
Capa 1
370
     0
100
AcDbSpline
210
0.0
220
0.0
230
1.0
 70
    11
 71
     3
 72
    26
 73
    22
 74
     0
 42
0.0000000001
 43
0.0000000001
 40
0.0
 40
0.0
 40
0.0
 40
0.0
 40
1.0
 40
1.0
 40
1.0
 40
2.0
 40
2.0
 40
2.0
 40
3.0
 40
3.0
 40
3.0
 40
4.0
 40
4.0
 40
4.0
 40
5.0
 40
5.0
 40
5.0
 40
6.0
 40
6.0
 40
6.0
 40
7.0
 40
7.0
 40
7.0
 40
7.0
 10
-13.01467501844772
 20
92.1388203708455
 30
0.0
 10
-11.85056002850437
 20
91.29218815534534
 30
0.0
 10
-4.918838431930013
 20
91.39803871412965
 30
0.0
 10
-3.190571830799579
 20
91.63630151788954
 30
0.0
 10
-1.462305229669146
 20
91.8745643216494
 30
0.0
 10
0.0550870768091449
 20
93.09128591965252
 30
0.0
 10
2.012900390121775
 20
92.56213647859558
 30
0.0
 10
3.970713703434404
 20
92.03298703753862
 30
0.0
 10
8.521340329900914
 20
93.35585202744228
 30
0.0
 10
8.838805878866687
 20
94.36121701742532
 30
0.0
 10
9.15627142783246
 20
95.36658200740835
 30
0.0
 10
4.764429252281115
 20
95.47241534071522
 30
0.0
 10
4.552762585667365
 20
95.47241534071522
 30
0.0
 10
4.552762585667365
 20
95.47241534071522
 30
0.0
 10
2.065817056775212
 20
95.57823144854467
 30
0.0
 10
0.1080037434625824
 20
95.20783200744803
 30
0.0
 10
-1.849809569850047
 20
94.8374325663514
 30
0.0
 10
-8.516982284112073
 20
95.73698144850498
 30
0.0
 10
-12.69719224400452
 20
95.73698144850498
 30
0.0
 10
-16.87740220389697
 20
95.73698144850498
 30
0.0
 10
-14.17879000839106
 20
92.98545258634564
 30
0.0
 10
-13.01467501844772
 20
92.1388203708455
 30
0.0
  0
HATCH
  5
83
330
3C
100
AcDbEntity
  8
Capa 1
 62
    17
420
  7027250
100
AcDbHatch
 10
0.0
 20
0.0
 30
0.0
210
0.0
220
0.0
230
1.0
  2
SOLID
 70
     1
 71
     0
 91
        1
 92
        1
 93
        1
 72
     4
 94
        3
 73
     0
 74
     1
 95
       26
 96
       22
 40
0.0
 40
0.0
 40
0.0
 40
0.0
 40
1.0
 40
1.0
 40
1.0
 40
2.0
 40
2.0
 40
2.0
 40
3.0
 40
3.0
 40
3.0
 40
4.0
 40
4.0
 40
4.0
 40
5.0
 40
5.0
 40
5.0
 40
6.0
 40
6.0
 40
6.0
 40
7.0
 40
7.0
 40
7.0
 40
7.0
 10
-13.01467501844772
 20
92.1388203708455
 10
-11.85056002850437
 20
91.29218815534534
 10
-4.918838431930013
 20
91.39803871412965
 10
-3.190571830799579
 20
91.63630151788954
 10
-1.462305229669146
 20
91.8745643216494
 10
0.0550870768091449
 20
93.09128591965252
 10
2.012900390121775
 20
92.56213647859558
 10
3.970713703434404
 20
92.03298703753862
 10
8.521340329900914
 20
93.35585202744228
 10
8.838805878866687
 20
94.36121701742532
 10
9.15627142783246
 20
95.36658200740835
 10
4.764429252281115
 20
95.47241534071522
 10
4.552762585667365
 20
95.47241534071522
 10
4.552762585667365
 20
95.47241534071522
 10
2.065817056775212
 20
95.57823144854467
 10
0.1080037434625824
 20
95.20783200744803
 10
-1.849809569850047
 20
94.8374325663514
 10
-8.516982284112073
 20
95.73698144850498
 10
-12.69719224400452
 20
95.73698144850498
 10
-16.87740220389697
 20
95.73698144850498
 10
-14.17879000839106
 20
92.98545258634564
 10
-13.01467501844772
 20
92.1388203708455
 97
        0
 75
     2
 76
     1
 98
        0
  0
SPLINE
  5
84
330
3C
100
AcDbEntity
  8
Capa 1
370
     0
100
AcDbSpline
210
0.0
220
0.0
230
1.0
 70
    11
 71
     3
 72
    14
 73
    10
 74
     0
 42
0.0000000001
 43
0.0000000001
 40
0.0
 40
0.0
 40
0.0
 40
0.0
 40
1.0
 40
1.0
 40
1.0
 40
2.0
 40
2.0
 40
2.0
 40
3.0
 40
3.0
 40
3.0
 40
3.0
 10
-16.87740220389697
 20
85.63039765654378
 30
0.0
 10
-15.1841549983741
 20
85.36583154875402
 30
0.0
 10
-11.05686170513509
 20
87.4294609698961
 30
0.0
 10
-10.73937893069189
 20
89.06980873424295
 30
0.0
 10
-10.42189615624869
 20
90.71015649858981
 30
0.0
 10
-9.553594290146323
 20
91.50499170346923
 30
0.0
 10
-13.83708821268656
 20
90.44557316532263
 30
0.0
 10
-15.51038831534983
 20
90.031731070157
 30
0.0
 10
-18.57064940941984
 20
85.89496376433354
 30
0.0
 10
-16.87740220389697
 20
85.63039765654378
 30
0.0
  0
HATCH
  5
85
330
3C
100
AcDbEntity
  8
Capa 1
 62
    17
420
  7027250
100
AcDbHatch
 10
0.0
 20
0.0
 30
0.0
210
0.0
220
0.0
230
1.0
  2
SOLID
 70
     1
 71
     0
 91
        1
 92
        1
 93
        1
 72
     4
 94
        3
 73
     0
 74
     1
 95
       14
 96
       10
 40
0.0
 40
0.0
 40
0.0
 40
0.0
 40
1.0
 40
1.0
 40
1.0
 40
2.0
 40
2.0
 40
2.0
 40
3.0
 40
3.0
 40
3.0
 40
3.0
 10
-16.87740220389697
 20
85.63039765654378
 10
-15.1841549983741
 20
85.36583154875402
 10
-11.05686170513509
 20
87.4294609698961
 10
-10.73937893069189
 20
89.06980873424295
 10
-10.42189615624869
 20
90.71015649858981
 10
-9.553594290146323
 20
91.50499170346923
 10
-13.83708821268656
 20
90.44557316532263
 10
-15.51038831534983
 20
90.031731070157
 10
-18.57064940941984
 20
85.89496376433354
 10
-16.87740220389697
 20
85.63039765654378
 97
        0
 75
     2
 76
     1
 98
        0
  0
SPLINE
  5
86
330
3C
100
AcDbEntity
  8
Capa 1
370
     0
100
AcDbSpline
210
0.0
220
0.0
230
1.0
 70
    11
 71
     3
 72
    32
 73
    28
 74
     0
 42
0.0000000001
 43
0.0000000001
 40
0.0
 40
0.0
 40
0.0
 40
0.0
 40
1.0
 40
1.0
 40
1.0
 40
2.0
 40
2.0
 40
2.0
 40
3.0
 40
3.0
 40
3.0
 40
4.0
 40
4.0
 40
4.0
 40
5.0
 40
5.0
 40
5.0
 40
6.0
 40
6.0
 40
6.0
 40
7.0
 40
7.0
 40
7.0
 40
8.0
 40
8.0
 40
8.0
 40
9.0
 40
9.0
 40
9.0
 40
9.0
 10
-16.54674193922269
 20
90.49848983197606
 30
0.0
 10
-15.31655001787225
 20
91.8213375964023
 30
0.0
 10
-17.2478016449936
 20
94.41413368407875
 30
0.0
 10
-17.37235907226281
 20
95.73698144850498
 30
0.0
 10
-17.49691649953202
 20
97.05982921293122
 30
0.0
 10
-18.41189940945952
 20
96.95399587962434
 30
0.0
 10
-19.57601439940287
 20
97.05982921293122
 30
0.0
 10
-20.74012938934622
 20
97.1656625462381
 30
0.0
 10
-20.52846272273247
 20
95.57823144854467
 30
0.0
 10
-20.52846272273247
 20
94.4670503507322
 30
0.0
 10
-20.52846272273247
 20
93.3558692529197
 30
0.0
 10
-21.2163449382723
 20
94.04373424298211
 30
0.0
 10
-23.65039102598844
 20
93.99081757632868
 30
0.0
 10
-26.08443711370458
 20
93.93790090967524
 30
0.0
 10
-23.86205769260219
 20
92.40340370411269
 30
0.0
 10
-22.69794270265885
 20
91.1863720475159
 30
0.0
 10
-21.5338277127155
 20
89.96934039091911
 30
0.0
 10
-23.60586316684159
 20
88.25605995514952
 30
0.0
 10
-23.65039102598844
 20
87.58822819533384
 30
0.0
 10
-23.70330769264188
 20
86.79452987196456
 30
0.0
 10
-23.22707491823837
 20
87.37656152872009
 30
0.0
 10
-22.22170992825534
 20
87.27072819541321
 30
0.0
 10
-21.2163449382723
 20
87.16489486210634
 30
0.0
 10
-20.5813793893859
 20
88.01152707760649
 30
0.0
 10
-18.67648274272671
 20
88.26682587854093
 30
0.0
 10
-16.77158609606752
 20
88.52212467947537
 30
0.0
 10
-17.77693386057313
 20
89.17564206754983
 30
0.0
 10
-16.54674193922269
 20
90.49848983197606
 30
0.0
  0
HATCH
  5
87
330
3C
100
AcDbEntity
  8
Capa 1
 62
    17
420
  7027250
100
AcDbHatch
 10
0.0
 20
0.0
 30
0.0
210
0.0
220
0.0
230
1.0
  2
SOLID
 70
     1
 71
     0
 91
        1
 92
        1
 93
        1
 72
     4
 94
        3
 73
     0
 74
     1
 95
       32
 96
       28
 40
0.0
 40
0.0
 40
0.0
 40
0.0
 40
1.0
 40
1.0
 40
1.0
 40
2.0
 40
2.0
 40
2.0
 40
3.0
 40
3.0
 40
3.0
 40
4.0
 40
4.0
 40
4.0
 40
5.0
 40
5.0
 40
5.0
 40
6.0
 40
6.0
 40
6.0
 40
7.0
 40
7.0
 40
7.0
 40
8.0
 40
8.0
 40
8.0
 40
9.0
 40
9.0
 40
9.0
 40
9.0
 10
-16.54674193922269
 20
90.49848983197606
 10
-15.31655001787225
 20
91.8213375964023
 10
-17.2478016449936
 20
94.41413368407875
 10
-17.37235907226281
 20
95.73698144850498
 10
-17.49691649953202
 20
97.05982921293122
 10
-18.41189940945952
 20
96.95399587962434
 10
-19.57601439940287
 20
97.05982921293122
 10
-20.74012938934622
 20
97.1656625462381
 10
-20.52846272273247
 20
95.57823144854467
 10
-20.52846272273247
 20
94.4670503507322
 10
-20.52846272273247
 20
93.3558692529197
 10
-21.2163449382723
 20
94.04373424298211
 10
-23.65039102598844
 20
93.99081757632868
 10
-26.08443711370458
 20
93.93790090967524
 10
-23.86205769260219
 20
92.40340370411269
 10
-22.69794270265885
 20
91.1863720475159
 10
-21.5338277127155
 20
89.96934039091911
 10
-23.60586316684159
 20
88.25605995514952
 10
-23.65039102598844
 20
87.58822819533384
 10
-23.70330769264188
 20
86.79452987196456
 10
-23.22707491823837
 20
87.37656152872009
 10
-22.22170992825534
 20
87.27072819541321
 10
-21.2163449382723
 20
87.16489486210634
 10
-20.5813793893859
 20
88.01152707760649
 10
-18.67648274272671
 20
88.26682587854093
 10
-16.77158609606752
 20
88.52212467947537
 10
-17.77693386057313
 20
89.17564206754983
 10
-16.54674193922269
 20
90.49848983197606
 97
        0
 75
     2
 76
     1
 98
        0
  0
SPLINE
  5
88
330
3C
100
AcDbEntity
  8
Capa 1
370
     0
100
AcDbSpline
210
0.0
220
0.0
230
1.0
 70
    11
 71
     3
 72
    20
 73
    16
 74
     0
 42
0.0000000001
 43
0.0000000001
 40
0.0
 40
0.0
 40
0.0
 40
0.0
 40
1.0
 40
1.0
 40
1.0
 40
2.0
 40
2.0
 40
2.0
 40
3.0
 40
3.0
 40
3.0
 40
4.0
 40
4.0
 40
4.0
 40
5.0
 40
5.0
 40
5.0
 40
5.0
 10
36.67159450038071
 20
90.3926564986692
 30
0.0
 10
34.13173230483512
 20
92.29757037080581
 30
0.0
 10
30.74520344283453
 20
94.16501882954033
 30
0.0
 10
26.088777934016
 20
93.60169404126971
 30
0.0
 10
21.43235242519746
 20
93.03836925299908
 30
0.0
 10
18.46915689642438
 20
94.04373424298211
 30
0.0
 10
17.25214246530502
 20
94.36121701742532
 30
0.0
 10
16.03512803418566
 20
94.67869979186851
 30
0.0
 10
15.34724581864583
 20
89.8635415085671
 30
0.0
 10
17.46380913191877
 20
88.91107595976007
 30
0.0
 10
19.58037244519171
 20
87.95861041095304
 30
0.0
 10
32.89115342059665
 20
87.95861041095304
 30
0.0
 10
32.89115342059665
 20
87.95861041095304
 30
0.0
 10
32.91468342276091
 20
87.90571096977703
 30
0.0
 10
39.2114566959263
 20
88.48774262653257
 30
0.0
 10
36.67159450038071
 20
90.3926564986692
 30
0.0
  0
SPLINE
  5
89
330
3C
100
AcDbEntity
  8
Capa 1
370
     0
100
AcDbSpline
210
0.0
220
0.0
230
1.0
 70
    11
 71
     3
 72
    17
 73
    13
 74
     0
 42
0.0000000001
 43
0.0000000001
 40
0.0
 40
0.0
 40
0.0
 40
0.0
 40
1.0
 40
1.0
 40
1.0
 40
2.0
 40
2.0
 40
2.0
 40
3.0
 40
3.0
 40
3.0
 40
4.0
 40
4.0
 40
4.0
 40
4.0
 10
19.81846299417733
 20
91.46642385951186
 30
0.0
 10
18.92714789023349
 20
91.46642385951186
 30
0.0
 10
18.20457356315719
 20
91.83015704084454
 30
0.0
 10
18.20457356315719
 20
92.27884627684348
 30
0.0
 10
18.20457356315719
 20
92.72755273831984
 30
0.0
 10
18.92714789023349
 20
93.09128591965252
 30
0.0
 10
19.81846299417733
 20
93.09128591965252
 30
0.0
 10
20.70977809812117
 20
93.09128591965252
 30
0.0
 10
21.43235242519746
 20
92.72755273831984
 30
0.0
 10
21.43235242519746
 20
92.27884627684348
 30
0.0
 10
21.43235242519746
 20
91.83015704084454
 30
0.0
 10
20.70977809812117
 20
91.46642385951186
 30
0.0
 10
19.81846299417733
 20
91.46642385951186
 30
0.0
  0
SPLINE
  5
8A
330
3C
100
AcDbEntity
  8
Capa 1
370
     0
100
AcDbSpline
210
0.0
220
0.0
230
1.0
 70
    11
 71
     3
 72
    17
 73
    13
 74
     0
 42
0.0000000001
 43
0.0000000001
 40
0.0
 40
0.0
 40
0.0
 40
0.0
 40
1.0
 40
1.0
 40
1.0
 40
2.0
 40
2.0
 40
2.0
 40
3.0
 40
3.0
 40
3.0
 40
4.0
 40
4.0
 40
4.0
 40
4.0
 10
23.09915852287104
 20
90.65723983193638
 30
0.0
 10
22.50005641798609
 20
90.65723983193638
 30
0.0
 10
22.01440130743043
 20
90.87641680670798
 30
0.0
 10
22.01440130743043
 20
91.14677067491296
 30
0.0
 10
22.01440130743043
 20
91.41712454311794
 30
0.0
 10
22.50005641798609
 20
91.63630151788954
 30
0.0
 10
23.09915852287104
 20
91.63630151788954
 30
0.0
 10
23.69822617680114
 20
91.63630151788954
 30
0.0
 10
24.1838812873568
 20
91.41712454311794
 30
0.0
 10
24.1838812873568
 20
91.14677067491296
 30
0.0
 10
24.1838812873568
 20
90.87641680670798
 30
0.0
 10
23.69822617680114
 20
90.65723983193638
 30
0.0
 10
23.09915852287104
 20
90.65723983193638
 30
0.0
  0
SPLINE
  5
8B
330
3C
100
AcDbEntity
  8
Capa 1
370
     0
100
AcDbSpline
210
0.0
220
0.0
230
1.0
 70
    11
 71
     3
 72
    17
 73
    13
 74
     0
 42
0.0000000001
 43
0.0000000001
 40
0.0
 40
0.0
 40
0.0
 40
0.0
 40
1.0
 40
1.0
 40
1.0
 40
2.0
 40
2.0
 40
2.0
 40
3.0
 40
3.0
 40
3.0
 40
4.0
 40
4.0
 40
4.0
 40
4.0
 10
27.25291014943677
 20
89.81060761643623
 30
0.0
 10
25.87938503042251
 20
89.81060761643623
 30
0.0
 10
24.76593016958977
 20
90.36314925583802
 30
0.0
 10
24.76593016958977
 20
91.04472694663986
 30
0.0
 10
24.76593016958977
 20
91.72632186291911
 30
0.0
 10
25.87938503042251
 20
92.27884627684348
 30
0.0
 10
27.25291014943677
 20
92.27884627684348
 30
0.0
 10
28.62640081749618
 20
92.27884627684348
 30
0.0
 10
29.73985567832892
 20
91.72632186291911
 30
0.0
 10
29.73985567832892
 20
91.04472694663986
 30
0.0
 10
29.73985567832892
 20
90.36314925583802
 30
0.0
 10
28.62640081749618
 20
89.81060761643623
 30
0.0
 10
27.25291014943677
 20
89.81060761643623
 30
0.0
  0
SPLINE
  5
8C
330
3C
100
AcDbEntity
  8
Capa 1
370
     0
100
AcDbSpline
210
0.0
220
0.0
230
1.0
 70
    11
 71
     3
 72
    17
 73
    13
 74
     0
 42
0.0000000001
 43
0.0000000001
 40
0.0
 40
0.0
 40
0.0
 40
0.0
 40
1.0
 40
1.0
 40
1.0
 40
2.0
 40
2.0
 40
2.0
 40
3.0
 40
3.0
 40
3.0
 40
4.0
 40
4.0
 40
4.0
 40
4.0
 10
31.90358234879493
 20
89.81060761643623
 30
0.0
 10
30.86443819757903
 20
89.81060761643623
 30
0.0
 10
30.02207790048059
 20
90.326252283191
 30
0.0
 10
30.02207790048059
 20
90.96233748811011
 30
0.0
 10
30.02207790048059
 20
91.59843991850663
 30
0.0
 10
30.86443819757903
 20
92.11408458526141
 30
0.0
 10
31.90358234879493
 20
92.11408458526141
 30
0.0
 10
32.94269204905599
 20
92.11408458526141
 30
0.0
 10
33.78505234615443
 20
91.59843991850663
 30
0.0
 10
33.78505234615443
 20
90.96233748811011
 30
0.0
 10
33.78505234615443
 20
90.326252283191
 30
0.0
 10
32.94269204905599
 20
89.81060761643623
 30
0.0
 10
31.90358234879493
 20
89.81060761643623
 30
0.0
  0
SPLINE
  5
8D
330
3C
100
AcDbEntity
  8
Capa 1
370
     0
100
AcDbSpline
210
0.0
220
0.0
230
1.0
 70
    11
 71
     3
 72
    17
 73
    13
 74
     0
 42
0.0000000001
 43
0.0000000001
 40
0.0
 40
0.0
 40
0.0
 40
0.0
 40
1.0
 40
1.0
 40
1.0
 40
2.0
 40
2.0
 40
2.0
 40
3.0
 40
3.0
 40
3.0
 40
4.0
 40
4.0
 40
4.0
 40
4.0
 10
35.08412895173244
 20
89.28178545945038
 30
0.0
 10
34.38615260642082
 20
89.28178545945038
 30
0.0
 10
33.82033012392338
 20
89.58969086844458
 30
0.0
 10
33.82033012392338
 20
89.96951264569338
 30
0.0
 10
33.82033012392338
 20
90.34933442294218
 30
0.0
 10
34.38615260642082
 20
90.65723983193638
 30
0.0
 10
35.08412895173244
 20
90.65723983193638
 30
0.0
 10
35.78210529704405
 20
90.65723983193638
 30
0.0
 10
36.34792777954149
 20
90.34933442294218
 30
0.0
 10
36.34792777954149
 20
89.96951264569338
 30
0.0
 10
36.34792777954149
 20
89.58969086844458
 30
0.0
 10
35.78210529704405
 20
89.28178545945038
 30
0.0
 10
35.08412895173244
 20
89.28178545945038
 30
0.0
  0
HATCH
  5
8E
330
3C
100
AcDbEntity
  8
Capa 1
 62
    29
420
  5845034
100
AcDbHatch
 10
0.0
 20
0.0
 30
0.0
210
0.0
220
0.0
230
1.0
  2
SOLID
 70
     1
 71
     0
 91
        6
 92
        1
 93
        1
 72
     4
 94
        3
 73
     0
 74
     1
 95
       20
 96
       16
 40
0.0
 40
0.0
 40
0.0
 40
0.0
 40
1.0
 40
1.0
 40
1.0
 40
2.0
 40
2.0
 40
2.0
 40
3.0
 40
3.0
 40
3.0
 40
4.0
 40
4.0
 40
4.0
 40
5.0
 40
5.0
 40
5.0
 40
5.0
 10
36.67159450038071
 20
90.3926564986692
 10
34.13173230483512
 20
92.29757037080581
 10
30.74520344283453
 20
94.16501882954033
 10
26.088777934016
 20
93.60169404126971
 10
21.43235242519746
 20
93.03836925299908
 10
18.46915689642438
 20
94.04373424298211
 10
17.25214246530502
 20
94.36121701742532
 10
16.03512803418566
 20
94.67869979186851
 10
15.34724581864583
 20
89.8635415085671
 10
17.46380913191877
 20
88.91107595976007
 10
19.58037244519171
 20
87.95861041095304
 10
32.89115342059665
 20
87.95861041095304
 10
32.89115342059665
 20
87.95861041095304
 10
32.91468342276091
 20
87.90571096977703
 10
39.2114566959263
 20
88.48774262653257
 10
36.67159450038071
 20
90.3926564986692
 97
        0
 92
        1
 93
        1
 72
     4
 94
        3
 73
     0
 74
     1
 95
       17
 96
       13
 40
0.0
 40
0.0
 40
0.0
 40
0.0
 40
1.0
 40
1.0
 40
1.0
 40
2.0
 40
2.0
 40
2.0
 40
3.0
 40
3.0
 40
3.0
 40
4.0
 40
4.0
 40
4.0
 40
4.0
 10
19.81846299417733
 20
91.46642385951186
 10
18.92714789023349
 20
91.46642385951186
 10
18.20457356315719
 20
91.83015704084454
 10
18.20457356315719
 20
92.27884627684348
 10
18.20457356315719
 20
92.72755273831984
 10
18.92714789023349
 20
93.09128591965252
 10
19.81846299417733
 20
93.09128591965252
 10
20.70977809812117
 20
93.09128591965252
 10
21.43235242519746
 20
92.72755273831984
 10
21.43235242519746
 20
92.27884627684348
 10
21.43235242519746
 20
91.83015704084454
 10
20.70977809812117
 20
91.46642385951186
 10
19.81846299417733
 20
91.46642385951186
 97
        0
 92
        1
 93
        1
 72
     4
 94
        3
 73
     0
 74
     1
 95
       17
 96
       13
 40
0.0
 40
0.0
 40
0.0
 40
0.0
 40
1.0
 40
1.0
 40
1.0
 40
2.0
 40
2.0
 40
2.0
 40
3.0
 40
3.0
 40
3.0
 40
4.0
 40
4.0
 40
4.0
 40
4.0
 10
23.09915852287104
 20
90.65723983193638
 10
22.50005641798609
 20
90.65723983193638
 10
22.01440130743043
 20
90.87641680670798
 10
22.01440130743043
 20
91.14677067491296
 10
22.01440130743043
 20
91.41712454311794
 10
22.50005641798609
 20
91.63630151788954
 10
23.09915852287104
 20
91.63630151788954
 10
23.69822617680114
 20
91.63630151788954
 10
24.1838812873568
 20
91.41712454311794
 10
24.1838812873568
 20
91.14677067491296
 10
24.1838812873568
 20
90.87641680670798
 10
23.69822617680114
 20
90.65723983193638
 10
23.09915852287104
 20
90.65723983193638
 97
        0
 92
        1
 93
        1
 72
     4
 94
        3
 73
     0
 74
     1
 95
       17
 96
       13
 40
0.0
 40
0.0
 40
0.0
 40
0.0
 40
1.0
 40
1.0
 40
1.0
 40
2.0
 40
2.0
 40
2.0
 40
3.0
 40
3.0
 40
3.0
 40
4.0
 40
4.0
 40
4.0
 40
4.0
 10
27.25291014943677
 20
89.81060761643623
 10
25.87938503042251
 20
89.81060761643623
 10
24.76593016958977
 20
90.36314925583802
 10
24.76593016958977
 20
91.04472694663986
 10
24.76593016958977
 20
91.72632186291911
 10
25.87938503042251
 20
92.27884627684348
 10
27.25291014943677
 20
92.27884627684348
 10
28.62640081749618
 20
92.27884627684348
 10
29.73985567832892
 20
91.72632186291911
 10
29.73985567832892
 20
91.04472694663986
 10
29.73985567832892
 20
90.36314925583802
 10
28.62640081749618
 20
89.81060761643623
 10
27.25291014943677
 20
89.81060761643623
 97
        0
 92
        1
 93
        1
 72
     4
 94
        3
 73
     0
 74
     1
 95
       17
 96
       13
 40
0.0
 40
0.0
 40
0.0
 40
0.0
 40
1.0
 40
1.0
 40
1.0
 40
2.0
 40
2.0
 40
2.0
 40
3.0
 40
3.0
 40
3.0
 40
4.0
 40
4.0
 40
4.0
 40
4.0
 10
31.90358234879493
 20
89.81060761643623
 10
30.86443819757903
 20
89.81060761643623
 10
30.02207790048059
 20
90.326252283191
 10
30.02207790048059
 20
90.96233748811011
 10
30.02207790048059
 20
91.59843991850663
 10
30.86443819757903
 20
92.11408458526141
 10
31.90358234879493
 20
92.11408458526141
 10
32.94269204905599
 20
92.11408458526141
 10
33.78505234615443
 20
91.59843991850663
 10
33.78505234615443
 20
90.96233748811011
 10
33.78505234615443
 20
90.326252283191
 10
32.94269204905599
 20
89.81060761643623
 10
31.90358234879493
 20
89.81060761643623
 97
        0
 92
        1
 93
        1
 72
     4
 94
        3
 73
     0
 74
     1
 95
       17
 96
       13
 40
0.0
 40
0.0
 40
0.0
 40
0.0
 40
1.0
 40
1.0
 40
1.0
 40
2.0
 40
2.0
 40
2.0
 40
3.0
 40
3.0
 40
3.0
 40
4.0
 40
4.0
 40
4.0
 40
4.0
 10
35.08412895173244
 20
89.28178545945038
 10
34.38615260642082
 20
89.28178545945038
 10
33.82033012392338
 20
89.58969086844458
 10
33.82033012392338
 20
89.96951264569338
 10
33.82033012392338
 20
90.34933442294218
 10
34.38615260642082
 20
90.65723983193638
 10
35.08412895173244
 20
90.65723983193638
 10
35.78210529704405
 20
90.65723983193638
 10
36.34792777954149
 20
90.34933442294218
 10
36.34792777954149
 20
89.96951264569338
 10
36.34792777954149
 20
89.58969086844458
 10
35.78210529704405
 20
89.28178545945038
 10
35.08412895173244
 20
89.28178545945038
 97
        0
 75
     2
 76
     1
 98
        0
  0
SPLINE
  5
8F
330
3C
100
AcDbEntity
  8
Capa 1
370
     0
100
AcDbSpline
210
0.0
220
0.0
230
1.0
 70
    11
 71
     3
 72
    17
 73
    13
 74
     0
 42
0.0000000001
 43
0.0000000001
 40
0.0
 40
0.0
 40
0.0
 40
0.0
 40
1.0
 40
1.0
 40
1.0
 40
2.0
 40
2.0
 40
2.0
 40
3.0
 40
3.0
 40
3.0
 40
4.0
 40
4.0
 40
4.0
 40
4.0
 10
19.81846299417733
 20
93.09128591965252
 30
0.0
 10
18.92714789023349
 20
93.09128591965252
 30
0.0
 10
18.20457356315719
 20
92.72755273831984
 30
0.0
 10
18.20457356315719
 20
92.27884627684348
 30
0.0
 10
18.20457356315719
 20
91.83015704084454
 30
0.0
 10
18.92714789023349
 20
91.46642385951186
 30
0.0
 10
19.81846299417733
 20
91.46642385951186
 30
0.0
 10
20.70977809812117
 20
91.46642385951186
 30
0.0
 10
21.43235242519746
 20
91.83015704084454
 30
0.0
 10
21.43235242519746
 20
92.27884627684348
 30
0.0
 10
21.43235242519746
 20
92.72755273831984
 30
0.0
 10
20.70977809812117
 20
93.09128591965252
 30
0.0
 10
19.81846299417733
 20
93.09128591965252
 30
0.0
  0
HATCH
  5
90
330
3C
100
AcDbEntity
  8
Capa 1
 62
    19
420
  4204577
100
AcDbHatch
 10
0.0
 20
0.0
 30
0.0
210
0.0
220
0.0
230
1.0
  2
SOLID
 70
     1
 71
     0
 91
        1
 92
        1
 93
        1
 72
     4
 94
        3
 73
     0
 74
     1
 95
       17
 96
       13
 40
0.0
 40
0.0
 40
0.0
 40
0.0
 40
1.0
 40
1.0
 40
1.0
 40
2.0
 40
2.0
 40
2.0
 40
3.0
 40
3.0
 40
3.0
 40
4.0
 40
4.0
 40
4.0
 40
4.0
 10
19.81846299417733
 20
93.09128591965252
 10
18.92714789023349
 20
93.09128591965252
 10
18.20457356315719
 20
92.72755273831984
 10
18.20457356315719
 20
92.27884627684348
 10
18.20457356315719
 20
91.83015704084454
 10
18.92714789023349
 20
91.46642385951186
 10
19.81846299417733
 20
91.46642385951186
 10
20.70977809812117
 20
91.46642385951186
 10
21.43235242519746
 20
91.83015704084454
 10
21.43235242519746
 20
92.27884627684348
 10
21.43235242519746
 20
92.72755273831984
 10
20.70977809812117
 20
93.09128591965252
 10
19.81846299417733
 20
93.09128591965252
 97
        0
 75
     2
 76
     1
 98
        0
  0
SPLINE
  5
91
330
3C
100
AcDbEntity
  8
Capa 1
370
     0
100
AcDbSpline
210
0.0
220
0.0
230
1.0
 70
    11
 71
     3
 72
    17
 73
    13
 74
     0
 42
0.0000000001
 43
0.0000000001
 40
0.0
 40
0.0
 40
0.0
 40
0.0
 40
1.0
 40
1.0
 40
1.0
 40
2.0
 40
2.0
 40
2.0
 40
3.0
 40
3.0
 40
3.0
 40
4.0
 40
4.0
 40
4.0
 40
4.0
 10
23.09915852287104
 20
91.63630151788954
 30
0.0
 10
22.50005641798609
 20
91.63630151788954
 30
0.0
 10
22.01440130743043
 20
91.41712454311794
 30
0.0
 10
22.01440130743043
 20
91.14677067491296
 30
0.0
 10
22.01440130743043
 20
90.87641680670798
 30
0.0
 10
22.50005641798609
 20
90.65723983193638
 30
0.0
 10
23.09915852287104
 20
90.65723983193638
 30
0.0
 10
23.69822617680114
 20
90.65723983193638
 30
0.0
 10
24.1838812873568
 20
90.87641680670798
 30
0.0
 10
24.1838812873568
 20
91.14677067491296
 30
0.0
 10
24.1838812873568
 20
91.41712454311794
 30
0.0
 10
23.69822617680114
 20
91.63630151788954
 30
0.0
 10
23.09915852287104
 20
91.63630151788954
 30
0.0
  0
HATCH
  5
92
330
3C
100
AcDbEntity
  8
Capa 1
 62
    19
420
  4204577
100
AcDbHatch
 10
0.0
 20
0.0
 30
0.0
210
0.0
220
0.0
230
1.0
  2
SOLID
 70
     1
 71
     0
 91
        1
 92
        1
 93
        1
 72
     4
 94
        3
 73
     0
 74
     1
 95
       17
 96
       13
 40
0.0
 40
0.0
 40
0.0
 40
0.0
 40
1.0
 40
1.0
 40
1.0
 40
2.0
 40
2.0
 40
2.0
 40
3.0
 40
3.0
 40
3.0
 40
4.0
 40
4.0
 40
4.0
 40
4.0
 10
23.09915852287104
 20
91.63630151788954
 10
22.50005641798609
 20
91.63630151788954
 10
22.01440130743043
 20
91.41712454311794
 10
22.01440130743043
 20
91.14677067491296
 10
22.01440130743043
 20
90.87641680670798
 10
22.50005641798609
 20
90.65723983193638
 10
23.09915852287104
 20
90.65723983193638
 10
23.69822617680114
 20
90.65723983193638
 10
24.1838812873568
 20
90.87641680670798
 10
24.1838812873568
 20
91.14677067491296
 10
24.1838812873568
 20
91.41712454311794
 10
23.69822617680114
 20
91.63630151788954
 10
23.09915852287104
 20
91.63630151788954
 97
        0
 75
     2
 76
     1
 98
        0
  0
SPLINE
  5
93
330
3C
100
AcDbEntity
  8
Capa 1
370
     0
100
AcDbSpline
210
0.0
220
0.0
230
1.0
 70
    11
 71
     3
 72
    17
 73
    13
 74
     0
 42
0.0000000001
 43
0.0000000001
 40
0.0
 40
0.0
 40
0.0
 40
0.0
 40
1.0
 40
1.0
 40
1.0
 40
2.0
 40
2.0
 40
2.0
 40
3.0
 40
3.0
 40
3.0
 40
4.0
 40
4.0
 40
4.0
 40
4.0
 10
27.25291014943677
 20
92.27884627684348
 30
0.0
 10
25.87938503042251
 20
92.27884627684348
 30
0.0
 10
24.76593016958977
 20
91.72632186291911
 30
0.0
 10
24.76593016958977
 20
91.04472694663986
 30
0.0
 10
24.76593016958977
 20
90.36314925583802
 30
0.0
 10
25.87938503042251
 20
89.81060761643623
 30
0.0
 10
27.25291014943677
 20
89.81060761643623
 30
0.0
 10
28.62640081749618
 20
89.81060761643623
 30
0.0
 10
29.73985567832892
 20
90.36314925583802
 30
0.0
 10
29.73985567832892
 20
91.04472694663986
 30
0.0
 10
29.73985567832892
 20
91.72632186291911
 30
0.0
 10
28.62640081749618
 20
92.27884627684348
 30
0.0
 10
27.25291014943677
 20
92.27884627684348
 30
0.0
  0
HATCH
  5
94
330
3C
100
AcDbEntity
  8
Capa 1
 62
    19
420
  4204577
100
AcDbHatch
 10
0.0
 20
0.0
 30
0.0
210
0.0
220
0.0
230
1.0
  2
SOLID
 70
     1
 71
     0
 91
        1
 92
        1
 93
        1
 72
     4
 94
        3
 73
     0
 74
     1
 95
       17
 96
       13
 40
0.0
 40
0.0
 40
0.0
 40
0.0
 40
1.0
 40
1.0
 40
1.0
 40
2.0
 40
2.0
 40
2.0
 40
3.0
 40
3.0
 40
3.0
 40
4.0
 40
4.0
 40
4.0
 40
4.0
 10
27.25291014943677
 20
92.27884627684348
 10
25.87938503042251
 20
92.27884627684348
 10
24.76593016958977
 20
91.72632186291911
 10
24.76593016958977
 20
91.04472694663986
 10
24.76593016958977
 20
90.36314925583802
 10
25.87938503042251
 20
89.81060761643623
 10
27.25291014943677
 20
89.81060761643623
 10
28.62640081749618
 20
89.81060761643623
 10
29.73985567832892
 20
90.36314925583802
 10
29.73985567832892
 20
91.04472694663986
 10
29.73985567832892
 20
91.72632186291911
 10
28.62640081749618
 20
92.27884627684348
 10
27.25291014943677
 20
92.27884627684348
 97
        0
 75
     2
 76
     1
 98
        0
  0
SPLINE
  5
95
330
3C
100
AcDbEntity
  8
Capa 1
370
     0
100
AcDbSpline
210
0.0
220
0.0
230
1.0
 70
    11
 71
     3
 72
    17
 73
    13
 74
     0
 42
0.0000000001
 43
0.0000000001
 40
0.0
 40
0.0
 40
0.0
 40
0.0
 40
1.0
 40
1.0
 40
1.0
 40
2.0
 40
2.0
 40
2.0
 40
3.0
 40
3.0
 40
3.0
 40
4.0
 40
4.0
 40
4.0
 40
4.0
 10
31.90358234879493
 20
92.11408458526141
 30
0.0
 10
30.86443819757903
 20
92.11408458526141
 30
0.0
 10
30.02207790048059
 20
91.59843991850663
 30
0.0
 10
30.02207790048059
 20
90.96233748811011
 30
0.0
 10
30.02207790048059
 20
90.326252283191
 30
0.0
 10
30.86443819757903
 20
89.81060761643623
 30
0.0
 10
31.90358234879493
 20
89.81060761643623
 30
0.0
 10
32.94269204905599
 20
89.81060761643623
 30
0.0
 10
33.78505234615443
 20
90.326252283191
 30
0.0
 10
33.78505234615443
 20
90.96233748811011
 30
0.0
 10
33.78505234615443
 20
91.59843991850663
 30
0.0
 10
32.94269204905599
 20
92.11408458526141
 30
0.0
 10
31.90358234879493
 20
92.11408458526141
 30
0.0
  0
HATCH
  5
96
330
3C
100
AcDbEntity
  8
Capa 1
 62
    19
420
  4204577
100
AcDbHatch
 10
0.0
 20
0.0
 30
0.0
210
0.0
220
0.0
230
1.0
  2
SOLID
 70
     1
 71
     0
 91
        1
 92
        1
 93
        1
 72
     4
 94
        3
 73
     0
 74
     1
 95
       17
 96
       13
 40
0.0
 40
0.0
 40
0.0
 40
0.0
 40
1.0
 40
1.0
 40
1.0
 40
2.0
 40
2.0
 40
2.0
 40
3.0
 40
3.0
 40
3.0
 40
4.0
 40
4.0
 40
4.0
 40
4.0
 10
31.90358234879493
 20
92.11408458526141
 10
30.86443819757903
 20
92.11408458526141
 10
30.02207790048059
 20
91.59843991850663
 10
30.02207790048059
 20
90.96233748811011
 10
30.02207790048059
 20
90.326252283191
 10
30.86443819757903
 20
89.81060761643623
 10
31.90358234879493
 20
89.81060761643623
 10
32.94269204905599
 20
89.81060761643623
 10
33.78505234615443
 20
90.326252283191
 10
33.78505234615443
 20
90.96233748811011
 10
33.78505234615443
 20
91.59843991850663
 10
32.94269204905599
 20
92.11408458526141
 10
31.90358234879493
 20
92.11408458526141
 97
        0
 75
     2
 76
     1
 98
        0
  0
SPLINE
  5
97
330
3C
100
AcDbEntity
  8
Capa 1
370
     0
100
AcDbSpline
210
0.0
220
0.0
230
1.0
 70
    11
 71
     3
 72
    17
 73
    13
 74
     0
 42
0.0000000001
 43
0.0000000001
 40
0.0
 40
0.0
 40
0.0
 40
0.0
 40
1.0
 40
1.0
 40
1.0
 40
2.0
 40
2.0
 40
2.0
 40
3.0
 40
3.0
 40
3.0
 40
4.0
 40
4.0
 40
4.0
 40
4.0
 10
35.08412895173244
 20
90.65723983193638
 30
0.0
 10
34.38615260642082
 20
90.65723983193638
 30
0.0
 10
33.82033012392338
 20
90.34933442294218
 30
0.0
 10
33.82033012392338
 20
89.96951264569338
 30
0.0
 10
33.82033012392338
 20
89.58969086844458
 30
0.0
 10
34.38615260642082
 20
89.28178545945038
 30
0.0
 10
35.08412895173244
 20
89.28178545945038
 30
0.0
 10
35.78210529704405
 20
89.28178545945038
 30
0.0
 10
36.34792777954149
 20
89.58969086844458
 30
0.0
 10
36.34792777954149
 20
89.96951264569338
 30
0.0
 10
36.34792777954149
 20
90.34933442294218
 30
0.0
 10
35.78210529704405
 20
90.65723983193638
 30
0.0
 10
35.08412895173244
 20
90.65723983193638
 30
0.0
  0
HATCH
  5
98
330
3C
100
AcDbEntity
  8
Capa 1
 62
    19
420
  4204577
100
AcDbHatch
 10
0.0
 20
0.0
 30
0.0
210
0.0
220
0.0
230
1.0
  2
SOLID
 70
     1
 71
     0
 91
        1
 92
        1
 93
        1
 72
     4
 94
        3
 73
     0
 74
     1
 95
       17
 96
       13
 40
0.0
 40
0.0
 40
0.0
 40
0.0
 40
1.0
 40
1.0
 40
1.0
 40
2.0
 40
2.0
 40
2.0
 40
3.0
 40
3.0
 40
3.0
 40
4.0
 40
4.0
 40
4.0
 40
4.0
 10
35.08412895173244
 20
90.65723983193638
 10
34.38615260642082
 20
90.65723983193638
 10
33.82033012392338
 20
90.34933442294218
 10
33.82033012392338
 20
89.96951264569338
 10
33.82033012392338
 20
89.58969086844458
 10
34.38615260642082
 20
89.28178545945038
 10
35.08412895173244
 20
89.28178545945038
 10
35.78210529704405
 20
89.28178545945038
 10
36.34792777954149
 20
89.58969086844458
 10
36.34792777954149
 20
89.96951264569338
 10
36.34792777954149
 20
90.34933442294218
 10
35.78210529704405
 20
90.65723983193638
 10
35.08412895173244
 20
90.65723983193638
 97
        0
 75
     2
 76
     1
 98
        0
  0
POLYLINE
  5
99
330
3C
100
AcDbEntity
  8
Capa 1
370
     0
100
AcDb2dPolyline
 66
     1
 10
0.0
 20
0.0
 30
0.0
  0
VERTEX
  5
9A
330
99
100
AcDbEntity
  8
Capa 1
370
     0
100
AcDbVertex
100
AcDb2dVertex
 10
21.9196267306312
 20
33.54916665827938
 30
0.0
  0
VERTEX
  5
9B
330
99
100
AcDbEntity
  8
Capa 1
370
     0
100
AcDbVertex
100
AcDb2dVertex
 10
55.49683646616051
 20
33.54916665827938
 30
0.0
  0
VERTEX
  5
9C
330
99
100
AcDbEntity
  8
Capa 1
370
     0
100
AcDbVertex
100
AcDb2dVertex
 10
55.49683646616051
 20
48.62362981640312
 30
0.0
  0
VERTEX
  5
9D
330
99
100
AcDbEntity
  8
Capa 1
370
     0
100
AcDbVertex
100
AcDb2dVertex
 10
21.9196267306312
 20
48.62362981640312
 30
0.0
  0
VERTEX
  5
9E
330
99
100
AcDbEntity
  8
Capa 1
370
     0
100
AcDbVertex
100
AcDb2dVertex
 10
21.9196267306312
 20
33.54916665827938
 30
0.0
  0
SEQEND
  5
9F
330
99
100
AcDbEntity
  8
Capa 1
370
     0
  0
SPLINE
  5
A0
330
3C
100
AcDbEntity
  8
Capa 1
370
     0
100
AcDbSpline
210
0.0
220
0.0
230
1.0
 70
    11
 71
     3
 72
    35
 73
    31
 74
     0
 42
0.0000000001
 43
0.0000000001
 40
0.0
 40
0.0
 40
0.0
 40
0.0
 40
1.0
 40
1.0
 40
1.0
 40
2.0
 40
2.0
 40
2.0
 40
3.0
 40
3.0
 40
3.0
 40
4.0
 40
4.0
 40
4.0
 40
5.0
 40
5.0
 40
5.0
 40
6.0
 40
6.0
 40
6.0
 40
7.0
 40
7.0
 40
7.0
 40
8.0
 40
8.0
 40
8.0
 40
9.0
 40
9.0
 40
9.0
 40
10.0
 40
10.0
 40
10.0
 40
10.0
 10
52.74713350460835
 20
45.06243461330036
 30
0.0
 10
53.02935572676002
 20
45.60924016871922
 30
0.0
 10
52.97233939647914
 20
45.83854572421745
 30
0.0
 10
52.97233939647914
 20
45.83854572421745
 30
0.0
 10
52.97233939647914
 20
45.83854572421745
 30
0.0
 10
54.4051890597494
 20
46.4735457240587
 30
0.0
 10
54.4051890597494
 20
46.4735457240587
 30
0.0
 10
54.4051890597494
 20
46.4735457240587
 30
0.0
 10
54.79324461520793
 20
46.4735457240587
 30
0.0
 10
54.79324461520793
 20
46.4735457240587
 30
0.0
 10
54.79324461520793
 20
46.4735457240587
 30
0.0
 10
54.98727239293721
 20
47.77882350151015
 30
0.0
 10
55.34005017062679
 20
47.37312905716713
 30
0.0
 10
55.69282794831637
 20
46.96743461282411
 30
0.0
 10
55.34005017062679
 20
46.49118461294317
 30
0.0
 10
55.34005017062679
 20
46.49118461294317
 30
0.0
 10
55.34005017062679
 20
46.49118461294317
 30
0.0
 10
55.62227239277846
 20
45.76799016867952
 30
0.0
 10
55.12838350401304
 20
45.55632350206578
 30
0.0
 10
54.63449461524763
 20
45.34465683545203
 30
0.0
 10
53.50560572664096
 20
44.92132350222452
 30
0.0
 10
53.50560572664096
 20
44.92132350222452
 30
0.0
 10
53.50560572664096
 20
44.92132350222452
 30
0.0
 10
53.20574461560481
 20
44.42743461345911
 30
0.0
 10
53.20574461560481
 20
44.42743461345911
 30
0.0
 10
53.20574461560481
 20
44.42743461345911
 30
0.0
 10
52.50018906022564
 20
44.42743461345911
 30
0.0
 10
52.50018906022564
 20
44.42743461345911
 30
0.0
 10
52.50018906022564
 20
44.42743461345911
 30
0.0
 10
52.46491128245668
 20
44.5156290578815
 30
0.0
 10
52.74713350460835
 20
45.06243461330036
 30
0.0
  0
SPLINE
  5
A1
330
3C
100
AcDbEntity
  8
Capa 1
370
     0
100
AcDbSpline
210
0.0
220
0.0
230
1.0
 70
    11
 71
     3
 72
    38
 73
    34
 74
     0
 42
0.0000000001
 43
0.0000000001
 40
0.0
 40
0.0
 40
0.0
 40
0.0
 40
1.0
 40
1.0
 40
1.0
 40
2.0
 40
2.0
 40
2.0
 40
3.0
 40
3.0
 40
3.0
 40
4.0
 40
4.0
 40
4.0
 40
5.0
 40
5.0
 40
5.0
 40
6.0
 40
6.0
 40
6.0
 40
7.0
 40
7.0
 40
7.0
 40
8.0
 40
8.0
 40
8.0
 40
9.0
 40
9.0
 40
9.0
 40
10.0
 40
10.0
 40
10.0
 40
11.0
 40
11.0
 40
11.0
 40
11.0
 10
48.24921683906616
 20
38.58896239269651
 30
0.0
 10
48.95477239444533
 20
37.88340683731734
 30
0.0
 10
50.17185572747439
 20
39.32979572584463
 30
0.0
 10
50.17185572747439
 20
39.32979572584463
 30
0.0
 10
50.17185572747439
 20
39.32979572584463
 30
0.0
 10
50.31296683855022
 20
40.19410128118411
 30
0.0
 10
50.31296683855022
 20
40.19410128118411
 30
0.0
 10
50.70102239400877
 20
40.28229572560651
 30
0.0
 10
50.45879773044085
 20
40.88773680618431
 30
0.0
 10
50.61079534325008
 20
41.05840683652359
 30
0.0
 10
50.92615938396985
 20
41.41256265240727
 30
0.0
 10
51.38893906050345
 20
42.46951794728192
 30
0.0
 10
51.37130017161898
 20
43.12215683600765
 30
0.0
 10
51.3536612827345
 20
43.77479572473338
 30
0.0
 10
52.57074461576356
 20
43.77479572473338
 30
0.0
 10
52.8706057267997
 20
43.4220179470438
 30
0.0
 10
53.17046683783585
 20
43.06924016935422
 30
0.0
 10
52.7118557268394
 20
41.34062905867525
 30
0.0
 10
52.7118557268394
 20
41.34062905867525
 30
0.0
 10
52.7118557268394
 20
41.34062905867525
 30
0.0
 10
52.28852239361189
 20
39.50618461468942
 30
0.0
 10
52.28852239361189
 20
39.50618461468942
 30
0.0
 10
52.28852239361189
 20
39.50618461468942
 30
0.0
 10
50.40116128297262
 20
38.83683701286023
 30
0.0
 10
50.40116128297262
 20
38.83683701286023
 30
0.0
 10
50.40116128297262
 20
38.83683701286023
 30
0.0
 10
49.37810572767283
 20
37.93632350397078
 30
0.0
 10
49.37810572767283
 20
37.93632350397078
 30
0.0
 10
49.37810572767283
 20
37.93632350397078
 30
0.0
 10
48.24921683906616
 20
38.09497015106653
 30
0.0
 10
48.24921683906616
 20
38.09497015106653
 30
0.0
 10
48.24921683906616
 20
38.09497015106653
 30
0.0
 10
48.24921683906616
 20
38.58896239269651
 30
0.0
 10
48.24921683906616
 20
38.58896239269651
 30
0.0
  0
SPLINE
  5
A2
330
3C
100
AcDbEntity
  8
Capa 1
370
     0
100
AcDbSpline
210
0.0
220
0.0
230
1.0
 70
    11
 71
     3
 72
    26
 73
    22
 74
     0
 42
0.0000000001
 43
0.0000000001
 40
0.0
 40
0.0
 40
0.0
 40
0.0
 40
1.0
 40
1.0
 40
1.0
 40
2.0
 40
2.0
 40
2.0
 40
3.0
 40
3.0
 40
3.0
 40
4.0
 40
4.0
 40
4.0
 40
5.0
 40
5.0
 40
5.0
 40
6.0
 40
6.0
 40
6.0
 40
7.0
 40
7.0
 40
7.0
 40
7.0
 10
39.39449461905762
 20
37.9186846150863
 30
0.0
 10
40.11768906332127
 20
38.41257350385172
 30
0.0
 10
39.87074461893856
 20
38.50076794827411
 30
0.0
 10
39.87074461893856
 20
38.50076794827411
 30
0.0
 10
39.87074461893856
 20
38.50076794827411
 30
0.0
 10
39.97657795224544
 20
39.48854572580495
 30
0.0
 10
40.48810572989533
 20
39.02993461480848
 30
0.0
 10
40.99963350754523
 20
38.57132350381202
 30
0.0
 10
41.89921684065366
 20
38.83683701286023
 30
0.0
 10
41.89921684065366
 20
38.83683701286023
 30
0.0
 10
41.89921684065366
 20
38.83683701286023
 30
0.0
 10
41.89921684065366
 20
38.64187905934995
 30
0.0
 10
42.00505017396054
 20
38.09497015106653
 30
0.0
 10
42.11088350726742
 20
37.54806124278312
 30
0.0
 10
42.60477239603283
 20
36.5604901709814
 30
0.0
 10
41.79338350734679
 20
36.01874890592587
 30
0.0
 10
40.98199461866075
 20
35.47700764087033
 30
0.0
 10
40.17060572997471
 20
35.81965683783328
 30
0.0
 10
39.64209363158253
 20
36.01874890592587
 30
0.0
 10
39.11358153319035
 20
36.21784097401845
 30
0.0
 10
38.67130017479398
 20
37.42479572632088
 30
0.0
 10
39.39449461905762
 20
37.9186846150863
 30
0.0
  0
SPLINE
  5
A3
330
3C
100
AcDbEntity
  8
Capa 1
370
     0
100
AcDbSpline
210
0.0
220
0.0
230
1.0
 70
    11
 71
     3
 72
    29
 73
    25
 74
     0
 42
0.0000000001
 43
0.0000000001
 40
0.0
 40
0.0
 40
0.0
 40
0.0
 40
1.0
 40
1.0
 40
1.0
 40
2.0
 40
2.0
 40
2.0
 40
3.0
 40
3.0
 40
3.0
 40
4.0
 40
4.0
 40
4.0
 40
5.0
 40
5.0
 40
5.0
 40
6.0
 40
6.0
 40
6.0
 40
7.0
 40
7.0
 40
7.0
 40
8.0
 40
8.0
 40
8.0
 40
8.0
 10
32.03907795422981
 20
40.91729572544776
 30
0.0
 10
32.03907795422981
 20
40.91729572544776
 30
0.0
 10
33.71477239825533
 20
40.89965683656327
 30
0.0
 10
34.36193358515951
 20
40.98785128098567
 30
0.0
 10
35.0090947720637
 20
41.07604572540807
 30
0.0
 10
35.99018906435315
 20
42.22257350289922
 30
0.0
 10
35.99018906435315
 20
42.22257350289922
 30
0.0
 10
35.99018906435315
 20
42.22257350289922
 30
0.0
 10
37.8069946194545
 20
42.29312905843713
 30
0.0
 10
37.01324461965294
 20
41.85215683632515
 30
0.0
 10
36.21949461985137
 20
41.41118461421317
 30
0.0
 10
35.63741128666356
 20
40.89965683656327
 30
0.0
 10
35.23171684232054
 20
39.82368461461004
 30
0.0
 10
34.82602239797752
 20
38.74771239265682
 30
0.0
 10
34.6672723980172
 20
38.43021239273619
 30
0.0
 10
33.5736612871795
 20
37.81285128177942
 30
0.0
 10
32.48005017634179
 20
37.19549017082265
 30
0.0
 10
32.42713350968835
 20
38.35965683719828
 30
0.0
 10
32.26838350972804
 20
39.08285128146192
 30
0.0
 10
32.10963350976773
 20
39.80604572572557
 30
0.0
 10
31.50991128769544
 20
40.63507350329609
 30
0.0
 10
31.50991128769544
 20
40.63507350329609
 30
0.0
 10
31.50991128769544
 20
40.63507350329609
 30
0.0
 10
31.86268906538502
 20
40.84674016990984
 30
0.0
 10
32.03907795422981
 20
40.91729572544776
 30
0.0
  0
SPLINE
  5
A4
330
3C
100
AcDbEntity
  8
Capa 1
370
     0
100
AcDbSpline
210
0.0
220
0.0
230
1.0
 70
    11
 71
     3
 72
    14
 73
    10
 74
     0
 42
0.0000000001
 43
0.0000000001
 40
0.0
 40
0.0
 40
0.0
 40
0.0
 40
1.0
 40
1.0
 40
1.0
 40
2.0
 40
2.0
 40
2.0
 40
3.0
 40
3.0
 40
3.0
 40
3.0
 10
29.32268906602002
 20
39.5238235035739
 30
0.0
 10
30.22227239912846
 20
39.20632350365328
 30
0.0
 10
30.71616128789388
 20
38.62424017046546
 30
0.0
 10
30.15171684359054
 20
38.35965683719828
 30
0.0
 10
29.58727239928721
 20
38.09507350393109
 30
0.0
 10
28.70532795506325
 20
37.81285128177942
 30
0.0
 10
28.65241128840981
 20
38.6771568371189
 30
0.0
 10
28.65241128840981
 20
38.6771568371189
 30
0.0
 10
28.42310573291158
 20
39.84132350349453
 30
0.0
 10
29.32268906602002
 20
39.5238235035739
 30
0.0
  0
SPLINE
  5
A5
330
3C
100
AcDbEntity
  8
Capa 1
370
     0
100
AcDbSpline
210
0.0
220
0.0
230
1.0
 70
    11
 71
     3
 72
    23
 73
    19
 74
     0
 42
0.0000000001
 43
0.0000000001
 40
0.0
 40
0.0
 40
0.0
 40
0.0
 40
1.0
 40
1.0
 40
1.0
 40
2.0
 40
2.0
 40
2.0
 40
3.0
 40
3.0
 40
3.0
 40
4.0
 40
4.0
 40
4.0
 40
5.0
 40
5.0
 40
5.0
 40
6.0
 40
6.0
 40
6.0
 40
6.0
 10
24.81247340959549
 20
44.6038235023039
 30
0.0
 10
25.45277885648403
 20
45.04479572441588
 30
0.0
 10
25.26574462258981
 20
44.6038235023039
 30
0.0
 10
25.84782795577762
 20
44.6038235023039
 30
0.0
 10
26.42991128896544
 20
44.6038235023039
 30
0.0
 10
26.13005017792929
 20
43.68660128031099
 30
0.0
 10
26.13005017792929
 20
43.68660128031099
 30
0.0
 10
26.13005017792929
 20
43.68660128031099
 30
0.0
 10
25.86546684466211
 20
43.7571568358489
 30
0.0
 10
25.81255017800867
 20
42.89285128050943
 30
0.0
 10
25.75963351135523
 20
42.02854572516994
 30
0.0
 10
25.1951890670519
 20
41.16424016983046
 30
0.0
 10
25.12463351151398
 20
41.62285128082692
 30
0.0
 10
25.05407795597606
 20
42.08146239182338
 30
0.0
 10
24.1721335117521
 20
44.16285128019192
 30
0.0
 10
24.1721335117521
 20
44.16285128019192
 30
0.0
 10
24.1721335117521
 20
44.16285128019192
 30
0.0
 10
24.1721335117521
 20
44.16285128019192
 30
0.0
 10
24.81247340959549
 20
44.6038235023039
 30
0.0
  0
SPLINE
  5
A6
330
3C
100
AcDbEntity
  8
Capa 1
370
     0
100
AcDbSpline
210
0.0
220
0.0
230
1.0
 70
    11
 71
     3
 72
    23
 73
    19
 74
     0
 42
0.0000000001
 43
0.0000000001
 40
0.0
 40
0.0
 40
0.0
 40
0.0
 40
1.0
 40
1.0
 40
1.0
 40
2.0
 40
2.0
 40
2.0
 40
3.0
 40
3.0
 40
3.0
 40
4.0
 40
4.0
 40
4.0
 40
5.0
 40
5.0
 40
5.0
 40
6.0
 40
6.0
 40
6.0
 40
6.0
 10
22.86685573430065
 20
36.33118461548317
 30
0.0
 10
22.86685573430065
 20
36.33118461548317
 30
0.0
 10
23.29018906752815
 20
36.38410128213661
 30
0.0
 10
23.99574462290731
 20
36.75451794871067
 30
0.0
 10
24.93498100505098
 20
37.24761446551448
 30
0.0
 10
24.82477240047783
 20
36.70980060931213
 30
0.0
 10
24.78949462270888
 20
36.50285372351317
 30
0.0
 10
24.75421684493991
 20
36.29590683771421
 30
0.0
 10
24.75421684493991
 20
36.29590683771421
 30
0.0
 10
24.75421684493991
 20
36.29590683771421
 30
0.0
 10
24.75421684493991
 20
36.29590683771421
 30
0.0
 10
24.18977240063658
 20
35.39632350460577
 30
0.0
 10
24.13685573398315
 20
35.29049017129891
 30
0.0
 10
24.13685573398315
 20
35.29049017129891
 30
0.0
 10
24.10157795621419
 20
34.72604572699557
 30
0.0
 10
23.62532795633325
 20
35.44924017125921
 30
0.0
 10
23.14907795645231
 20
36.17243461552286
 30
0.0
 10
22.72574462322481
 20
35.36104572683682
 30
0.0
 10
22.86685573430065
 20
36.33118461548317
 30
0.0
  0
HATCH
  5
A7
330
3C
100
AcDbEntity
  8
Capa 1
 62
   253
420
  9813199
100
AcDbHatch
 10
0.0
 20
0.0
 30
0.0
210
0.0
220
0.0
230
1.0
  2
SOLID
 70
     1
 71
     0
 91
        8
 92
        1
 93
        4
 72
     1
 10
21.9196267306312
 20
33.54916665827938
 11
55.49683646616052
 21
33.54916665827938
 72
     1
 10
55.49683646616051
 20
33.54916665827938
 11
55.49683646616051
 21
48.62362981640312
 72
     1
 10
55.49683646616051
 20
48.62362981640312
 11
21.9196267306312
 21
48.62362981640312
 72
     1
 10
21.9196267306312
 20
48.62362981640312
 11
21.9196267306312
 21
33.54916665827938
 97
        0
 92
        1
 93
        1
 72
     4
 94
        3
 73
     0
 74
     1
 95
       35
 96
       31
 40
0.0
 40
0.0
 40
0.0
 40
0.0
 40
1.0
 40
1.0
 40
1.0
 40
2.0
 40
2.0
 40
2.0
 40
3.0
 40
3.0
 40
3.0
 40
4.0
 40
4.0
 40
4.0
 40
5.0
 40
5.0
 40
5.0
 40
6.0
 40
6.0
 40
6.0
 40
7.0
 40
7.0
 40
7.0
 40
8.0
 40
8.0
 40
8.0
 40
9.0
 40
9.0
 40
9.0
 40
10.0
 40
10.0
 40
10.0
 40
10.0
 10
52.74713350460835
 20
45.06243461330036
 10
53.02935572676002
 20
45.60924016871922
 10
52.97233939647914
 20
45.83854572421745
 10
52.97233939647914
 20
45.83854572421745
 10
52.97233939647914
 20
45.83854572421745
 10
54.4051890597494
 20
46.4735457240587
 10
54.4051890597494
 20
46.4735457240587
 10
54.4051890597494
 20
46.4735457240587
 10
54.79324461520793
 20
46.4735457240587
 10
54.79324461520793
 20
46.4735457240587
 10
54.79324461520793
 20
46.4735457240587
 10
54.98727239293721
 20
47.77882350151015
 10
55.34005017062679
 20
47.37312905716713
 10
55.69282794831637
 20
46.96743461282411
 10
55.34005017062679
 20
46.49118461294317
 10
55.34005017062679
 20
46.49118461294317
 10
55.34005017062679
 20
46.49118461294317
 10
55.62227239277846
 20
45.76799016867952
 10
55.12838350401304
 20
45.55632350206578
 10
54.63449461524763
 20
45.34465683545203
 10
53.50560572664096
 20
44.92132350222452
 10
53.50560572664096
 20
44.92132350222452
 10
53.50560572664096
 20
44.92132350222452
 10
53.20574461560481
 20
44.42743461345911
 10
53.20574461560481
 20
44.42743461345911
 10
53.20574461560481
 20
44.42743461345911
 10
52.50018906022564
 20
44.42743461345911
 10
52.50018906022564
 20
44.42743461345911
 10
52.50018906022564
 20
44.42743461345911
 10
52.46491128245668
 20
44.5156290578815
 10
52.74713350460835
 20
45.06243461330036
 97
        0
 92
        1
 93
        1
 72
     4
 94
        3
 73
     0
 74
     1
 95
       38
 96
       34
 40
0.0
 40
0.0
 40
0.0
 40
0.0
 40
1.0
 40
1.0
 40
1.0
 40
2.0
 40
2.0
 40
2.0
 40
3.0
 40
3.0
 40
3.0
 40
4.0
 40
4.0
 40
4.0
 40
5.0
 40
5.0
 40
5.0
 40
6.0
 40
6.0
 40
6.0
 40
7.0
 40
7.0
 40
7.0
 40
8.0
 40
8.0
 40
8.0
 40
9.0
 40
9.0
 40
9.0
 40
10.0
 40
10.0
 40
10.0
 40
11.0
 40
11.0
 40
11.0
 40
11.0
 10
48.24921683906616
 20
38.58896239269651
 10
48.95477239444533
 20
37.88340683731734
 10
50.17185572747439
 20
39.32979572584463
 10
50.17185572747439
 20
39.32979572584463
 10
50.17185572747439
 20
39.32979572584463
 10
50.31296683855022
 20
40.19410128118411
 10
50.31296683855022
 20
40.19410128118411
 10
50.70102239400877
 20
40.28229572560651
 10
50.45879773044085
 20
40.88773680618431
 10
50.61079534325008
 20
41.05840683652359
 10
50.92615938396985
 20
41.41256265240727
 10
51.38893906050345
 20
42.46951794728192
 10
51.37130017161898
 20
43.12215683600765
 10
51.3536612827345
 20
43.77479572473338
 10
52.57074461576356
 20
43.77479572473338
 10
52.8706057267997
 20
43.4220179470438
 10
53.17046683783585
 20
43.06924016935422
 10
52.7118557268394
 20
41.34062905867525
 10
52.7118557268394
 20
41.34062905867525
 10
52.7118557268394
 20
41.34062905867525
 10
52.28852239361189
 20
39.50618461468942
 10
52.28852239361189
 20
39.50618461468942
 10
52.28852239361189
 20
39.50618461468942
 10
50.40116128297262
 20
38.83683701286023
 10
50.40116128297262
 20
38.83683701286023
 10
50.40116128297262
 20
38.83683701286023
 10
49.37810572767283
 20
37.93632350397078
 10
49.37810572767283
 20
37.93632350397078
 10
49.37810572767283
 20
37.93632350397078
 10
48.24921683906616
 20
38.09497015106653
 10
48.24921683906616
 20
38.09497015106653
 10
48.24921683906616
 20
38.09497015106653
 10
48.24921683906616
 20
38.58896239269651
 10
48.24921683906616
 20
38.58896239269651
 97
        0
 92
        1
 93
        1
 72
     4
 94
        3
 73
     0
 74
     1
 95
       26
 96
       22
 40
0.0
 40
0.0
 40
0.0
 40
0.0
 40
1.0
 40
1.0
 40
1.0
 40
2.0
 40
2.0
 40
2.0
 40
3.0
 40
3.0
 40
3.0
 40
4.0
 40
4.0
 40
4.0
 40
5.0
 40
5.0
 40
5.0
 40
6.0
 40
6.0
 40
6.0
 40
7.0
 40
7.0
 40
7.0
 40
7.0
 10
39.39449461905762
 20
37.9186846150863
 10
40.11768906332127
 20
38.41257350385172
 10
39.87074461893856
 20
38.50076794827411
 10
39.87074461893856
 20
38.50076794827411
 10
39.87074461893856
 20
38.50076794827411
 10
39.97657795224544
 20
39.48854572580495
 10
40.48810572989533
 20
39.02993461480848
 10
40.99963350754523
 20
38.57132350381202
 10
41.89921684065366
 20
38.83683701286023
 10
41.89921684065366
 20
38.83683701286023
 10
41.89921684065366
 20
38.83683701286023
 10
41.89921684065366
 20
38.64187905934995
 10
42.00505017396054
 20
38.09497015106653
 10
42.11088350726742
 20
37.54806124278312
 10
42.60477239603283
 20
36.5604901709814
 10
41.79338350734679
 20
36.01874890592587
 10
40.98199461866075
 20
35.47700764087033
 10
40.17060572997471
 20
35.81965683783328
 10
39.64209363158253
 20
36.01874890592587
 10
39.11358153319035
 20
36.21784097401845
 10
38.67130017479398
 20
37.42479572632088
 10
39.39449461905762
 20
37.9186846150863
 97
        0
 92
        1
 93
        1
 72
     4
 94
        3
 73
     0
 74
     1
 95
       29
 96
       25
 40
0.0
 40
0.0
 40
0.0
 40
0.0
 40
1.0
 40
1.0
 40
1.0
 40
2.0
 40
2.0
 40
2.0
 40
3.0
 40
3.0
 40
3.0
 40
4.0
 40
4.0
 40
4.0
 40
5.0
 40
5.0
 40
5.0
 40
6.0
 40
6.0
 40
6.0
 40
7.0
 40
7.0
 40
7.0
 40
8.0
 40
8.0
 40
8.0
 40
8.0
 10
32.03907795422981
 20
40.91729572544776
 10
32.03907795422981
 20
40.91729572544776
 10
33.71477239825533
 20
40.89965683656327
 10
34.36193358515951
 20
40.98785128098567
 10
35.0090947720637
 20
41.07604572540807
 10
35.99018906435315
 20
42.22257350289922
 10
35.99018906435315
 20
42.22257350289922
 10
35.99018906435315
 20
42.22257350289922
 10
37.8069946194545
 20
42.29312905843713
 10
37.01324461965294
 20
41.85215683632515
 10
36.21949461985137
 20
41.41118461421317
 10
35.63741128666356
 20
40.89965683656327
 10
35.23171684232054
 20
39.82368461461004
 10
34.82602239797752
 20
38.74771239265682
 10
34.6672723980172
 20
38.43021239273619
 10
33.5736612871795
 20
37.81285128177942
 10
32.48005017634179
 20
37.19549017082265
 10
32.42713350968835
 20
38.35965683719828
 10
32.26838350972804
 20
39.08285128146192
 10
32.10963350976773
 20
39.80604572572557
 10
31.50991128769544
 20
40.63507350329609
 10
31.50991128769544
 20
40.63507350329609
 10
31.50991128769544
 20
40.63507350329609
 10
31.86268906538502
 20
40.84674016990984
 10
32.03907795422981
 20
40.91729572544776
 97
        0
 92
        1
 93
        1
 72
     4
 94
        3
 73
     0
 74
     1
 95
       14
 96
       10
 40
0.0
 40
0.0
 40
0.0
 40
0.0
 40
1.0
 40
1.0
 40
1.0
 40
2.0
 40
2.0
 40
2.0
 40
3.0
 40
3.0
 40
3.0
 40
3.0
 10
29.32268906602002
 20
39.5238235035739
 10
30.22227239912846
 20
39.20632350365328
 10
30.71616128789388
 20
38.62424017046546
 10
30.15171684359054
 20
38.35965683719828
 10
29.58727239928721
 20
38.09507350393109
 10
28.70532795506325
 20
37.81285128177942
 10
28.65241128840981
 20
38.6771568371189
 10
28.65241128840981
 20
38.6771568371189
 10
28.42310573291158
 20
39.84132350349453
 10
29.32268906602002
 20
39.5238235035739
 97
        0
 92
        1
 93
        1
 72
     4
 94
        3
 73
     0
 74
     1
 95
       23
 96
       19
 40
0.0
 40
0.0
 40
0.0
 40
0.0
 40
1.0
 40
1.0
 40
1.0
 40
2.0
 40
2.0
 40
2.0
 40
3.0
 40
3.0
 40
3.0
 40
4.0
 40
4.0
 40
4.0
 40
5.0
 40
5.0
 40
5.0
 40
6.0
 40
6.0
 40
6.0
 40
6.0
 10
24.81247340959549
 20
44.6038235023039
 10
25.45277885648403
 20
45.04479572441588
 10
25.26574462258981
 20
44.6038235023039
 10
25.84782795577762
 20
44.6038235023039
 10
26.42991128896544
 20
44.6038235023039
 10
26.13005017792929
 20
43.68660128031099
 10
26.13005017792929
 20
43.68660128031099
 10
26.13005017792929
 20
43.68660128031099
 10
25.86546684466211
 20
43.7571568358489
 10
25.81255017800867
 20
42.89285128050943
 10
25.75963351135523
 20
42.02854572516994
 10
25.1951890670519
 20
41.16424016983046
 10
25.12463351151398
 20
41.62285128082692
 10
25.05407795597606
 20
42.08146239182338
 10
24.1721335117521
 20
44.16285128019192
 10
24.1721335117521
 20
44.16285128019192
 10
24.1721335117521
 20
44.16285128019192
 10
24.1721335117521
 20
44.16285128019192
 10
24.81247340959549
 20
44.6038235023039
 97
        0
 92
        1
 93
        1
 72
     4
 94
        3
 73
     0
 74
     1
 95
       23
 96
       19
 40
0.0
 40
0.0
 40
0.0
 40
0.0
 40
1.0
 40
1.0
 40
1.0
 40
2.0
 40
2.0
 40
2.0
 40
3.0
 40
3.0
 40
3.0
 40
4.0
 40
4.0
 40
4.0
 40
5.0
 40
5.0
 40
5.0
 40
6.0
 40
6.0
 40
6.0
 40
6.0
 10
22.86685573430065
 20
36.33118461548317
 10
22.86685573430065
 20
36.33118461548317
 10
23.29018906752815
 20
36.38410128213661
 10
23.99574462290731
 20
36.75451794871067
 10
24.93498100505098
 20
37.24761446551448
 10
24.82477240047783
 20
36.70980060931213
 10
24.78949462270888
 20
36.50285372351317
 10
24.75421684493991
 20
36.29590683771421
 10
24.75421684493991
 20
36.29590683771421
 10
24.75421684493991
 20
36.29590683771421
 10
24.75421684493991
 20
36.29590683771421
 10
24.18977240063658
 20
35.39632350460577
 10
24.13685573398315
 20
35.29049017129891
 10
24.13685573398315
 20
35.29049017129891
 10
24.10157795621419
 20
34.72604572699557
 10
23.62532795633325
 20
35.44924017125921
 10
23.14907795645231
 20
36.17243461552286
 10
22.72574462322481
 20
35.36104572683682
 10
22.86685573430065
 20
36.33118461548317
 97
        0
 75
     2
 76
     1
 98
        0
  0
SPLINE
  5
A8
330
3C
100
AcDbEntity
  8
Capa 1
370
     0
100
AcDbSpline
210
0.0
220
0.0
230
1.0
 70
    11
 71
     3
 72
    23
 73
    19
 74
     0
 42
0.0000000001
 43
0.0000000001
 40
0.0
 40
0.0
 40
0.0
 40
0.0
 40
1.0
 40
1.0
 40
1.0
 40
2.0
 40
2.0
 40
2.0
 40
3.0
 40
3.0
 40
3.0
 40
4.0
 40
4.0
 40
4.0
 40
5.0
 40
5.0
 40
5.0
 40
6.0
 40
6.0
 40
6.0
 40
6.0
 10
23.62532795633325
 20
35.44924017125921
 30
0.0
 10
24.10157795621419
 20
34.72604572699557
 30
0.0
 10
24.13685573398315
 20
35.29049017129891
 30
0.0
 10
24.13685573398315
 20
35.29049017129891
 30
0.0
 10
24.18977240063658
 20
35.39632350460577
 30
0.0
 10
24.75421684493991
 20
36.29590683771421
 30
0.0
 10
24.75421684493991
 20
36.29590683771421
 30
0.0
 10
24.75421684493991
 20
36.29590683771421
 30
0.0
 10
24.75421684493991
 20
36.29590683771421
 30
0.0
 10
24.78949462270888
 20
36.50285372351317
 30
0.0
 10
24.82477240047783
 20
36.70980060931213
 30
0.0
 10
24.93498100505098
 20
37.24761446551448
 30
0.0
 10
23.99574462290731
 20
36.75451794871067
 30
0.0
 10
23.29018906752815
 20
36.38410128213661
 30
0.0
 10
22.86685573430065
 20
36.33118461548317
 30
0.0
 10
22.86685573430065
 20
36.33118461548317
 30
0.0
 10
22.72574462322481
 20
35.36104572683682
 30
0.0
 10
23.14907795645231
 20
36.17243461552286
 30
0.0
 10
23.62532795633325
 20
35.44924017125921
 30
0.0
  0
HATCH
  5
A9
330
3C
100
AcDbEntity
  8
Capa 1
 62
    25
420
  9529409
100
AcDbHatch
 10
0.0
 20
0.0
 30
0.0
210
0.0
220
0.0
230
1.0
  2
SOLID
 70
     1
 71
     0
 91
        1
 92
        1
 93
        1
 72
     4
 94
        3
 73
     0
 74
     1
 95
       23
 96
       19
 40
0.0
 40
0.0
 40
0.0
 40
0.0
 40
1.0
 40
1.0
 40
1.0
 40
2.0
 40
2.0
 40
2.0
 40
3.0
 40
3.0
 40
3.0
 40
4.0
 40
4.0
 40
4.0
 40
5.0
 40
5.0
 40
5.0
 40
6.0
 40
6.0
 40
6.0
 40
6.0
 10
23.62532795633325
 20
35.44924017125921
 10
24.10157795621419
 20
34.72604572699557
 10
24.13685573398315
 20
35.29049017129891
 10
24.13685573398315
 20
35.29049017129891
 10
24.18977240063658
 20
35.39632350460577
 10
24.75421684493991
 20
36.29590683771421
 10
24.75421684493991
 20
36.29590683771421
 10
24.75421684493991
 20
36.29590683771421
 10
24.75421684493991
 20
36.29590683771421
 10
24.78949462270888
 20
36.50285372351317
 10
24.82477240047783
 20
36.70980060931213
 10
24.93498100505098
 20
37.24761446551448
 10
23.99574462290731
 20
36.75451794871067
 10
23.29018906752815
 20
36.38410128213661
 10
22.86685573430065
 20
36.33118461548317
 10
22.86685573430065
 20
36.33118461548317
 10
22.72574462322481
 20
35.36104572683682
 10
23.14907795645231
 20
36.17243461552286
 10
23.62532795633325
 20
35.44924017125921
 97
        0
 75
     2
 76
     1
 98
        0
  0
SPLINE
  5
AA
330
3C
100
AcDbEntity
  8
Capa 1
370
     0
100
AcDbSpline
210
0.0
220
0.0
230
1.0
 70
    11
 71
     3
 72
    23
 73
    19
 74
     0
 42
0.0000000001
 43
0.0000000001
 40
0.0
 40
0.0
 40
0.0
 40
0.0
 40
1.0
 40
1.0
 40
1.0
 40
2.0
 40
2.0
 40
2.0
 40
3.0
 40
3.0
 40
3.0
 40
4.0
 40
4.0
 40
4.0
 40
5.0
 40
5.0
 40
5.0
 40
6.0
 40
6.0
 40
6.0
 40
6.0
 10
25.81255017800867
 20
42.89285128050943
 30
0.0
 10
25.86546684466211
 20
43.7571568358489
 30
0.0
 10
26.13005017792929
 20
43.68660128031099
 30
0.0
 10
26.13005017792929
 20
43.68660128031099
 30
0.0
 10
26.13005017792929
 20
43.68660128031099
 30
0.0
 10
26.42991128896544
 20
44.6038235023039
 30
0.0
 10
25.84782795577762
 20
44.6038235023039
 30
0.0
 10
25.26574462258981
 20
44.6038235023039
 30
0.0
 10
25.45277885648403
 20
45.04479572441588
 30
0.0
 10
24.81247340959549
 20
44.6038235023039
 30
0.0
 10
24.1721335117521
 20
44.16285128019192
 30
0.0
 10
24.1721335117521
 20
44.16285128019192
 30
0.0
 10
24.1721335117521
 20
44.16285128019192
 30
0.0
 10
24.1721335117521
 20
44.16285128019192
 30
0.0
 10
25.05407795597606
 20
42.08146239182338
 30
0.0
 10
25.12463351151398
 20
41.62285128082692
 30
0.0
 10
25.1951890670519
 20
41.16424016983046
 30
0.0
 10
25.75963351135523
 20
42.02854572516994
 30
0.0
 10
25.81255017800867
 20
42.89285128050943
 30
0.0
  0
HATCH
  5
AB
330
3C
100
AcDbEntity
  8
Capa 1
 62
    25
420
  9529409
100
AcDbHatch
 10
0.0
 20
0.0
 30
0.0
210
0.0
220
0.0
230
1.0
  2
SOLID
 70
     1
 71
     0
 91
        1
 92
        1
 93
        1
 72
     4
 94
        3
 73
     0
 74
     1
 95
       23
 96
       19
 40
0.0
 40
0.0
 40
0.0
 40
0.0
 40
1.0
 40
1.0
 40
1.0
 40
2.0
 40
2.0
 40
2.0
 40
3.0
 40
3.0
 40
3.0
 40
4.0
 40
4.0
 40
4.0
 40
5.0
 40
5.0
 40
5.0
 40
6.0
 40
6.0
 40
6.0
 40
6.0
 10
25.81255017800867
 20
42.89285128050943
 10
25.86546684466211
 20
43.7571568358489
 10
26.13005017792929
 20
43.68660128031099
 10
26.13005017792929
 20
43.68660128031099
 10
26.13005017792929
 20
43.68660128031099
 10
26.42991128896544
 20
44.6038235023039
 10
25.84782795577762
 20
44.6038235023039
 10
25.26574462258981
 20
44.6038235023039
 10
25.45277885648403
 20
45.04479572441588
 10
24.81247340959549
 20
44.6038235023039
 10
24.1721335117521
 20
44.16285128019192
 10
24.1721335117521
 20
44.16285128019192
 10
24.1721335117521
 20
44.16285128019192
 10
24.1721335117521
 20
44.16285128019192
 10
25.05407795597606
 20
42.08146239182338
 10
25.12463351151398
 20
41.62285128082692
 10
25.1951890670519
 20
41.16424016983046
 10
25.75963351135523
 20
42.02854572516994
 10
25.81255017800867
 20
42.89285128050943
 97
        0
 75
     2
 76
     1
 98
        0
  0
SPLINE
  5
AC
330
3C
100
AcDbEntity
  8
Capa 1
370
     0
100
AcDbSpline
210
0.0
220
0.0
230
1.0
 70
    11
 71
     3
 72
    14
 73
    10
 74
     0
 42
0.0000000001
 43
0.0000000001
 40
0.0
 40
0.0
 40
0.0
 40
0.0
 40
1.0
 40
1.0
 40
1.0
 40
2.0
 40
2.0
 40
2.0
 40
3.0
 40
3.0
 40
3.0
 40
3.0
 10
30.15171684359054
 20
38.35965683719828
 30
0.0
 10
30.71616128789388
 20
38.62424017046546
 30
0.0
 10
30.22227239912846
 20
39.20632350365328
 30
0.0
 10
29.32268906602002
 20
39.5238235035739
 30
0.0
 10
28.42310573291158
 20
39.84132350349453
 30
0.0
 10
28.65241128840981
 20
38.6771568371189
 30
0.0
 10
28.65241128840981
 20
38.6771568371189
 30
0.0
 10
28.70532795506325
 20
37.81285128177942
 30
0.0
 10
29.58727239928721
 20
38.09507350393109
 30
0.0
 10
30.15171684359054
 20
38.35965683719828
 30
0.0
  0
HATCH
  5
AD
330
3C
100
AcDbEntity
  8
Capa 1
 62
    25
420
  9529409
100
AcDbHatch
 10
0.0
 20
0.0
 30
0.0
210
0.0
220
0.0
230
1.0
  2
SOLID
 70
     1
 71
     0
 91
        1
 92
        1
 93
        1
 72
     4
 94
        3
 73
     0
 74
     1
 95
       14
 96
       10
 40
0.0
 40
0.0
 40
0.0
 40
0.0
 40
1.0
 40
1.0
 40
1.0
 40
2.0
 40
2.0
 40
2.0
 40
3.0
 40
3.0
 40
3.0
 40
3.0
 10
30.15171684359054
 20
38.35965683719828
 10
30.71616128789388
 20
38.62424017046546
 10
30.22227239912846
 20
39.20632350365328
 10
29.32268906602002
 20
39.5238235035739
 10
28.42310573291158
 20
39.84132350349453
 10
28.65241128840981
 20
38.6771568371189
 10
28.65241128840981
 20
38.6771568371189
 10
28.70532795506325
 20
37.81285128177942
 10
29.58727239928721
 20
38.09507350393109
 10
30.15171684359054
 20
38.35965683719828
 97
        0
 75
     2
 76
     1
 98
        0
  0
SPLINE
  5
AE
330
3C
100
AcDbEntity
  8
Capa 1
370
     0
100
AcDbSpline
210
0.0
220
0.0
230
1.0
 70
    11
 71
     3
 72
    29
 73
    25
 74
     0
 42
0.0000000001
 43
0.0000000001
 40
0.0
 40
0.0
 40
0.0
 40
0.0
 40
1.0
 40
1.0
 40
1.0
 40
2.0
 40
2.0
 40
2.0
 40
3.0
 40
3.0
 40
3.0
 40
4.0
 40
4.0
 40
4.0
 40
5.0
 40
5.0
 40
5.0
 40
6.0
 40
6.0
 40
6.0
 40
7.0
 40
7.0
 40
7.0
 40
8.0
 40
8.0
 40
8.0
 40
8.0
 10
33.5736612871795
 20
37.81285128177942
 30
0.0
 10
34.6672723980172
 20
38.43021239273619
 30
0.0
 10
34.82602239797752
 20
38.74771239265682
 30
0.0
 10
35.23171684232054
 20
39.82368461461004
 30
0.0
 10
35.63741128666356
 20
40.89965683656327
 30
0.0
 10
36.21949461985137
 20
41.41118461421317
 30
0.0
 10
37.01324461965294
 20
41.85215683632515
 30
0.0
 10
37.8069946194545
 20
42.29312905843713
 30
0.0
 10
35.99018906435315
 20
42.22257350289922
 30
0.0
 10
35.99018906435315
 20
42.22257350289922
 30
0.0
 10
35.99018906435315
 20
42.22257350289922
 30
0.0
 10
35.0090947720637
 20
41.07604572540807
 30
0.0
 10
34.36193358515951
 20
40.98785128098567
 30
0.0
 10
33.71477239825533
 20
40.89965683656327
 30
0.0
 10
32.03907795422981
 20
40.91729572544776
 30
0.0
 10
32.03907795422981
 20
40.91729572544776
 30
0.0
 10
31.86268906538502
 20
40.84674016990984
 30
0.0
 10
31.50991128769544
 20
40.63507350329609
 30
0.0
 10
31.50991128769544
 20
40.63507350329609
 30
0.0
 10
31.50991128769544
 20
40.63507350329609
 30
0.0
 10
32.10963350976773
 20
39.80604572572557
 30
0.0
 10
32.26838350972804
 20
39.08285128146192
 30
0.0
 10
32.42713350968835
 20
38.35965683719828
 30
0.0
 10
32.48005017634179
 20
37.19549017082265
 30
0.0
 10
33.5736612871795
 20
37.81285128177942
 30
0.0
  0
SPLINE
  5
AF
330
3C
100
AcDbEntity
  8
Capa 1
370
     0
100
AcDbSpline
210
0.0
220
0.0
230
1.0
 70
    11
 71
     3
 72
    17
 73
    13
 74
     0
 42
0.0000000001
 43
0.0000000001
 40
0.0
 40
0.0
 40
0.0
 40
0.0
 40
1.0
 40
1.0
 40
1.0
 40
2.0
 40
2.0
 40
2.0
 40
3.0
 40
3.0
 40
3.0
 40
4.0
 40
4.0
 40
4.0
 40
4.0
 10
33.59670897597582
 20
40.20722709498291
 30
0.0
 10
34.12274060561862
 20
40.20722709498291
 30
0.0
 10
34.54917452478284
 20
39.97085909373992
 30
0.0
 10
34.54917452478284
 20
39.67930066282323
 30
0.0
 10
34.54917452478284
 20
39.38774223190654
 30
0.0
 10
34.12274060561862
 20
39.15140868161839
 30
0.0
 10
33.59670897597582
 20
39.15140868161839
 30
0.0
 10
33.07071179728788
 20
39.15140868161839
 30
0.0
 10
32.64427787812365
 20
39.38774223190654
 30
0.0
 10
32.64427787812365
 20
39.67930066282323
 30
0.0
 10
32.64427787812365
 20
39.97085909373992
 30
0.0
 10
33.07071179728788
 20
40.20722709498291
 30
0.0
 10
33.59670897597582
 20
40.20722709498291
 30
0.0
  0
HATCH
  5
B0
330
3C
100
AcDbEntity
  8
Capa 1
 62
    25
420
  9529409
100
AcDbHatch
 10
0.0
 20
0.0
 30
0.0
210
0.0
220
0.0
230
1.0
  2
SOLID
 70
     1
 71
     0
 91
        2
 92
        1
 93
        1
 72
     4
 94
        3
 73
     0
 74
     1
 95
       29
 96
       25
 40
0.0
 40
0.0
 40
0.0
 40
0.0
 40
1.0
 40
1.0
 40
1.0
 40
2.0
 40
2.0
 40
2.0
 40
3.0
 40
3.0
 40
3.0
 40
4.0
 40
4.0
 40
4.0
 40
5.0
 40
5.0
 40
5.0
 40
6.0
 40
6.0
 40
6.0
 40
7.0
 40
7.0
 40
7.0
 40
8.0
 40
8.0
 40
8.0
 40
8.0
 10
33.5736612871795
 20
37.81285128177942
 10
34.6672723980172
 20
38.43021239273619
 10
34.82602239797752
 20
38.74771239265682
 10
35.23171684232054
 20
39.82368461461004
 10
35.63741128666356
 20
40.89965683656327
 10
36.21949461985137
 20
41.41118461421317
 10
37.01324461965294
 20
41.85215683632515
 10
37.8069946194545
 20
42.29312905843713
 10
35.99018906435315
 20
42.22257350289922
 10
35.99018906435315
 20
42.22257350289922
 10
35.99018906435315
 20
42.22257350289922
 10
35.0090947720637
 20
41.07604572540807
 10
34.36193358515951
 20
40.98785128098567
 10
33.71477239825533
 20
40.89965683656327
 10
32.03907795422981
 20
40.91729572544776
 10
32.03907795422981
 20
40.91729572544776
 10
31.86268906538502
 20
40.84674016990984
 10
31.50991128769544
 20
40.63507350329609
 10
31.50991128769544
 20
40.63507350329609
 10
31.50991128769544
 20
40.63507350329609
 10
32.10963350976773
 20
39.80604572572557
 10
32.26838350972804
 20
39.08285128146192
 10
32.42713350968835
 20
38.35965683719828
 10
32.48005017634179
 20
37.19549017082265
 10
33.5736612871795
 20
37.81285128177942
 97
        0
 92
        1
 93
        1
 72
     4
 94
        3
 73
     0
 74
     1
 95
       17
 96
       13
 40
0.0
 40
0.0
 40
0.0
 40
0.0
 40
1.0
 40
1.0
 40
1.0
 40
2.0
 40
2.0
 40
2.0
 40
3.0
 40
3.0
 40
3.0
 40
4.0
 40
4.0
 40
4.0
 40
4.0
 10
33.59670897597582
 20
40.20722709498291
 10
34.12274060561862
 20
40.20722709498291
 10
34.54917452478284
 20
39.97085909373992
 10
34.54917452478284
 20
39.67930066282323
 10
34.54917452478284
 20
39.38774223190654
 10
34.12274060561862
 20
39.15140868161839
 10
33.59670897597582
 20
39.15140868161839
 10
33.07071179728788
 20
39.15140868161839
 10
32.64427787812365
 20
39.38774223190654
 10
32.64427787812365
 20
39.67930066282323
 10
32.64427787812365
 20
39.97085909373992
 10
33.07071179728788
 20
40.20722709498291
 10
33.59670897597582
 20
40.20722709498291
 97
        0
 75
     2
 76
     1
 98
        0
  0
SPLINE
  5
B1
330
3C
100
AcDbEntity
  8
Capa 1
370
     0
100
AcDbSpline
210
0.0
220
0.0
230
1.0
 70
    11
 71
     3
 72
    26
 73
    22
 74
     0
 42
0.0000000001
 43
0.0000000001
 40
0.0
 40
0.0
 40
0.0
 40
0.0
 40
1.0
 40
1.0
 40
1.0
 40
2.0
 40
2.0
 40
2.0
 40
3.0
 40
3.0
 40
3.0
 40
4.0
 40
4.0
 40
4.0
 40
5.0
 40
5.0
 40
5.0
 40
6.0
 40
6.0
 40
6.0
 40
7.0
 40
7.0
 40
7.0
 40
7.0
 10
39.64209363158253
 20
36.01874890592587
 30
0.0
 10
40.17060572997471
 20
35.81965683783328
 30
0.0
 10
40.98199461866075
 20
35.47700764087033
 30
0.0
 10
41.79338350734679
 20
36.01874890592587
 30
0.0
 10
42.60477239603283
 20
36.5604901709814
 30
0.0
 10
42.11088350726742
 20
37.54806124278312
 30
0.0
 10
42.00505017396054
 20
38.09497015106653
 30
0.0
 10
41.89921684065366
 20
38.64187905934995
 30
0.0
 10
41.89921684065366
 20
38.83683701286023
 30
0.0
 10
41.89921684065366
 20
38.83683701286023
 30
0.0
 10
41.89921684065366
 20
38.83683701286023
 30
0.0
 10
40.99963350754523
 20
38.57132350381202
 30
0.0
 10
40.48810572989533
 20
39.02993461480848
 30
0.0
 10
39.97657795224544
 20
39.48854572580495
 30
0.0
 10
39.87074461893856
 20
38.50076794827411
 30
0.0
 10
39.87074461893856
 20
38.50076794827411
 30
0.0
 10
39.87074461893856
 20
38.50076794827411
 30
0.0
 10
40.11768906332127
 20
38.41257350385172
 30
0.0
 10
39.39449461905762
 20
37.9186846150863
 30
0.0
 10
38.67130017479398
 20
37.42479572632088
 30
0.0
 10
39.11358153319035
 20
36.21784097401845
 30
0.0
 10
39.64209363158253
 20
36.01874890592587
 30
0.0
  0
SPLINE
  5
B2
330
3C
100
AcDbEntity
  8
Capa 1
370
     0
100
AcDbSpline
210
0.0
220
0.0
230
1.0
 70
    11
 71
     3
 72
    17
 73
    13
 74
     0
 42
0.0000000001
 43
0.0000000001
 40
0.0
 40
0.0
 40
0.0
 40
0.0
 40
1.0
 40
1.0
 40
1.0
 40
2.0
 40
2.0
 40
2.0
 40
3.0
 40
3.0
 40
3.0
 40
4.0
 40
4.0
 40
4.0
 40
4.0
 10
40.70232176716816
 20
38.06175943058872
 30
0.0
 10
41.2854041780467
 20
38.06175943058872
 30
0.0
 10
41.75810572957784
 20
37.69916313076618
 30
0.0
 10
41.75810572957784
 20
37.25192083487104
 30
0.0
 10
41.75810572957784
 20
36.80464408802106
 30
0.0
 10
41.2854041780467
 20
36.44208223915336
 30
0.0
 10
40.70232176716816
 20
36.44208223915336
 30
0.0
 10
40.11923935628963
 20
36.44208223915336
 30
0.0
 10
39.64657225571335
 20
36.80464408802106
 30
0.0
 10
39.64657225571335
 20
37.25192083487104
 30
0.0
 10
39.64657225571335
 20
37.69916313076618
 30
0.0
 10
40.11923935628963
 20
38.06175943058872
 30
0.0
 10
40.70232176716816
 20
38.06175943058872
 30
0.0
  0
HATCH
  5
B3
330
3C
100
AcDbEntity
  8
Capa 1
 62
    25
420
  9529409
100
AcDbHatch
 10
0.0
 20
0.0
 30
0.0
210
0.0
220
0.0
230
1.0
  2
SOLID
 70
     1
 71
     0
 91
        2
 92
        1
 93
        1
 72
     4
 94
        3
 73
     0
 74
     1
 95
       26
 96
       22
 40
0.0
 40
0.0
 40
0.0
 40
0.0
 40
1.0
 40
1.0
 40
1.0
 40
2.0
 40
2.0
 40
2.0
 40
3.0
 40
3.0
 40
3.0
 40
4.0
 40
4.0
 40
4.0
 40
5.0
 40
5.0
 40
5.0
 40
6.0
 40
6.0
 40
6.0
 40
7.0
 40
7.0
 40
7.0
 40
7.0
 10
39.64209363158253
 20
36.01874890592587
 10
40.17060572997471
 20
35.81965683783328
 10
40.98199461866075
 20
35.47700764087033
 10
41.79338350734679
 20
36.01874890592587
 10
42.60477239603283
 20
36.5604901709814
 10
42.11088350726742
 20
37.54806124278312
 10
42.00505017396054
 20
38.09497015106653
 10
41.89921684065366
 20
38.64187905934995
 10
41.89921684065366
 20
38.83683701286023
 10
41.89921684065366
 20
38.83683701286023
 10
41.89921684065366
 20
38.83683701286023
 10
40.99963350754523
 20
38.57132350381202
 10
40.48810572989533
 20
39.02993461480848
 10
39.97657795224544
 20
39.48854572580495
 10
39.87074461893856
 20
38.50076794827411
 10
39.87074461893856
 20
38.50076794827411
 10
39.87074461893856
 20
38.50076794827411
 10
40.11768906332127
 20
38.41257350385172
 10
39.39449461905762
 20
37.9186846150863
 10
38.67130017479398
 20
37.42479572632088
 10
39.11358153319035
 20
36.21784097401845
 10
39.64209363158253
 20
36.01874890592587
 97
        0
 92
        1
 93
        1
 72
     4
 94
        3
 73
     0
 74
     1
 95
       17
 96
       13
 40
0.0
 40
0.0
 40
0.0
 40
0.0
 40
1.0
 40
1.0
 40
1.0
 40
2.0
 40
2.0
 40
2.0
 40
3.0
 40
3.0
 40
3.0
 40
4.0
 40
4.0
 40
4.0
 40
4.0
 10
40.70232176716816
 20
38.06175943058872
 10
41.2854041780467
 20
38.06175943058872
 10
41.75810572957784
 20
37.69916313076618
 10
41.75810572957784
 20
37.25192083487104
 10
41.75810572957784
 20
36.80464408802106
 10
41.2854041780467
 20
36.44208223915336
 10
40.70232176716816
 20
36.44208223915336
 10
40.11923935628963
 20
36.44208223915336
 10
39.64657225571335
 20
36.80464408802106
 10
39.64657225571335
 20
37.25192083487104
 10
39.64657225571335
 20
37.69916313076618
 10
40.11923935628963
 20
38.06175943058872
 10
40.70232176716816
 20
38.06175943058872
 97
        0
 75
     2
 76
     1
 98
        0
  0
SPLINE
  5
B4
330
3C
100
AcDbEntity
  8
Capa 1
370
     0
100
AcDbSpline
210
0.0
220
0.0
230
1.0
 70
    11
 71
     3
 72
    38
 73
    34
 74
     0
 42
0.0000000001
 43
0.0000000001
 40
0.0
 40
0.0
 40
0.0
 40
0.0
 40
1.0
 40
1.0
 40
1.0
 40
2.0
 40
2.0
 40
2.0
 40
3.0
 40
3.0
 40
3.0
 40
4.0
 40
4.0
 40
4.0
 40
5.0
 40
5.0
 40
5.0
 40
6.0
 40
6.0
 40
6.0
 40
7.0
 40
7.0
 40
7.0
 40
8.0
 40
8.0
 40
8.0
 40
9.0
 40
9.0
 40
9.0
 40
10.0
 40
10.0
 40
10.0
 40
11.0
 40
11.0
 40
11.0
 40
11.0
 10
50.40116128297262
 20
38.83683701286023
 30
0.0
 10
50.40116128297262
 20
38.83683701286023
 30
0.0
 10
52.28852239361189
 20
39.50618461468942
 30
0.0
 10
52.28852239361189
 20
39.50618461468942
 30
0.0
 10
52.28852239361189
 20
39.50618461468942
 30
0.0
 10
52.7118557268394
 20
41.34062905867525
 30
0.0
 10
52.7118557268394
 20
41.34062905867525
 30
0.0
 10
52.7118557268394
 20
41.34062905867525
 30
0.0
 10
53.17046683783585
 20
43.06924016935422
 30
0.0
 10
52.8706057267997
 20
43.4220179470438
 30
0.0
 10
52.57074461576356
 20
43.77479572473338
 30
0.0
 10
51.3536612827345
 20
43.77479572473338
 30
0.0
 10
51.37130017161898
 20
43.12215683600765
 30
0.0
 10
51.38893906050345
 20
42.46951794728192
 30
0.0
 10
50.92615938396985
 20
41.41256265240727
 30
0.0
 10
50.61079534325008
 20
41.05840683652359
 30
0.0
 10
50.45879773044085
 20
40.88773680618431
 30
0.0
 10
50.70102239400877
 20
40.28229572560651
 30
0.0
 10
50.31296683855022
 20
40.19410128118411
 30
0.0
 10
50.31296683855022
 20
40.19410128118411
 30
0.0
 10
50.17185572747439
 20
39.32979572584463
 30
0.0
 10
50.17185572747439
 20
39.32979572584463
 30
0.0
 10
50.17185572747439
 20
39.32979572584463
 30
0.0
 10
48.95477239444533
 20
37.88340683731734
 30
0.0
 10
48.24921683906616
 20
38.58896239269651
 30
0.0
 10
48.24921683906616
 20
38.58896239269651
 30
0.0
 10
48.24921683906616
 20
38.09497015106653
 30
0.0
 10
48.24921683906616
 20
38.09497015106653
 30
0.0
 10
48.24921683906616
 20
38.09497015106653
 30
0.0
 10
49.37810572767283
 20
37.93632350397078
 30
0.0
 10
49.37810572767283
 20
37.93632350397078
 30
0.0
 10
49.37810572767283
 20
37.93632350397078
 30
0.0
 10
50.40116128297262
 20
38.83683701286023
 30
0.0
 10
50.40116128297262
 20
38.83683701286023
 30
0.0
  0
HATCH
  5
B5
330
3C
100
AcDbEntity
  8
Capa 1
 62
    25
420
  9529409
100
AcDbHatch
 10
0.0
 20
0.0
 30
0.0
210
0.0
220
0.0
230
1.0
  2
SOLID
 70
     1
 71
     0
 91
        1
 92
        1
 93
        1
 72
     4
 94
        3
 73
     0
 74
     1
 95
       38
 96
       34
 40
0.0
 40
0.0
 40
0.0
 40
0.0
 40
1.0
 40
1.0
 40
1.0
 40
2.0
 40
2.0
 40
2.0
 40
3.0
 40
3.0
 40
3.0
 40
4.0
 40
4.0
 40
4.0
 40
5.0
 40
5.0
 40
5.0
 40
6.0
 40
6.0
 40
6.0
 40
7.0
 40
7.0
 40
7.0
 40
8.0
 40
8.0
 40
8.0
 40
9.0
 40
9.0
 40
9.0
 40
10.0
 40
10.0
 40
10.0
 40
11.0
 40
11.0
 40
11.0
 40
11.0
 10
50.40116128297262
 20
38.83683701286023
 10
50.40116128297262
 20
38.83683701286023
 10
52.28852239361189
 20
39.50618461468942
 10
52.28852239361189
 20
39.50618461468942
 10
52.28852239361189
 20
39.50618461468942
 10
52.7118557268394
 20
41.34062905867525
 10
52.7118557268394
 20
41.34062905867525
 10
52.7118557268394
 20
41.34062905867525
 10
53.17046683783585
 20
43.06924016935422
 10
52.8706057267997
 20
43.4220179470438
 10
52.57074461576356
 20
43.77479572473338
 10
51.3536612827345
 20
43.77479572473338
 10
51.37130017161898
 20
43.12215683600765
 10
51.38893906050345
 20
42.46951794728192
 10
50.92615938396985
 20
41.41256265240727
 10
50.61079534325008
 20
41.05840683652359
 10
50.45879773044085
 20
40.88773680618431
 10
50.70102239400877
 20
40.28229572560651
 10
50.31296683855022
 20
40.19410128118411
 10
50.31296683855022
 20
40.19410128118411
 10
50.17185572747439
 20
39.32979572584463
 10
50.17185572747439
 20
39.32979572584463
 10
50.17185572747439
 20
39.32979572584463
 10
48.95477239444533
 20
37.88340683731734
 10
48.24921683906616
 20
38.58896239269651
 10
48.24921683906616
 20
38.58896239269651
 10
48.24921683906616
 20
38.09497015106653
 10
48.24921683906616
 20
38.09497015106653
 10
48.24921683906616
 20
38.09497015106653
 10
49.37810572767283
 20
37.93632350397078
 10
49.37810572767283
 20
37.93632350397078
 10
49.37810572767283
 20
37.93632350397078
 10
50.40116128297262
 20
38.83683701286023
 10
50.40116128297262
 20
38.83683701286023
 97
        0
 75
     2
 76
     1
 98
        0
  0
SPLINE
  5
B6
330
3C
100
AcDbEntity
  8
Capa 1
370
     0
100
AcDbSpline
210
0.0
220
0.0
230
1.0
 70
    11
 71
     3
 72
    35
 73
    31
 74
     0
 42
0.0000000001
 43
0.0000000001
 40
0.0
 40
0.0
 40
0.0
 40
0.0
 40
1.0
 40
1.0
 40
1.0
 40
2.0
 40
2.0
 40
2.0
 40
3.0
 40
3.0
 40
3.0
 40
4.0
 40
4.0
 40
4.0
 40
5.0
 40
5.0
 40
5.0
 40
6.0
 40
6.0
 40
6.0
 40
7.0
 40
7.0
 40
7.0
 40
8.0
 40
8.0
 40
8.0
 40
9.0
 40
9.0
 40
9.0
 40
10.0
 40
10.0
 40
10.0
 40
10.0
 10
53.20574461560481
 20
44.42743461345911
 30
0.0
 10
53.20574461560481
 20
44.42743461345911
 30
0.0
 10
53.50560572664096
 20
44.92132350222452
 30
0.0
 10
53.50560572664096
 20
44.92132350222452
 30
0.0
 10
53.50560572664096
 20
44.92132350222452
 30
0.0
 10
54.63449461524763
 20
45.34465683545203
 30
0.0
 10
55.12838350401304
 20
45.55632350206578
 30
0.0
 10
55.62227239277846
 20
45.76799016867952
 30
0.0
 10
55.34005017062679
 20
46.49118461294317
 30
0.0
 10
55.34005017062679
 20
46.49118461294317
 30
0.0
 10
55.34005017062679
 20
46.49118461294317
 30
0.0
 10
55.69282794831637
 20
46.96743461282411
 30
0.0
 10
55.34005017062679
 20
47.37312905716713
 30
0.0
 10
54.98727239293721
 20
47.77882350151015
 30
0.0
 10
54.79324461520793
 20
46.4735457240587
 30
0.0
 10
54.79324461520793
 20
46.4735457240587
 30
0.0
 10
54.79324461520793
 20
46.4735457240587
 30
0.0
 10
54.4051890597494
 20
46.4735457240587
 30
0.0
 10
54.4051890597494
 20
46.4735457240587
 30
0.0
 10
54.4051890597494
 20
46.4735457240587
 30
0.0
 10
52.97233939647914
 20
45.83854572421745
 30
0.0
 10
52.97233939647914
 20
45.83854572421745
 30
0.0
 10
52.97233939647914
 20
45.83854572421745
 30
0.0
 10
53.02935572676002
 20
45.60924016871922
 30
0.0
 10
52.74713350460835
 20
45.06243461330036
 30
0.0
 10
52.46491128245668
 20
44.5156290578815
 30
0.0
 10
52.50018906022564
 20
44.42743461345911
 30
0.0
 10
52.50018906022564
 20
44.42743461345911
 30
0.0
 10
52.50018906022564
 20
44.42743461345911
 30
0.0
 10
53.20574461560481
 20
44.42743461345911
 30
0.0
 10
53.20574461560481
 20
44.42743461345911
 30
0.0
  0
HATCH
  5
B7
330
3C
100
AcDbEntity
  8
Capa 1
 62
    25
420
  9529409
100
AcDbHatch
 10
0.0
 20
0.0
 30
0.0
210
0.0
220
0.0
230
1.0
  2
SOLID
 70
     1
 71
     0
 91
        1
 92
        1
 93
        1
 72
     4
 94
        3
 73
     0
 74
     1
 95
       35
 96
       31
 40
0.0
 40
0.0
 40
0.0
 40
0.0
 40
1.0
 40
1.0
 40
1.0
 40
2.0
 40
2.0
 40
2.0
 40
3.0
 40
3.0
 40
3.0
 40
4.0
 40
4.0
 40
4.0
 40
5.0
 40
5.0
 40
5.0
 40
6.0
 40
6.0
 40
6.0
 40
7.0
 40
7.0
 40
7.0
 40
8.0
 40
8.0
 40
8.0
 40
9.0
 40
9.0
 40
9.0
 40
10.0
 40
10.0
 40
10.0
 40
10.0
 10
53.20574461560481
 20
44.42743461345911
 10
53.20574461560481
 20
44.42743461345911
 10
53.50560572664096
 20
44.92132350222452
 10
53.50560572664096
 20
44.92132350222452
 10
53.50560572664096
 20
44.92132350222452
 10
54.63449461524763
 20
45.34465683545203
 10
55.12838350401304
 20
45.55632350206578
 10
55.62227239277846
 20
45.76799016867952
 10
55.34005017062679
 20
46.49118461294317
 10
55.34005017062679
 20
46.49118461294317
 10
55.34005017062679
 20
46.49118461294317
 10
55.69282794831637
 20
46.96743461282411
 10
55.34005017062679
 20
47.37312905716713
 10
54.98727239293721
 20
47.77882350151015
 10
54.79324461520793
 20
46.4735457240587
 10
54.79324461520793
 20
46.4735457240587
 10
54.79324461520793
 20
46.4735457240587
 10
54.4051890597494
 20
46.4735457240587
 10
54.4051890597494
 20
46.4735457240587
 10
54.4051890597494
 20
46.4735457240587
 10
52.97233939647914
 20
45.83854572421745
 10
52.97233939647914
 20
45.83854572421745
 10
52.97233939647914
 20
45.83854572421745
 10
53.02935572676002
 20
45.60924016871922
 10
52.74713350460835
 20
45.06243461330036
 10
52.46491128245668
 20
44.5156290578815
 10
52.50018906022564
 20
44.42743461345911
 10
52.50018906022564
 20
44.42743461345911
 10
52.50018906022564
 20
44.42743461345911
 10
53.20574461560481
 20
44.42743461345911
 10
53.20574461560481
 20
44.42743461345911
 97
        0
 75
     2
 76
     1
 98
        0
  0
SPLINE
  5
B8
330
3C
100
AcDbEntity
  8
Capa 1
370
     0
100
AcDbSpline
210
0.0
220
0.0
230
1.0
 70
    11
 71
     3
 72
    17
 73
    13
 74
     0
 42
0.0000000001
 43
0.0000000001
 40
0.0
 40
0.0
 40
0.0
 40
0.0
 40
1.0
 40
1.0
 40
1.0
 40
2.0
 40
2.0
 40
2.0
 40
3.0
 40
3.0
 40
3.0
 40
4.0
 40
4.0
 40
4.0
 40
4.0
 10
33.59670897597582
 20
39.15140868161839
 30
0.0
 10
34.12274060561862
 20
39.15140868161839
 30
0.0
 10
34.54917452478284
 20
39.38774223190654
 30
0.0
 10
34.54917452478284
 20
39.67930066282323
 30
0.0
 10
34.54917452478284
 20
39.97085909373992
 30
0.0
 10
34.12274060561862
 20
40.20722709498291
 30
0.0
 10
33.59670897597582
 20
40.20722709498291
 30
0.0
 10
33.07071179728788
 20
40.20722709498291
 30
0.0
 10
32.64427787812365
 20
39.97085909373992
 30
0.0
 10
32.64427787812365
 20
39.67930066282323
 30
0.0
 10
32.64427787812365
 20
39.38774223190654
 30
0.0
 10
33.07071179728788
 20
39.15140868161839
 30
0.0
 10
33.59670897597582
 20
39.15140868161839
 30
0.0
  0
HATCH
  5
B9
330
3C
100
AcDbEntity
  8
Capa 1
 62
    19
420
  4204577
100
AcDbHatch
 10
0.0
 20
0.0
 30
0.0
210
0.0
220
0.0
230
1.0
  2
SOLID
 70
     1
 71
     0
 91
        1
 92
        1
 93
        1
 72
     4
 94
        3
 73
     0
 74
     1
 95
       17
 96
       13
 40
0.0
 40
0.0
 40
0.0
 40
0.0
 40
1.0
 40
1.0
 40
1.0
 40
2.0
 40
2.0
 40
2.0
 40
3.0
 40
3.0
 40
3.0
 40
4.0
 40
4.0
 40
4.0
 40
4.0
 10
33.59670897597582
 20
39.15140868161839
 10
34.12274060561862
 20
39.15140868161839
 10
34.54917452478284
 20
39.38774223190654
 10
34.54917452478284
 20
39.67930066282323
 10
34.54917452478284
 20
39.97085909373992
 10
34.12274060561862
 20
40.20722709498291
 10
33.59670897597582
 20
40.20722709498291
 10
33.07071179728788
 20
40.20722709498291
 10
32.64427787812365
 20
39.97085909373992
 10
32.64427787812365
 20
39.67930066282323
 10
32.64427787812365
 20
39.38774223190654
 10
33.07071179728788
 20
39.15140868161839
 10
33.59670897597582
 20
39.15140868161839
 97
        0
 75
     2
 76
     1
 98
        0
  0
SPLINE
  5
BA
330
3C
100
AcDbEntity
  8
Capa 1
370
     0
100
AcDbSpline
210
0.0
220
0.0
230
1.0
 70
    11
 71
     3
 72
    17
 73
    13
 74
     0
 42
0.0000000001
 43
0.0000000001
 40
0.0
 40
0.0
 40
0.0
 40
0.0
 40
1.0
 40
1.0
 40
1.0
 40
2.0
 40
2.0
 40
2.0
 40
3.0
 40
3.0
 40
3.0
 40
4.0
 40
4.0
 40
4.0
 40
4.0
 10
40.70232176716816
 20
36.44208223915336
 30
0.0
 10
41.2854041780467
 20
36.44208223915336
 30
0.0
 10
41.75810572957784
 20
36.80464408802106
 30
0.0
 10
41.75810572957784
 20
37.25192083487104
 30
0.0
 10
41.75810572957784
 20
37.69916313076618
 30
0.0
 10
41.2854041780467
 20
38.06175943058872
 30
0.0
 10
40.70232176716816
 20
38.06175943058872
 30
0.0
 10
40.11923935628963
 20
38.06175943058872
 30
0.0
 10
39.64657225571335
 20
37.69916313076618
 30
0.0
 10
39.64657225571335
 20
37.25192083487104
 30
0.0
 10
39.64657225571335
 20
36.80464408802106
 30
0.0
 10
40.11923935628963
 20
36.44208223915336
 30
0.0
 10
40.70232176716816
 20
36.44208223915336
 30
0.0
  0
HATCH
  5
BB
330
3C
100
AcDbEntity
  8
Capa 1
 62
    29
420
  5845034
100
AcDbHatch
 10
0.0
 20
0.0
 30
0.0
210
0.0
220
0.0
230
1.0
  2
SOLID
 70
     1
 71
     0
 91
        1
 92
        1
 93
        1
 72
     4
 94
        3
 73
     0
 74
     1
 95
       17
 96
       13
 40
0.0
 40
0.0
 40
0.0
 40
0.0
 40
1.0
 40
1.0
 40
1.0
 40
2.0
 40
2.0
 40
2.0
 40
3.0
 40
3.0
 40
3.0
 40
4.0
 40
4.0
 40
4.0
 40
4.0
 10
40.70232176716816
 20
36.44208223915336
 10
41.2854041780467
 20
36.44208223915336
 10
41.75810572957784
 20
36.80464408802106
 10
41.75810572957784
 20
37.25192083487104
 10
41.75810572957784
 20
37.69916313076618
 10
41.2854041780467
 20
38.06175943058872
 10
40.70232176716816
 20
38.06175943058872
 10
40.11923935628963
 20
38.06175943058872
 10
39.64657225571335
 20
37.69916313076618
 10
39.64657225571335
 20
37.25192083487104
 10
39.64657225571335
 20
36.80464408802106
 10
40.11923935628963
 20
36.44208223915336
 10
40.70232176716816
 20
36.44208223915336
 97
        0
 75
     2
 76
     1
 98
        0
  0
POLYLINE
  5
BC
330
3C
100
AcDbEntity
  8
Capa 1
370
     0
100
AcDb2dPolyline
 66
     1
 10
0.0
 20
0.0
 30
0.0
  0
VERTEX
  5
BD
330
BC
100
AcDbEntity
  8
Capa 1
370
     0
100
AcDbVertex
100
AcDb2dVertex
 10
20.86129339756245
 20
49.68196314947187
 30
0.0
  0
VERTEX
  5
BE
330
BC
100
AcDbEntity
  8
Capa 1
370
     0
100
AcDbVertex
100
AcDb2dVertex
 10
20.86129339756245
 20
39.5555183820382
 30
0.0
  0
VERTEX
  5
BF
330
BC
100
AcDbEntity
  8
Capa 1
370
     0
100
AcDbVertex
100
AcDb2dVertex
 10
20.86129339756245
 20
33.54916665827938
 30
0.0
  0
VERTEX
  5
C0
330
BC
100
AcDbEntity
  8
Capa 1
370
     0
100
AcDbVertex
100
AcDb2dVertex
 10
21.9196267306312
 20
33.54916665827938
 30
0.0
  0
VERTEX
  5
C1
330
BC
100
AcDbEntity
  8
Capa 1
370
     0
100
AcDbVertex
100
AcDb2dVertex
 10
21.9196267306312
 20
48.62362981640312
 30
0.0
  0
VERTEX
  5
C2
330
BC
100
AcDbEntity
  8
Capa 1
370
     0
100
AcDbVertex
100
AcDb2dVertex
 10
55.49683646616051
 20
48.62362981640312
 30
0.0
  0
VERTEX
  5
C3
330
BC
100
AcDbEntity
  8
Capa 1
370
     0
100
AcDbVertex
100
AcDb2dVertex
 10
55.49683646616051
 20
49.68196314947187
 30
0.0
  0
VERTEX
  5
C4
330
BC
100
AcDbEntity
  8
Capa 1
370
     0
100
AcDbVertex
100
AcDb2dVertex
 10
46.24802977359424
 20
49.68196314947187
 30
0.0
  0
VERTEX
  5
C5
330
BC
100
AcDbEntity
  8
Capa 1
370
     0
100
AcDbVertex
100
AcDb2dVertex
 10
20.86129339756245
 20
49.68196314947187
 30
0.0
  0
SEQEND
  5
C6
330
BC
100
AcDbEntity
  8
Capa 1
370
     0
  0
HATCH
  5
C7
330
3C
100
AcDbEntity
  8
Capa 1
 62
     7
420
 16777215
100
AcDbHatch
 10
0.0
 20
0.0
 30
0.0
210
0.0
220
0.0
230
1.0
  2
SOLID
 70
     1
 71
     0
 91
        1
 92
        1
 93
        8
 72
     1
 10
20.86129339756245
 20
49.68196314947187
 11
20.86129339756245
 21
39.5555183820382
 72
     1
 10
20.86129339756245
 20
39.5555183820382
 11
20.86129339756245
 21
33.54916665827938
 72
     1
 10
20.86129339756245
 20
33.54916665827938
 11
21.9196267306312
 21
33.54916665827938
 72
     1
 10
21.9196267306312
 20
33.54916665827938
 11
21.9196267306312
 21
48.62362981640312
 72
     1
 10
21.9196267306312
 20
48.62362981640312
 11
55.49683646616052
 21
48.62362981640312
 72
     1
 10
55.49683646616051
 20
48.62362981640312
 11
55.49683646616051
 21
49.68196314947187
 72
     1
 10
55.49683646616051
 20
49.68196314947187
 11
46.24802977359424
 21
49.68196314947187
 72
     1
 10
46.24802977359424
 20
49.68196314947187
 11
20.86129339756245
 21
49.68196314947187
 97
        0
 75
     2
 76
     1
 98
        0
  0
ENDBLK
  5
3F
330
3C
100
AcDbEntity
  8
0
100
AcDbBlockEnd
  0
ENDSEC
  0
SECTION
  2
ENTITIES
  0
INSERT
  5
3D
330
1F
100
AcDbEntity
  8
Capa 1
100
AcDbBlockReference
  2
block 2
 10
0.0
 20
0.0
 30
0.0
  0
ENDSEC
  0
SECTION
  2
OBJECTS
  0
DICTIONARY
  5
C
330
0
100
AcDbDictionary
281
     1
  3
ACAD_GROUP
350
D
  3
ACAD_LAYOUT
350
1A
  3
ACAD_MLINESTYLE
350
17
  3
ACAD_PLOTSETTINGS
350
19
  3
ACAD_PLOTSTYLENAME
350
E
  3
ACAD_TABLESTYLE
350
C8
  3
ACAD_VISUALSTYLE
350
2A
  0
DICTIONARY
  5
D
102
{ACAD_REACTORS
330
C
102
}
330
C
100
AcDbDictionary
281
     1
  0
DICTIONARY
  5
1A
102
{ACAD_REACTORS
330
C
102
}
330
C
100
AcDbDictionary
281
     1
  3
Layout1
350
1E
  3
Layout2
350
26
  3
Model
350
22
  0
DICTIONARY
  5
17
102
{ACAD_REACTORS
330
C
102
}
330
C
100
AcDbDictionary
281
     1
  3
Standard
350
18
  0
DICTIONARY
  5
19
102
{ACAD_REACTORS
330
C
102
}
330
C
100
AcDbDictionary
281
     1
  0
ACDBDICTIONARYWDFLT
  5
E
102
{ACAD_REACTORS
330
C
102
}
330
C
100
AcDbDictionary
281
     1
  3
Normal
350
F
100
AcDbDictionaryWithDefault
340
F
  0
DICTIONARY
  5
C8
102
{ACAD_REACTORS
330
C
102
}
330
C
100
AcDbDictionary
281
     1
  0
DICTIONARY
  5
2A
102
{ACAD_REACTORS
330
C
102
}
330
C
100
AcDbDictionary
281
     1
  3
2dWireframe
350
2F
  3
3D Hidden
350
31
  3
3dWireframe
350
30
  3
Basic
350
32
  3
Brighten
350
36
  3
ColorChange
350
3A
  3
Conceptual
350
34
  3
Dim
350
35
  3
Facepattern
350
39
  3
Flat
350
2B
  3
FlatWithEdges
350
2C
  3
Gouraud
350
2D
  3
GouraudWithEdges
350
2E
  3
Linepattern
350
38
  3
Realistic
350
33
  3
Thicken
350
37
  0
LAYOUT
  5
1E
102
{ACAD_REACTORS
330
1A
102
}
330
1A
100
AcDbPlotSettings
  1

  2
none_device
  4

  6

 40
0.0
 41
0.0
 42
0.0
 43
0.0
 44
0.0
 45
0.0
 46
0.0
 47
0.0
 48
0.0
 49
0.0
140
0.0
141
0.0
142
1.0
143
1.0
 70
   688
 72
     0
 73
     0
 74
     5
  7

 75
    16
 76
     0
 77
     2
 78
   300
147
1.0
148
0.0
149
0.0
100
AcDbLayout
  1
Layout1
 70
     1
 71
     1
 10
0.0
 20
0.0
 11
12.0
 21
9.0
 12
0.0
 22
0.0
 32
0.0
 14
1.000000000000000E+20
 24
1.000000000000000E+20
 34
1.000000000000000E+20
 15
-1.000000000000000E+20
 25
-1.000000000000000E+20
 35
-1.000000000000000E+20
146
0.0
 13
0.0
 23
0.0
 33
0.0
 16
1.0
 26
0.0
 36
0.0
 17
0.0
 27
1.0
 37
0.0
 76
     0
330
1B
  0
LAYOUT
  5
26
102
{ACAD_REACTORS
330
1A
102
}
330
1A
100
AcDbPlotSettings
  1

  2
none_device
  4

  6

 40
0.0
 41
0.0
 42
0.0
 43
0.0
 44
0.0
 45
0.0
 46
0.0
 47
0.0
 48
0.0
 49
0.0
140
0.0
141
0.0
142
1.0
143
1.0
 70
   688
 72
     0
 73
     0
 74
     5
  7

 75
    16
 76
     0
 77
     2
 78
   300
147
1.0
148
0.0
149
0.0
100
AcDbLayout
  1
Layout2
 70
     1
 71
     2
 10
0.0
 20
0.0
 11
0.0
 21
0.0
 12
0.0
 22
0.0
 32
0.0
 14
0.0
 24
0.0
 34
0.0
 15
0.0
 25
0.0
 35
0.0
146
0.0
 13
0.0
 23
0.0
 33
0.0
 16
1.0
 26
0.0
 36
0.0
 17
0.0
 27
1.0
 37
0.0
 76
     0
330
23
  0
LAYOUT
  5
22
102
{ACAD_REACTORS
330
1A
102
}
330
1A
100
AcDbPlotSettings
  1

  2
none_device
  4

  6

 40
0.0
 41
0.0
 42
0.0
 43
0.0
 44
0.0
 45
0.0
 46
0.0
 47
0.0
 48
0.0
 49
0.0
140
0.0
141
0.0
142
1.0
143
1.0
 70
  1712
 72
     0
 73
     0
 74
     0
  7

 75
     0
 76
     0
 77
     2
 78
   300
147
1.0
148
0.0
149
0.0
100
AcDbLayout
  1
Model
 70
     1
 71
     0
 10
0.0
 20
0.0
 11
12.0
 21
9.0
 12
0.0
 22
0.0
 32
0.0
 14
1.000000000000000E+20
 24
1.000000000000000E+20
 34
1.000000000000000E+20
 15
-1.000000000000000E+20
 25
-1.000000000000000E+20
 35
-1.000000000000000E+20
146
0.0
 13
0.0
 23
0.0
 33
0.0
 16
1.0
 26
0.0
 36
0.0
 17
0.0
 27
1.0
 37
0.0
 76
     0
330
1F
331
29
  0
MLINESTYLE
  5
18
102
{ACAD_REACTORS
330
17
102
}
330
17
100
AcDbMlineStyle
  2
Standard
 70
     0
  3

 62
   256
 51
90.0
 52
90.0
 71
     2
 49
0.5
 62
   256
  6
BYLAYER
 49
-0.5
 62
   256
  6
BYLAYER
  0
ACDBPLACEHOLDER
  5
F
102
{ACAD_REACTORS
330
E
102
}
330
E
  0
VISUALSTYLE
  5
2F
102
{ACAD_REACTORS
330
2A
102
}
330
2A
100
AcDbVisualStyle
  2
2dWireframe
 70
     4
 71
     0
 72
     2
 73
     0
 90
        0
 40
-0.6
 41
-30.0
 62
     5
 63
     7
421
 16777215
 74
     1
 91
        4
 64
     7
 65
   257
 75
     1
175
     1
 42
1.0
 92
        0
 66
   257
 43
1.0
 76
     1
 77
     6
 78
     2
 67
     7
 79
     5
170
     0
171
     0
290
     0
174
     0
 93
        1
 44
0.0
173
     0
291
     0
 45
0.0
1001
ACAD
1000
AcDbSavedByObjectVersion
1070
     0
  0
VISUALSTYLE
  5
31
102
{ACAD_REACTORS
330
2A
102
}
330
2A
100
AcDbVisualStyle
  2
3D Hidden
 70
     6
 71
     1
 72
     2
 73
     2
 90
        0
 40
-0.6
 41
-30.0
 62
     5
 63
     7
421
 16777215
 74
     2
 91
        2
 64
     7
 65
   257
 75
     2
175
     1
 42
40.0
 92
        0
 66
   257
 43
1.0
 76
     1
 77
     6
 78
     2
 67
     7
 79
     3
170
     0
171
     0
290
     0
174
     0
 93
        1
 44
0.0
173
     0
291
     0
 45
0.0
1001
ACAD
1000
AcDbSavedByObjectVersion
1070
     0
  0
VISUALSTYLE
  5
30
102
{ACAD_REACTORS
330
2A
102
}
330
2A
100
AcDbVisualStyle
  2
3dWireframe
 70
     5
 71
     0
 72
     2
 73
     0
 90
        0
 40
-0.6
 41
-30.0
 62
     5
 63
     7
421
 16777215
 74
     1
 91
        4
 64
     7
 65
   257
 75
     1
175
     1
 42
1.0
 92
        0
 66
   257
 43
1.0
 76
     1
 77
     6
 78
     2
 67
     7
 79
     5
170
     0
171
     0
290
     0
174
     0
 93
        1
 44
0.0
173
     0
291
     0
 45
0.0
1001
ACAD
1000
AcDbSavedByObjectVersion
1070
     0
  0
VISUALSTYLE
  5
32
102
{ACAD_REACTORS
330
2A
102
}
330
2A
100
AcDbVisualStyle
  2
Basic
 70
     7
 71
     1
 72
     0
 73
     1
 90
        0
 40
-0.6
 41
-30.0
 62
     5
 63
     7
421
 16777215
 74
     0
 91
        4
 64
     7
 65
   257
 75
     1
175
     1
 42
1.0
 92
        8
 66
     7
 43
1.0
 76
     1
 77
     6
 78
     2
 67
     7
 79
     5
170
     0
171
     0
290
     0
174
     0
 93
        1
 44
0.0
173
     0
291
     1
 45
0.0
1001
ACAD
1000
AcDbSavedByObjectVersion
1070
     0
  0
VISUALSTYLE
  5
36
102
{ACAD_REACTORS
330
2A
102
}
330
2A
100
AcDbVisualStyle
  2
Brighten
 70
    12
 71
     2
 72
     2
 73
     0
 90
        0
 40
-0.6
 41
-30.0
 62
     5
 63
     7
421
 16777215
 74
     1
 91
        4
 64
     7
 65
   257
 75
     1
175
     1
 42
1.0
 92
        8
 66
     7
 43
1.0
 76
     1
 77
     6
 78
     2
 67
     7
 79
     5
170
     0
171
     0
290
     0
174
     0
 93
        1
 44
50.0
173
     0
291
     1
 45
0.0
1001
ACAD
1000
AcDbSavedByObjectVersion
1070
     0
  0
VISUALSTYLE
  5
3A
102
{ACAD_REACTORS
330
2A
102
}
330
2A
100
AcDbVisualStyle
  2
ColorChange
 70
    16
 71
     2
 72
     2
 73
     3
 90
        0
 40
-0.6
 41
-30.0
 62
     5
 63
     8
421
  8421504
 74
     1
 91
        4
 64
     7
 65
   257
 75
     1
175
     1
 42
1.0
 92
        8
 66
     8
424
  8421504
 43
1.0
 76
     1
 77
     6
 78
     2
 67
     7
 79
     5
170
     0
171
     0
290
     0
174
     0
 93
        1
 44
0.0
173
     0
291
     1
 45
0.0
1001
ACAD
1000
AcDbSavedByObjectVersion
1070
     0
  0
VISUALSTYLE
  5
34
102
{ACAD_REACTORS
330
2A
102
}
330
2A
100
AcDbVisualStyle
  2
Conceptual
 70
     9
 71
     3
 72
     2
 73
     0
 90
        0
 40
-0.6
 41
-30.0
 62
     5
 63
     7
421
 16777215
 74
     2
 91
        2
 64
     7
 65
   257
 75
     1
175
     1
 42
40.0
 92
        8
 66
     7
 43
1.0
 76
     1
 77
     6
 78
     2
 67
     7
 79
     3
170
     0
171
     0
290
     0
174
     0
 93
        1
 44
0.0
173
     0
291
     0
 45
0.0
1001
ACAD
1000
AcDbSavedByObjectVersion
1070
     0
  0
VISUALSTYLE
  5
35
102
{ACAD_REACTORS
330
2A
102
}
330
2A
100
AcDbVisualStyle
  2
Dim
 70
    11
 71
     2
 72
     2
 73
     0
 90
        0
 40
-0.6
 41
-30.0
 62
     5
 63
     7
421
 16777215
 74
     1
 91
        4
 64
     7
 65
   257
 75
     1
175
     1
 42
1.0
 92
        8
 66
     7
 43
1.0
 76
     1
 77
     6
 78
     2
 67
     7
 79
     5
170
     0
171
     0
290
     0
174
     0
 93
        1
 44
-50.0
173
     0
291
     1
 45
0.0
1001
ACAD
1000
AcDbSavedByObjectVersion
1070
     0
  0
VISUALSTYLE
  5
39
102
{ACAD_REACTORS
330
2A
102
}
330
2A
100
AcDbVisualStyle
  2
Facepattern
 70
    15
 71
     2
 72
     2
 73
     0
 90
        0
 40
-0.6
 41
-30.0
 62
     5
 63
     7
421
 16777215
 74
     1
 91
        4
 64
     7
 65
   257
 75
     1
175
     1
 42
1.0
 92
        8
 66
     7
 43
1.0
 76
     1
 77
     6
 78
     2
 67
     7
 79
     5
170
     0
171
     0
290
     0
174
     0
 93
        1
 44
0.0
173
     0
291
     1
 45
0.0
1001
ACAD
1000
AcDbSavedByObjectVersion
1070
     0
  0
VISUALSTYLE
  5
2B
102
{ACAD_REACTORS
330
2A
102
}
330
2A
100
AcDbVisualStyle
  2
Flat
 70
     0
 71
     2
 72
     1
 73
     1
 90
        2
 40
-0.6
 41
30.0
 62
     5
 63
     7
421
 16777215
 74
     0
 91
        4
 64
     7
 65
   257
 75
     1
175
     1
 42
1.0
 92
        8
 66
     7
 43
1.0
 76
     1
 77
     6
 78
     2
 67
     7
 79
     5
170
     0
171
     0
290
     0
174
     0
 93
       13
 44
0.0
173
     0
291
     1
 45
0.0
1001
ACAD
1000
AcDbSavedByObjectVersion
1070
     0
  0
VISUALSTYLE
  5
2C
102
{ACAD_REACTORS
330
2A
102
}
330
2A
100
AcDbVisualStyle
  2
FlatWithEdges
 70
     1
 71
     2
 72
     1
 73
     1
 90
        2
 40
-0.6
 41
30.0
 62
     5
 63
     7
421
 16777215
 74
     1
 91
        4
 64
     7
 65
   257
 75
     1
175
     1
 42
1.0
 92
        0
 66
   257
 43
1.0
 76
     1
 77
     6
 78
     2
 67
     7
 79
     5
170
     0
171
     0
290
     0
174
     0
 93
       13
 44
0.0
173
     0
291
     1
 45
0.0
1001
ACAD
1000
AcDbSavedByObjectVersion
1070
     0
  0
VISUALSTYLE
  5
2D
102
{ACAD_REACTORS
330
2A
102
}
330
2A
100
AcDbVisualStyle
  2
Gouraud
 70
     2
 71
     2
 72
     2
 73
     1
 90
        2
 40
-0.6
 41
30.0
 62
     5
 63
     7
421
 16777215
 74
     0
 91
        4
 64
     7
 65
   257
 75
     1
175
     1
 42
1.0
 92
        0
 66
     7
 43
1.0
 76
     1
 77
     6
 78
     2
 67
     7
 79
     5
170
     0
171
     0
290
     0
174
     0
 93
       13
 44
0.0
173
     0
291
     1
 45
0.0
1001
ACAD
1000
AcDbSavedByObjectVersion
1070
     0
  0
VISUALSTYLE
  5
2E
102
{ACAD_REACTORS
330
2A
102
}
330
2A
100
AcDbVisualStyle
  2
GouraudWithEdges
 70
     3
 71
     2
 72
     2
 73
     1
 90
        2
 40
-0.6
 41
30.0
 62
     5
 63
     7
421
 16777215
 74
     1
 91
        4
 64
     7
 65
   257
 75
     1
175
     1
 42
1.0
 92
        0
 66
   257
 43
1.0
 76
     1
 77
     6
 78
     2
 67
     7
 79
     5
170
     0
171
     0
290
     0
174
     0
 93
       13
 44
0.0
173
     0
291
     1
 45
0.0
1001
ACAD
1000
AcDbSavedByObjectVersion
1070
     0
  0
VISUALSTYLE
  5
38
102
{ACAD_REACTORS
330
2A
102
}
330
2A
100
AcDbVisualStyle
  2
Linepattern
 70
    14
 71
     2
 72
     2
 73
     0
 90
        0
 40
-0.6
 41
-30.0
 62
     5
 63
     7
421
 16777215
 74
     1
 91
        4
 64
     7
 65
   257
 75
     7
175
     7
 42
1.0
 92
        8
 66
     7
 43
1.0
 76
     1
 77
     6
 78
     2
 67
     7
 79
     5
170
     0
171
     0
290
     0
174
     0
 93
        1
 44
0.0
173
     0
291
     1
 45
0.0
1001
ACAD
1000
AcDbSavedByObjectVersion
1070
     0
  0
VISUALSTYLE
  5
33
102
{ACAD_REACTORS
330
2A
102
}
330
2A
100
AcDbVisualStyle
  2
Realistic
 70
     8
 71
     2
 72
     2
 73
     0
 90
        0
 40
-0.6
 41
-30.0
 62
     5
 63
     7
421
 16777215
 74
     1
 91
        0
 64
     7
 65
   257
 75
     1
175
     1
 42
1.0
 92
        8
 66
     8
424
  7895160
 43
1.0
 76
     1
 77
     6
 78
     2
 67
     7
 79
     5
170
     0
171
     0
290
     0
174
     0
 93
       13
 44
0.0
173
     0
291
     0
 45
0.0
1001
ACAD
1000
AcDbSavedByObjectVersion
1070
     0
  0
VISUALSTYLE
  5
37
102
{ACAD_REACTORS
330
2A
102
}
330
2A
100
AcDbVisualStyle
  2
Thicken
 70
    13
 71
     2
 72
     2
 73
     0
 90
        0
 40
-0.6
 41
-30.0
 62
     5
 63
     7
421
 16777215
 74
     1
 91
        4
 64
     7
 65
   257
 75
     1
175
     1
 42
1.0
 92
       12
 66
     7
 43
1.0
 76
     1
 77
     6
 78
     2
 67
     7
 79
     5
170
     0
171
     0
290
     0
174
     0
 93
        1
 44
0.0
173
     0
291
     1
 45
0.0
1001
ACAD
1000
AcDbSavedByObjectVersion
1070
     0
  0
ENDSEC
  0
EOF
