  0
SECTION
  2
HEADER
  9
$ACADVER
  1
AC1009
  9
$EXTMIN
 10
-691.87925950
 20
-1405.19557352
 30
0.0
  9
$EXTMAX
 10
89.32184746
 20
242.78990836
 30
0.0
  0
ENDSEC
  0
SECTION
  2
TABLES
  0
TABLE
  2
LAYER
 70
1
 0
LAYER
 2
Default_Layer
 70
0
 62
18
 6
CONTINUOUS
 0
ENDTAB
 0
ENDSEC
  0
SECTION
  2
ENTITIES
  0
POLYLINE
  8
Default_Layer
 62
256
 66
   1
 39
0.000000
 70
    1
  0
VERTEX
  8
0
 10
-41.90707365
 20
242.78990836
  0
VERTEX
  8
0
 10
-41.90707365
 20
227.87150390
  0
VERTEX
  8
0
 10
-44.90707365
 20
227.87150390
  0
VERTEX
  8
0
 10
-44.90707365
 20
242.78979058
  0
VERTEX
  8
0
 10
-46.40542442
 20
242.72318980
  0
VERTEX
  8
0
 10
-47.89179057
 20
242.61306564
  0
VERTEX
  8
0
 10
-49.36556322
 20
242.46004460
  0
VERTEX
  8
0
 10
-50.82613347
 20
242.26475321
  0
VERTEX
  8
0
 10
-52.27289244
 20
242.02781795
  0
VERTEX
  8
0
 10
-53.70523126
 20
241.74986534
  0
VERTEX
  8
0
 10
-55.12254103
 20
241.43152187
  0
VERTEX
  8
0
 10
-56.52421287
 20
241.07341407
  0
VERTEX
  8
0
 10
-57.90963790
 20
240.67616843
  0
VERTEX
  8
0
 10
-59.27820724
 20
240.24041145
  0
VERTEX
  8
0
 10
-60.62931199
 20
239.76676965
  0
VERTEX
  8
0
 10
-61.96234328
 20
239.25586953
  0
VERTEX
  8
0
 10
-63.27669223
 20
238.70833760
  0
VERTEX
  8
0
 10
-64.57174994
 20
238.12480035
  0
VERTEX
  8
0
 10
-65.84690753
 20
237.50588431
  0
VERTEX
  8
0
 10
-67.10155612
 20
236.85221596
  0
VERTEX
  8
0
 10
-59.63770326
 20
223.92444359
  0
VERTEX
  8
0
 10
-62.23577947
 20
222.42444359
  0
VERTEX
  8
0
 10
-69.69812837
 20
235.34961102
  0
VERTEX
  8
0
 10
-70.92292195
 20
234.56589141
  0
VERTEX
  8
0
 10
-72.12293902
 20
233.74811238
  0
VERTEX
  8
0
 10
-73.29750632
 20
232.89695306
  0
VERTEX
  8
0
 10
-74.44595059
 20
232.01309258
  0
VERTEX
  8
0
 10
-75.56759855
 20
231.09721007
  0
VERTEX
  8
0
 10
-76.66177694
 20
230.14998468
  0
VERTEX
  8
0
 10
-77.72781250
 20
229.17209553
  0
VERTEX
  8
0
 10
-78.76503197
 20
228.16422175
  0
VERTEX
  8
0
 10
-79.77276206
 20
227.12704247
  0
VERTEX
  8
0
 10
-80.75032953
 20
226.06123684
  0
VERTEX
  8
0
 10
-81.69706110
 20
224.96748398
  0
VERTEX
  8
0
 10
-82.61228352
 20
223.84646303
  0
VERTEX
  8
0
 10
-83.49532350
 20
222.69885312
  0
VERTEX
  8
0
 10
-84.34550780
 20
221.52533337
  0
VERTEX
  8
0
 10
-85.16216313
 20
220.32658294
  0
VERTEX
  8
0
 10
-85.94461624
 20
219.10328094
  0
VERTEX
  8
0
 10
-73.01934878
 20
211.64087429
  0
VERTEX
  8
0
 10
-74.51934878
 20
209.04279807
  0
VERTEX
  8
0
 10
-87.44705869
 20
216.50661487
  0
VERTEX
  8
0
 10
-88.10035985
 20
215.25385951
  0
VERTEX
  8
0
 10
-88.71904451
 20
213.98011179
  0
VERTEX
  8
0
 10
-89.30246780
 20
212.68603013
  0
VERTEX
  8
0
 10
-89.84998487
 20
211.37227298
  0
VERTEX
  8
0
 10
-90.36095084
 20
210.03949876
  0
VERTEX
  8
0
 10
-90.83472086
 20
208.68836592
  0
VERTEX
  8
0
 10
-91.27065004
 20
207.31953288
  0
VERTEX
  8
0
 10
-91.66809354
 20
205.93365808
  0
VERTEX
  8
0
 10
-92.02640647
 20
204.53139995
  0
VERTEX
  8
0
 10
-92.34494399
 20
203.11341694
  0
VERTEX
  8
0
 10
-92.62306121
 20
201.68036747
  0
VERTEX
  8
0
 10
-92.86011328
 20
200.23290997
  0
VERTEX
  8
0
 10
-93.05545533
 20
198.77170289
  0
VERTEX
  8
0
 10
-93.20844249
 20
197.29740465
  0
VERTEX
  8
0
 10
-93.31842991
 20
195.81067370
  0
VERTEX
  8
0
 10
-93.38477270
 20
194.31216846
  0
VERTEX
  8
0
 10
-78.46640909
 20
194.31216846
  0
VERTEX
  8
0
 10
-78.46640909
 20
191.31216846
  0
VERTEX
  8
0
 10
-93.38481035
 20
191.31216846
  0
VERTEX
  8
0
 10
-93.33238796
 20
190.07648204
  0
VERTEX
  8
0
 10
-93.25033199
 20
188.84874433
  0
VERTEX
  8
0
 10
-93.13899330
 20
187.62930529
  0
VERTEX
  8
0
 10
-92.99872277
 20
186.41851492
  0
VERTEX
  8
0
 10
-92.82987125
 20
185.21672319
  0
VERTEX
  8
0
 10
-92.63278963
 20
184.02428009
  0
VERTEX
  8
0
 10
-92.40782877
 20
182.84153560
  0
VERTEX
  8
0
 10
-92.15533954
 20
181.66883970
  0
VERTEX
  8
0
 10
-91.87567280
 20
180.50654237
  0
VERTEX
  8
0
 10
-91.56917943
 20
179.35499360
  0
VERTEX
  8
0
 10
-91.23621030
 20
178.21454336
  0
VERTEX
  8
0
 10
-90.87711627
 20
177.08554165
  0
VERTEX
  8
0
 10
-90.49224821
 20
175.96833844
  0
VERTEX
  8
0
 10
-90.08195700
 20
174.86328371
  0
VERTEX
  8
0
 10
-89.64659350
 20
173.77072744
  0
VERTEX
  8
0
 10
-89.18650858
 20
172.69101963
  0
VERTEX
  8
0
 10
-88.70205310
 20
171.62451024
  0
VERTEX
  8
0
 10
-88.19357795
 20
170.57154927
  0
VERTEX
  8
0
 10
-87.66143398
 20
169.53248670
  0
VERTEX
  8
0
 10
-87.10597207
 20
168.50767249
  0
VERTEX
  8
0
 10
-86.52754308
 20
167.49745665
  0
VERTEX
  8
0
 10
-85.92649789
 20
166.50218915
  0
VERTEX
  8
0
 10
-85.30318735
 20
165.52221997
  0
VERTEX
  8
0
 10
-84.65796235
 20
164.55789910
  0
VERTEX
  8
0
 10
-83.99117376
 20
163.60957652
  0
VERTEX
  8
0
 10
-83.30317243
 20
162.67760220
  0
VERTEX
  8
0
 10
-82.59430924
 20
161.76232614
  0
VERTEX
  8
0
 10
-81.86493505
 20
160.86409831
  0
VERTEX
  8
0
 10
-81.11540074
 20
159.98326869
  0
VERTEX
  8
0
 10
-80.34605718
 20
159.12018728
  0
VERTEX
  8
0
 10
-79.55725523
 20
158.27520404
  0
VERTEX
  8
0
 10
-78.74934577
 20
157.44866897
  0
VERTEX
  8
0
 10
-77.92267966
 20
156.64093204
  0
VERTEX
  8
0
 10
-77.07760777
 20
155.85234324
  0
VERTEX
  8
0
 10
-76.21448096
 20
155.08325254
  0
VERTEX
  8
0
 10
-75.33365012
 20
154.33400994
  0
VERTEX
  8
0
 10
-74.43546610
 20
153.60496541
  0
VERTEX
  8
0
 10
-73.52027979
 20
152.89646894
  0
VERTEX
  8
0
 10
-72.58844203
 20
152.20887050
  0
VERTEX
  8
0
 10
-71.64030371
 20
151.54252008
  0
VERTEX
  8
0
 10
-70.67621570
 20
150.89776766
  0
VERTEX
  8
0
 10
-69.69652886
 20
150.27496323
  0
VERTEX
  8
0
 10
-68.70159405
 20
149.67445676
  0
VERTEX
  8
0
 10
-67.69176216
 20
149.09659824
  0
VERTEX
  8
0
 10
-66.66738405
 20
148.54173766
  0
VERTEX
  8
0
 10
-65.62881059
 20
148.01022498
  0
VERTEX
  8
0
 10
-64.57639264
 20
147.50241020
  0
VERTEX
  8
0
 10
-63.51048108
 20
147.01864329
  0
VERTEX
  8
0
 10
-62.43142677
 20
146.55927424
  0
VERTEX
  8
0
 10
-61.33958059
 20
146.12465303
  0
VERTEX
  8
0
 10
-60.23529340
 20
145.71512965
  0
VERTEX
  8
0
 10
-59.11891607
 20
145.33105407
  0
VERTEX
  8
0
 10
-57.99079948
 20
144.97277628
  0
VERTEX
  8
0
 10
-56.85129448
 20
144.64064626
  0
VERTEX
  8
0
 10
-55.70075195
 20
144.33501398
  0
VERTEX
  8
0
 10
-54.53952276
 20
144.05622945
  0
VERTEX
  8
0
 10
-53.36795777
 20
143.80464262
  0
VERTEX
  8
0
 10
-52.18640786
 20
143.58060350
  0
VERTEX
  8
0
 10
-50.99522390
 20
143.38446206
  0
VERTEX
  8
0
 10
-49.79475675
 20
143.21656827
  0
VERTEX
  8
0
 10
-48.58535728
 20
143.07727213
  0
VERTEX
  8
0
 10
-47.36737636
 20
142.96692362
  0
VERTEX
  8
0
 10
-46.14116486
 20
142.88587272
  0
VERTEX
  8
0
 10
-44.90707365
 20
142.83446940
  0
VERTEX
  8
0
 10
-44.90707365
 20
157.75283302
  0
VERTEX
  8
0
 10
-41.90707365
 20
157.75283302
  0
VERTEX
  8
0
 10
-41.90707365
 20
142.83454634
  0
VERTEX
  8
0
 10
-40.40872287
 20
142.90114712
  0
VERTEX
  8
0
 10
-38.92235672
 20
143.01127128
  0
VERTEX
  8
0
 10
-37.44858408
 20
143.16429231
  0
VERTEX
  8
0
 10
-35.98801383
 20
143.35958371
  0
VERTEX
  8
0
 10
-34.54125485
 20
143.59651897
  0
VERTEX
  8
0
 10
-33.10891604
 20
143.87447158
  0
VERTEX
  8
0
 10
-31.69160627
 20
144.19281504
  0
VERTEX
  8
0
 10
-30.28993442
 20
144.55092285
  0
VERTEX
  8
0
 10
-28.90450939
 20
144.94816849
  0
VERTEX
  8
0
 10
-27.53594006
 20
145.38392546
  0
VERTEX
  8
0
 10
-26.18483530
 20
145.85756726
  0
VERTEX
  8
0
 10
-24.85180401
 20
146.36846738
  0
VERTEX
  8
0
 10
-23.53745507
 20
146.91599932
  0
VERTEX
  8
0
 10
-22.24239736
 20
147.49953656
  0
VERTEX
  8
0
 10
-20.96723977
 20
148.11845261
  0
VERTEX
  8
0
 10
-19.71259117
 20
148.77212096
  0
VERTEX
  8
0
 10
-27.17644403
 20
161.69989333
  0
VERTEX
  8
0
 10
-24.57836782
 20
163.19989333
  0
VERTEX
  8
0
 10
-17.11601893
 20
150.27472590
  0
VERTEX
  8
0
 10
-15.89122535
 20
151.05844551
  0
VERTEX
  8
0
 10
-14.69120828
 20
151.87622454
  0
VERTEX
  8
0
 10
-13.51664097
 20
152.72738386
  0
VERTEX
  8
0
 10
-12.36819671
 20
153.61124434
  0
VERTEX
  8
0
 10
-11.24654875
 20
154.52712684
  0
VERTEX
  8
0
 10
-10.15237035
 20
155.47435224
  0
VERTEX
  8
0
 10
-9.08633479
 20
156.45224139
  0
VERTEX
  8
0
 10
-8.04911533
 20
157.46011517
  0
VERTEX
  8
0
 10
-7.04138523
 20
158.49729444
  0
VERTEX
  8
0
 10
-6.06381776
 20
159.56310007
  0
VERTEX
  8
0
 10
-5.11708619
 20
160.65685293
  0
VERTEX
  8
0
 10
-4.20186378
 20
161.77787389
  0
VERTEX
  8
0
 10
-3.31882379
 20
162.92548380
  0
VERTEX
  8
0
 10
-2.46863950
 20
164.09900354
  0
VERTEX
  8
0
 10
-1.65198416
 20
165.29775398
  0
VERTEX
  8
0
 10
-0.86953105
 20
166.52105598
  0
VERTEX
  8
0
 10
-13.79479851
 20
173.98346263
  0
VERTEX
  8
0
 10
-12.29479851
 20
176.58153884
  0
VERTEX
  8
0
 10
0.63291139
 20
169.11772205
  0
VERTEX
  8
0
 10
1.28621255
 20
170.37047741
  0
VERTEX
  8
0
 10
1.90489721
 20
171.64422513
  0
VERTEX
  8
0
 10
2.48832051
 20
172.93830679
  0
VERTEX
  8
0
 10
3.03583758
 20
174.25206394
  0
VERTEX
  8
0
 10
3.54680355
 20
175.58483816
  0
VERTEX
  8
0
 10
4.02057356
 20
176.93597100
  0
VERTEX
  8
0
 10
4.45650275
 20
178.30480404
  0
VERTEX
  8
0
 10
4.85394624
 20
179.69067884
  0
VERTEX
  8
0
 10
5.21225918
 20
181.09293696
  0
VERTEX
  8
0
 10
5.53079669
 20
182.51091998
  0
VERTEX
  8
0
 10
5.80891392
 20
183.94396945
  0
VERTEX
  8
0
 10
6.04596599
 20
185.39142695
  0
VERTEX
  8
0
 10
6.24130804
 20
186.85263403
  0
VERTEX
  8
0
 10
6.39429520
 20
188.32693226
  0
VERTEX
  8
0
 10
6.50428261
 20
189.81366322
  0
VERTEX
  8
0
 10
6.57062541
 20
191.31216846
  0
VERTEX
  8
0
 10
-8.34773820
 20
191.31216846
  0
VERTEX
  8
0
 10
-8.34773820
 20
194.31216846
  0
VERTEX
  8
0
 10
6.57062541
 20
194.31216846
  0
VERTEX
  8
0
 10
6.51953062
 20
195.54655310
  0
VERTEX
  8
0
 10
6.43874455
 20
196.77307029
  0
VERTEX
  8
0
 10
6.32861884
 20
197.99136813
  0
VERTEX
  8
0
 10
6.18950510
 20
199.20109468
  0
VERTEX
  8
0
 10
6.02175496
 20
200.40189805
  0
VERTEX
  8
0
 10
5.82572003
 20
201.59342631
  0
VERTEX
  8
0
 10
5.60175193
 20
202.77532756
  0
VERTEX
  8
0
 10
5.35020230
 20
203.94724989
  0
VERTEX
  8
0
 10
5.07142275
 20
205.10884137
  0
VERTEX
  8
0
 10
4.76576490
 20
206.25975010
  0
VERTEX
  8
0
 10
4.43358037
 20
207.39962417
  0
VERTEX
  8
0
 10
4.07522080
 20
208.52811166
  0
VERTEX
  8
0
 10
3.69103779
 20
209.64486065
  0
VERTEX
  8
0
 10
3.28138297
 20
210.74951924
  0
VERTEX
  8
0
 10
2.84660796
 20
211.84173552
  0
VERTEX
  8
0
 10
2.38706438
 20
212.92115756
  0
VERTEX
  8
0
 10
1.90310387
 20
213.98743346
  0
VERTEX
  8
0
 10
1.39507803
 20
215.04021131
  0
VERTEX
  8
0
 10
0.86333848
 20
216.07913918
  0
VERTEX
  8
0
 10
0.30823686
 20
217.10386518
  0
VERTEX
  8
0
 10
-0.26987522
 20
218.11403738
  0
VERTEX
  8
0
 10
-0.87064613
 20
219.10930387
  0
VERTEX
  8
0
 10
-1.49372426
 20
220.08931274
  0
VERTEX
  8
0
 10
-2.13875797
 20
221.05371208
  0
VERTEX
  8
0
 10
-2.80539566
 20
222.00214997
  0
VERTEX
  8
0
 10
-3.49328570
 20
222.93427450
  0
VERTEX
  8
0
 10
-4.20207646
 20
223.84973376
  0
VERTEX
  8
0
 10
-4.93141633
 20
224.74817584
  0
VERTEX
  8
0
 10
-5.68095368
 20
225.62924882
  0
VERTEX
  8
0
 10
-6.45033689
 20
226.49260079
  0
VERTEX
  8
0
 10
-7.23921434
 20
227.33787983
  0
VERTEX
  8
0
 10
-8.04723441
 20
228.16473404
  0
VERTEX
  8
0
 10
-8.87404548
 20
228.97281150
  0
VERTEX
  8
0
 10
-9.71929591
 20
229.76176029
  0
VERTEX
  8
0
 10
-10.58263410
 20
230.53122852
  0
VERTEX
  8
0
 10
-11.46370842
 20
231.28086425
  0
VERTEX
  8
0
 10
-12.36216725
 20
232.01031558
  0
VERTEX
  8
0
 10
-13.27765896
 20
232.71923060
  0
VERTEX
  8
0
 10
-14.20983194
 20
233.40725739
  0
VERTEX
  8
0
 10
-15.15833456
 20
234.07404405
  0
VERTEX
  8
0
 10
-16.12281521
 20
234.71923865
  0
VERTEX
  8
0
 10
-17.10292225
 20
235.34248928
  0
VERTEX
  8
0
 10
-18.09830407
 20
235.94344404
  0
VERTEX
  8
0
 10
-19.10860904
 20
236.52175101
  0
VERTEX
  8
0
 10
-20.13348555
 20
237.07705827
  0
VERTEX
  8
0
 10
-21.17258197
 20
237.60901391
  0
VERTEX
  8
0
 10
-22.22554668
 20
238.11726603
  0
VERTEX
  8
0
 10
-23.29202806
 20
238.60146270
  0
VERTEX
  8
0
 10
-24.37167449
 20
239.06125202
  0
VERTEX
  8
0
 10
-25.46413434
 20
239.49628207
  0
VERTEX
  8
0
 10
-26.56905600
 20
239.90620094
  0
VERTEX
  8
0
 10
-27.68608783
 20
240.29065671
  0
VERTEX
  8
0
 10
-28.81487822
 20
240.64929748
  0
VERTEX
  8
0
 10
-29.95507556
 20
240.98177132
  0
VERTEX
  8
0
 10
-31.10632820
 20
241.28772634
  0
VERTEX
  8
0
 10
-32.26828455
 20
241.56681061
  0
VERTEX
  8
0
 10
-33.44059296
 20
241.81867222
  0
VERTEX
  8
0
 10
-34.62290183
 20
242.04295925
  0
VERTEX
  8
0
 10
-35.81485952
 20
242.23931981
  0
VERTEX
  8
0
 10
-37.01611442
 20
242.40740196
  0
VERTEX
  8
0
 10
-38.22631490
 20
242.54685381
  0
VERTEX
  8
0
 10
-39.44510935
 20
242.65732343
  0
VERTEX
  8
0
 10
-40.67214614
 20
242.73845892
  0
VERTEX
  8
0
 10
-41.90707365
 20
242.78990836
  0
SEQEND
  0
POLYLINE
  8
Default_Layer
 62
256
 66
   1
 39
0.000000
 70
    1
  0
VERTEX
  8
0
 10
-674.50828650
 20
-1366.05895113
 42
-0.49074015
  0
VERTEX
  8
0
 10
-671.60823329
 20
-1366.05895113
  0
VERTEX
  8
0
 10
-653.45614604
 20
-1399.73781048
  0
VERTEX
  8
0
 10
-652.70760220
 20
-1399.76816534
  0
VERTEX
  8
0
 10
-651.98218778
 20
-1399.82856629
  0
VERTEX
  8
0
 10
-651.28337463
 20
-1399.92145360
  0
VERTEX
  8
0
 10
-650.61463465
 20
-1400.04926754
  0
VERTEX
  8
0
 10
-649.97943972
 20
-1400.21444840
  0
VERTEX
  8
0
 10
-649.38126170
 20
-1400.41943645
  0
VERTEX
  8
0
 10
-648.82357248
 20
-1400.66667198
  0
VERTEX
  8
0
 10
-648.56099614
 20
-1400.80689512
  0
VERTEX
  8
0
 10
-648.30984395
 20
-1400.95859524
  0
VERTEX
  8
0
 10
-648.07054989
 20
-1401.12207737
  0
VERTEX
  8
0
 10
-647.84354797
 20
-1401.29764654
  0
VERTEX
  8
0
 10
-647.62927215
 20
-1401.48560778
  0
VERTEX
  8
0
 10
-647.42815642
 20
-1401.68626613
  0
VERTEX
  8
0
 10
-647.24063477
 20
-1401.89992663
  0
VERTEX
  8
0
 10
-647.06714119
 20
-1402.12689430
  0
VERTEX
  8
0
 10
-646.90810966
 20
-1402.36747419
  0
VERTEX
  8
0
 10
-646.76397416
 20
-1402.62197133
  0
VERTEX
  8
0
 10
-646.63516867
 20
-1402.89069075
  0
VERTEX
  8
0
 10
-646.52212719
 20
-1403.17393748
  0
VERTEX
  8
0
 10
-646.42528370
 20
-1403.47201657
  0
VERTEX
  8
0
 10
-646.34507218
 20
-1403.78523305
  0
VERTEX
  8
0
 10
-646.28192662
 20
-1404.11389195
  0
VERTEX
  8
0
 10
-646.23628100
 20
-1404.45829830
  0
VERTEX
  8
0
 10
-646.20856931
 20
-1404.81875715
  0
VERTEX
  8
0
 10
-646.19922553
 20
-1405.19557352
  0
VERTEX
  8
0
 10
-659.49697700
 20
-1405.19557352
  0
VERTEX
  8
0
 10
-661.63431878
 20
-1405.19557352
  0
VERTEX
  8
0
 10
-661.62337794
 20
-1404.78811765
  0
VERTEX
  8
0
 10
-661.59092505
 20
-1404.39984543
  0
VERTEX
  8
0
 10
-661.53751456
 20
-1404.03038701
  0
VERTEX
  8
0
 10
-661.46370092
 20
-1403.67937256
  0
VERTEX
  8
0
 10
-661.37003857
 20
-1403.34643223
  0
VERTEX
  8
0
 10
-661.25708198
 20
-1403.03119617
  0
VERTEX
  8
0
 10
-661.12538558
 20
-1402.73329453
  0
VERTEX
  8
0
 10
-660.97550382
 20
-1402.45235749
  0
VERTEX
  8
0
 10
-662.69808861
 20
-1402.45235749
 42
-0.13939888
  0
VERTEX
  8
0
 10
-664.83416456
 20
-1393.33820477
  0
VERTEX
  8
0
 10
-665.94175950
 20
-1394.32650331
 42
-0.15624018
  0
VERTEX
  8
0
 10
-671.40062026
 20
-1381.87394164
 42
-0.11225109
  0
VERTEX
  8
0
 10
-675.19808861
 20
-1392.82428952
 42
-0.21050098
  0
VERTEX
  8
0
 10
-676.26612659
 20
-1400.29582653
 42
-0.27288567
  0
VERTEX
  8
0
 10
-676.96089589
 20
-1405.19557352
  0
VERTEX
  8
0
 10
-682.82608331
 20
-1405.19557352
  0
VERTEX
  8
0
 10
-691.87925950
 20
-1405.19557352
  0
VERTEX
  8
0
 10
-691.87925950
 20
-1402.19557352
  0
VERTEX
  8
0
 10
-682.02438898
 20
-1381.69460706
  0
VERTEX
  8
0
 10
-674.50828650
 20
-1366.05895113
  0
SEQEND
  0
POLYLINE
  8
Default_Layer
 62
256
 66
   1
 39
0.000000
 70
    1
  0
VERTEX
  8
0
 10
-674.50828650
 20
-1366.05895113
 42
-0.49074015
  0
VERTEX
  8
0
 10
-671.60823329
 20
-1366.05895113
  0
VERTEX
  8
0
 10
-653.45614604
 20
-1399.73781048
  0
VERTEX
  8
0
 10
-652.70760220
 20
-1399.76816534
  0
VERTEX
  8
0
 10
-651.98218778
 20
-1399.82856629
  0
VERTEX
  8
0
 10
-651.28337463
 20
-1399.92145360
  0
VERTEX
  8
0
 10
-650.61463465
 20
-1400.04926754
  0
VERTEX
  8
0
 10
-649.97943972
 20
-1400.21444840
  0
VERTEX
  8
0
 10
-649.38126170
 20
-1400.41943645
  0
VERTEX
  8
0
 10
-648.82357248
 20
-1400.66667198
  0
VERTEX
  8
0
 10
-648.56099614
 20
-1400.80689512
  0
VERTEX
  8
0
 10
-648.30984395
 20
-1400.95859524
  0
VERTEX
  8
0
 10
-648.07054989
 20
-1401.12207737
  0
VERTEX
  8
0
 10
-647.84354797
 20
-1401.29764654
  0
VERTEX
  8
0
 10
-647.62927215
 20
-1401.48560778
  0
VERTEX
  8
0
 10
-647.42815642
 20
-1401.68626613
  0
VERTEX
  8
0
 10
-647.24063477
 20
-1401.89992663
  0
VERTEX
  8
0
 10
-647.06714119
 20
-1402.12689430
  0
VERTEX
  8
0
 10
-646.90810966
 20
-1402.36747419
  0
VERTEX
  8
0
 10
-646.76397416
 20
-1402.62197133
  0
VERTEX
  8
0
 10
-646.63516867
 20
-1402.89069075
  0
VERTEX
  8
0
 10
-646.52212719
 20
-1403.17393748
  0
VERTEX
  8
0
 10
-646.42528370
 20
-1403.47201657
  0
VERTEX
  8
0
 10
-646.34507218
 20
-1403.78523305
  0
VERTEX
  8
0
 10
-646.28192662
 20
-1404.11389195
  0
VERTEX
  8
0
 10
-646.23628100
 20
-1404.45829830
  0
VERTEX
  8
0
 10
-646.20856931
 20
-1404.81875715
  0
VERTEX
  8
0
 10
-646.19922553
 20
-1405.19557352
  0
VERTEX
  8
0
 10
-659.49697700
 20
-1405.19557352
  0
VERTEX
  8
0
 10
-661.63431878
 20
-1405.19557352
  0
VERTEX
  8
0
 10
-661.62337794
 20
-1404.78811765
  0
VERTEX
  8
0
 10
-661.59092505
 20
-1404.39984543
  0
VERTEX
  8
0
 10
-661.53751456
 20
-1404.03038701
  0
VERTEX
  8
0
 10
-661.46370092
 20
-1403.67937256
  0
VERTEX
  8
0
 10
-661.37003857
 20
-1403.34643223
  0
VERTEX
  8
0
 10
-661.25708198
 20
-1403.03119617
  0
VERTEX
  8
0
 10
-661.12538558
 20
-1402.73329453
  0
VERTEX
  8
0
 10
-660.97550382
 20
-1402.45235749
  0
VERTEX
  8
0
 10
-662.69808861
 20
-1402.45235749
 42
-0.13939888
  0
VERTEX
  8
0
 10
-664.83416456
 20
-1393.33820477
  0
VERTEX
  8
0
 10
-665.94175950
 20
-1394.32650331
 42
-0.15624018
  0
VERTEX
  8
0
 10
-671.40062026
 20
-1381.87394164
 42
-0.11225109
  0
VERTEX
  8
0
 10
-675.19808861
 20
-1392.82428952
 42
-0.21050098
  0
VERTEX
  8
0
 10
-676.26612659
 20
-1400.29582653
 42
-0.27288567
  0
VERTEX
  8
0
 10
-676.96089589
 20
-1405.19557352
  0
VERTEX
  8
0
 10
-682.82608331
 20
-1405.19557352
  0
VERTEX
  8
0
 10
-691.87925950
 20
-1405.19557352
  0
VERTEX
  8
0
 10
-691.87925950
 20
-1402.19557352
  0
VERTEX
  8
0
 10
-682.02438898
 20
-1381.69460706
  0
VERTEX
  8
0
 10
-674.50828650
 20
-1366.05895113
  0
SEQEND
  0
POLYLINE
  8
Default_Layer
 62
256
 66
   1
 39
0.000000
 70
    1
  0
VERTEX
  8
0
 10
-674.50828650
 20
-1366.05895113
 42
-0.49074015
  0
VERTEX
  8
0
 10
-671.60823329
 20
-1366.05895113
  0
VERTEX
  8
0
 10
-653.45614604
 20
-1399.73781048
  0
VERTEX
  8
0
 10
-652.70760220
 20
-1399.76816534
  0
VERTEX
  8
0
 10
-651.98218778
 20
-1399.82856629
  0
VERTEX
  8
0
 10
-651.28337463
 20
-1399.92145360
  0
VERTEX
  8
0
 10
-650.61463465
 20
-1400.04926754
  0
VERTEX
  8
0
 10
-649.97943972
 20
-1400.21444840
  0
VERTEX
  8
0
 10
-649.38126170
 20
-1400.41943645
  0
VERTEX
  8
0
 10
-648.82357248
 20
-1400.66667198
  0
VERTEX
  8
0
 10
-648.56099614
 20
-1400.80689512
  0
VERTEX
  8
0
 10
-648.30984395
 20
-1400.95859524
  0
VERTEX
  8
0
 10
-648.07054989
 20
-1401.12207737
  0
VERTEX
  8
0
 10
-647.84354797
 20
-1401.29764654
  0
VERTEX
  8
0
 10
-647.62927215
 20
-1401.48560778
  0
VERTEX
  8
0
 10
-647.42815642
 20
-1401.68626613
  0
VERTEX
  8
0
 10
-647.24063477
 20
-1401.89992663
  0
VERTEX
  8
0
 10
-647.06714119
 20
-1402.12689430
  0
VERTEX
  8
0
 10
-646.90810966
 20
-1402.36747419
  0
VERTEX
  8
0
 10
-646.76397416
 20
-1402.62197133
  0
VERTEX
  8
0
 10
-646.63516867
 20
-1402.89069075
  0
VERTEX
  8
0
 10
-646.52212719
 20
-1403.17393748
  0
VERTEX
  8
0
 10
-646.42528370
 20
-1403.47201657
  0
VERTEX
  8
0
 10
-646.34507218
 20
-1403.78523305
  0
VERTEX
  8
0
 10
-646.28192662
 20
-1404.11389195
  0
VERTEX
  8
0
 10
-646.23628100
 20
-1404.45829830
  0
VERTEX
  8
0
 10
-646.20856931
 20
-1404.81875715
  0
VERTEX
  8
0
 10
-646.19922553
 20
-1405.19557352
  0
VERTEX
  8
0
 10
-659.49697700
 20
-1405.19557352
  0
VERTEX
  8
0
 10
-661.63431878
 20
-1405.19557352
  0
VERTEX
  8
0
 10
-661.62337794
 20
-1404.78811765
  0
VERTEX
  8
0
 10
-661.59092505
 20
-1404.39984543
  0
VERTEX
  8
0
 10
-661.53751456
 20
-1404.03038701
  0
VERTEX
  8
0
 10
-661.46370092
 20
-1403.67937256
  0
VERTEX
  8
0
 10
-661.37003857
 20
-1403.34643223
  0
VERTEX
  8
0
 10
-661.25708198
 20
-1403.03119617
  0
VERTEX
  8
0
 10
-661.12538558
 20
-1402.73329453
  0
VERTEX
  8
0
 10
-660.97550382
 20
-1402.45235749
  0
VERTEX
  8
0
 10
-662.69808861
 20
-1402.45235749
 42
-0.13939888
  0
VERTEX
  8
0
 10
-664.83416456
 20
-1393.33820477
  0
VERTEX
  8
0
 10
-665.94175950
 20
-1394.32650331
 42
-0.15624018
  0
VERTEX
  8
0
 10
-671.40062026
 20
-1381.87394164
 42
-0.11225109
  0
VERTEX
  8
0
 10
-675.19808861
 20
-1392.82428952
 42
-0.21050098
  0
VERTEX
  8
0
 10
-676.26612659
 20
-1400.29582653
 42
-0.27288567
  0
VERTEX
  8
0
 10
-676.96089589
 20
-1405.19557352
  0
VERTEX
  8
0
 10
-682.82608331
 20
-1405.19557352
  0
VERTEX
  8
0
 10
-691.87925950
 20
-1405.19557352
  0
VERTEX
  8
0
 10
-691.87925950
 20
-1402.19557352
  0
VERTEX
  8
0
 10
-682.02438898
 20
-1381.69460706
  0
VERTEX
  8
0
 10
-674.50828650
 20
-1366.05895113
  0
SEQEND
  0
POLYLINE
  8
Default_Layer
 62
256
 66
   1
 39
0.000000
 70
    1
  0
VERTEX
  8
0
 10
-674.50828650
 20
-1366.05895113
 42
-0.49074015
  0
VERTEX
  8
0
 10
-671.60823329
 20
-1366.05895113
  0
VERTEX
  8
0
 10
-653.45614604
 20
-1399.73781048
  0
VERTEX
  8
0
 10
-652.70760220
 20
-1399.76816534
  0
VERTEX
  8
0
 10
-651.98218778
 20
-1399.82856629
  0
VERTEX
  8
0
 10
-651.28337463
 20
-1399.92145360
  0
VERTEX
  8
0
 10
-650.61463465
 20
-1400.04926754
  0
VERTEX
  8
0
 10
-649.97943972
 20
-1400.21444840
  0
VERTEX
  8
0
 10
-649.38126170
 20
-1400.41943645
  0
VERTEX
  8
0
 10
-648.82357248
 20
-1400.66667198
  0
VERTEX
  8
0
 10
-648.56099614
 20
-1400.80689512
  0
VERTEX
  8
0
 10
-648.30984395
 20
-1400.95859524
  0
VERTEX
  8
0
 10
-648.07054989
 20
-1401.12207737
  0
VERTEX
  8
0
 10
-647.84354797
 20
-1401.29764654
  0
VERTEX
  8
0
 10
-647.62927215
 20
-1401.48560778
  0
VERTEX
  8
0
 10
-647.42815642
 20
-1401.68626613
  0
VERTEX
  8
0
 10
-647.24063477
 20
-1401.89992663
  0
VERTEX
  8
0
 10
-647.06714119
 20
-1402.12689430
  0
VERTEX
  8
0
 10
-646.90810966
 20
-1402.36747419
  0
VERTEX
  8
0
 10
-646.76397416
 20
-1402.62197133
  0
VERTEX
  8
0
 10
-646.63516867
 20
-1402.89069075
  0
VERTEX
  8
0
 10
-646.52212719
 20
-1403.17393748
  0
VERTEX
  8
0
 10
-646.42528370
 20
-1403.47201657
  0
VERTEX
  8
0
 10
-646.34507218
 20
-1403.78523305
  0
VERTEX
  8
0
 10
-646.28192662
 20
-1404.11389195
  0
VERTEX
  8
0
 10
-646.23628100
 20
-1404.45829830
  0
VERTEX
  8
0
 10
-646.20856931
 20
-1404.81875715
  0
VERTEX
  8
0
 10
-646.19922553
 20
-1405.19557352
  0
VERTEX
  8
0
 10
-659.49697700
 20
-1405.19557352
  0
VERTEX
  8
0
 10
-661.63431878
 20
-1405.19557352
  0
VERTEX
  8
0
 10
-661.62337794
 20
-1404.78811765
  0
VERTEX
  8
0
 10
-661.59092505
 20
-1404.39984543
  0
VERTEX
  8
0
 10
-661.53751456
 20
-1404.03038701
  0
VERTEX
  8
0
 10
-661.46370092
 20
-1403.67937256
  0
VERTEX
  8
0
 10
-661.37003857
 20
-1403.34643223
  0
VERTEX
  8
0
 10
-661.25708198
 20
-1403.03119617
  0
VERTEX
  8
0
 10
-661.12538558
 20
-1402.73329453
  0
VERTEX
  8
0
 10
-660.97550382
 20
-1402.45235749
  0
VERTEX
  8
0
 10
-662.69808861
 20
-1402.45235749
 42
-0.13939888
  0
VERTEX
  8
0
 10
-664.83416456
 20
-1393.33820477
  0
VERTEX
  8
0
 10
-665.94175950
 20
-1394.32650331
 42
-0.15624018
  0
VERTEX
  8
0
 10
-671.40062026
 20
-1381.87394164
 42
-0.11225109
  0
VERTEX
  8
0
 10
-675.19808861
 20
-1392.82428952
 42
-0.21050098
  0
VERTEX
  8
0
 10
-676.26612659
 20
-1400.29582653
 42
-0.27288567
  0
VERTEX
  8
0
 10
-676.96089589
 20
-1405.19557352
  0
VERTEX
  8
0
 10
-682.82608331
 20
-1405.19557352
  0
VERTEX
  8
0
 10
-691.87925950
 20
-1405.19557352
  0
VERTEX
  8
0
 10
-691.87925950
 20
-1402.19557352
  0
VERTEX
  8
0
 10
-682.02438898
 20
-1381.69460706
  0
VERTEX
  8
0
 10
-674.50828650
 20
-1366.05895113
  0
SEQEND
  0
POLYLINE
  8
Default_Layer
 62
256
 66
   1
 39
0.000000
 70
    1
  0
VERTEX
  8
0
 10
-674.50828650
 20
-1366.05895113
 42
-0.49074015
  0
VERTEX
  8
0
 10
-671.60823329
 20
-1366.05895113
  0
VERTEX
  8
0
 10
-653.45614604
 20
-1399.73781048
  0
VERTEX
  8
0
 10
-652.70760220
 20
-1399.76816534
  0
VERTEX
  8
0
 10
-651.98218778
 20
-1399.82856629
  0
VERTEX
  8
0
 10
-651.28337463
 20
-1399.92145360
  0
VERTEX
  8
0
 10
-650.61463465
 20
-1400.04926754
  0
VERTEX
  8
0
 10
-649.97943972
 20
-1400.21444840
  0
VERTEX
  8
0
 10
-649.38126170
 20
-1400.41943645
  0
VERTEX
  8
0
 10
-648.82357248
 20
-1400.66667198
  0
VERTEX
  8
0
 10
-648.56099614
 20
-1400.80689512
  0
VERTEX
  8
0
 10
-648.30984395
 20
-1400.95859524
  0
VERTEX
  8
0
 10
-648.07054989
 20
-1401.12207737
  0
VERTEX
  8
0
 10
-647.84354797
 20
-1401.29764654
  0
VERTEX
  8
0
 10
-647.62927215
 20
-1401.48560778
  0
VERTEX
  8
0
 10
-647.42815642
 20
-1401.68626613
  0
VERTEX
  8
0
 10
-647.24063477
 20
-1401.89992663
  0
VERTEX
  8
0
 10
-647.06714119
 20
-1402.12689430
  0
VERTEX
  8
0
 10
-646.90810966
 20
-1402.36747419
  0
VERTEX
  8
0
 10
-646.76397416
 20
-1402.62197133
  0
VERTEX
  8
0
 10
-646.63516867
 20
-1402.89069075
  0
VERTEX
  8
0
 10
-646.52212719
 20
-1403.17393748
  0
VERTEX
  8
0
 10
-646.42528370
 20
-1403.47201657
  0
VERTEX
  8
0
 10
-646.34507218
 20
-1403.78523305
  0
VERTEX
  8
0
 10
-646.28192662
 20
-1404.11389195
  0
VERTEX
  8
0
 10
-646.23628100
 20
-1404.45829830
  0
VERTEX
  8
0
 10
-646.20856931
 20
-1404.81875715
  0
VERTEX
  8
0
 10
-646.19922553
 20
-1405.19557352
  0
VERTEX
  8
0
 10
-659.49697700
 20
-1405.19557352
  0
VERTEX
  8
0
 10
-661.63431878
 20
-1405.19557352
  0
VERTEX
  8
0
 10
-661.62337794
 20
-1404.78811765
  0
VERTEX
  8
0
 10
-661.59092505
 20
-1404.39984543
  0
VERTEX
  8
0
 10
-661.53751456
 20
-1404.03038701
  0
VERTEX
  8
0
 10
-661.46370092
 20
-1403.67937256
  0
VERTEX
  8
0
 10
-661.37003857
 20
-1403.34643223
  0
VERTEX
  8
0
 10
-661.25708198
 20
-1403.03119617
  0
VERTEX
  8
0
 10
-661.12538558
 20
-1402.73329453
  0
VERTEX
  8
0
 10
-660.97550382
 20
-1402.45235749
  0
VERTEX
  8
0
 10
-662.69808861
 20
-1402.45235749
 42
-0.13939888
  0
VERTEX
  8
0
 10
-664.83416456
 20
-1393.33820477
  0
VERTEX
  8
0
 10
-665.94175950
 20
-1394.32650331
 42
-0.15624018
  0
VERTEX
  8
0
 10
-671.40062026
 20
-1381.87394164
 42
-0.11225109
  0
VERTEX
  8
0
 10
-675.19808861
 20
-1392.82428952
 42
-0.21050098
  0
VERTEX
  8
0
 10
-676.26612659
 20
-1400.29582653
 42
-0.27288567
  0
VERTEX
  8
0
 10
-676.96089589
 20
-1405.19557352
  0
VERTEX
  8
0
 10
-682.82608331
 20
-1405.19557352
  0
VERTEX
  8
0
 10
-691.87925950
 20
-1405.19557352
  0
VERTEX
  8
0
 10
-691.87925950
 20
-1402.19557352
  0
VERTEX
  8
0
 10
-682.02438898
 20
-1381.69460706
  0
VERTEX
  8
0
 10
-674.50828650
 20
-1366.05895113
  0
SEQEND
  0
POLYLINE
  8
Default_Layer
 62
256
 66
   1
 39
0.000000
 70
    1
  0
VERTEX
  8
0
 10
-674.50828650
 20
-1366.05895113
 42
-0.49074015
  0
VERTEX
  8
0
 10
-671.60823329
 20
-1366.05895113
  0
VERTEX
  8
0
 10
-653.45614604
 20
-1399.73781048
  0
VERTEX
  8
0
 10
-652.70760220
 20
-1399.76816534
  0
VERTEX
  8
0
 10
-651.98218778
 20
-1399.82856629
  0
VERTEX
  8
0
 10
-651.28337463
 20
-1399.92145360
  0
VERTEX
  8
0
 10
-650.61463465
 20
-1400.04926754
  0
VERTEX
  8
0
 10
-649.97943972
 20
-1400.21444840
  0
VERTEX
  8
0
 10
-649.38126170
 20
-1400.41943645
  0
VERTEX
  8
0
 10
-648.82357248
 20
-1400.66667198
  0
VERTEX
  8
0
 10
-648.56099614
 20
-1400.80689512
  0
VERTEX
  8
0
 10
-648.30984395
 20
-1400.95859524
  0
VERTEX
  8
0
 10
-648.07054989
 20
-1401.12207737
  0
VERTEX
  8
0
 10
-647.84354797
 20
-1401.29764654
  0
VERTEX
  8
0
 10
-647.62927215
 20
-1401.48560778
  0
VERTEX
  8
0
 10
-647.42815642
 20
-1401.68626613
  0
VERTEX
  8
0
 10
-647.24063477
 20
-1401.89992663
  0
VERTEX
  8
0
 10
-647.06714119
 20
-1402.12689430
  0
VERTEX
  8
0
 10
-646.90810966
 20
-1402.36747419
  0
VERTEX
  8
0
 10
-646.76397416
 20
-1402.62197133
  0
VERTEX
  8
0
 10
-646.63516867
 20
-1402.89069075
  0
VERTEX
  8
0
 10
-646.52212719
 20
-1403.17393748
  0
VERTEX
  8
0
 10
-646.42528370
 20
-1403.47201657
  0
VERTEX
  8
0
 10
-646.34507218
 20
-1403.78523305
  0
VERTEX
  8
0
 10
-646.28192662
 20
-1404.11389195
  0
VERTEX
  8
0
 10
-646.23628100
 20
-1404.45829830
  0
VERTEX
  8
0
 10
-646.20856931
 20
-1404.81875715
  0
VERTEX
  8
0
 10
-646.19922553
 20
-1405.19557352
  0
VERTEX
  8
0
 10
-659.49697700
 20
-1405.19557352
  0
VERTEX
  8
0
 10
-661.63431878
 20
-1405.19557352
  0
VERTEX
  8
0
 10
-661.62337794
 20
-1404.78811765
  0
VERTEX
  8
0
 10
-661.59092505
 20
-1404.39984543
  0
VERTEX
  8
0
 10
-661.53751456
 20
-1404.03038701
  0
VERTEX
  8
0
 10
-661.46370092
 20
-1403.67937256
  0
VERTEX
  8
0
 10
-661.37003857
 20
-1403.34643223
  0
VERTEX
  8
0
 10
-661.25708198
 20
-1403.03119617
  0
VERTEX
  8
0
 10
-661.12538558
 20
-1402.73329453
  0
VERTEX
  8
0
 10
-660.97550382
 20
-1402.45235749
  0
VERTEX
  8
0
 10
-662.69808861
 20
-1402.45235749
 42
-0.13939888
  0
VERTEX
  8
0
 10
-664.83416456
 20
-1393.33820477
  0
VERTEX
  8
0
 10
-665.94175950
 20
-1394.32650331
 42
-0.15624018
  0
VERTEX
  8
0
 10
-671.40062026
 20
-1381.87394164
 42
-0.11225109
  0
VERTEX
  8
0
 10
-675.19808861
 20
-1392.82428952
 42
-0.21050098
  0
VERTEX
  8
0
 10
-676.26612659
 20
-1400.29582653
 42
-0.27288567
  0
VERTEX
  8
0
 10
-676.96089589
 20
-1405.19557352
  0
VERTEX
  8
0
 10
-682.82608331
 20
-1405.19557352
  0
VERTEX
  8
0
 10
-691.87925950
 20
-1405.19557352
  0
VERTEX
  8
0
 10
-691.87925950
 20
-1402.19557352
  0
VERTEX
  8
0
 10
-682.02438898
 20
-1381.69460706
  0
VERTEX
  8
0
 10
-674.50828650
 20
-1366.05895113
  0
SEQEND
  0
POLYLINE
  8
Default_Layer
 62
256
 66
   1
 39
0.000000
 70
    1
  0
VERTEX
  8
0
 10
-674.50828650
 20
-1366.05895113
 42
-0.49074015
  0
VERTEX
  8
0
 10
-671.60823329
 20
-1366.05895113
  0
VERTEX
  8
0
 10
-653.45614604
 20
-1399.73781048
  0
VERTEX
  8
0
 10
-652.70760220
 20
-1399.76816534
  0
VERTEX
  8
0
 10
-651.98218778
 20
-1399.82856629
  0
VERTEX
  8
0
 10
-651.28337463
 20
-1399.92145360
  0
VERTEX
  8
0
 10
-650.61463465
 20
-1400.04926754
  0
VERTEX
  8
0
 10
-649.97943972
 20
-1400.21444840
  0
VERTEX
  8
0
 10
-649.38126170
 20
-1400.41943645
  0
VERTEX
  8
0
 10
-648.82357248
 20
-1400.66667198
  0
VERTEX
  8
0
 10
-648.56099614
 20
-1400.80689512
  0
VERTEX
  8
0
 10
-648.30984395
 20
-1400.95859524
  0
VERTEX
  8
0
 10
-648.07054989
 20
-1401.12207737
  0
VERTEX
  8
0
 10
-647.84354797
 20
-1401.29764654
  0
VERTEX
  8
0
 10
-647.62927215
 20
-1401.48560778
  0
VERTEX
  8
0
 10
-647.42815642
 20
-1401.68626613
  0
VERTEX
  8
0
 10
-647.24063477
 20
-1401.89992663
  0
VERTEX
  8
0
 10
-647.06714119
 20
-1402.12689430
  0
VERTEX
  8
0
 10
-646.90810966
 20
-1402.36747419
  0
VERTEX
  8
0
 10
-646.76397416
 20
-1402.62197133
  0
VERTEX
  8
0
 10
-646.63516867
 20
-1402.89069075
  0
VERTEX
  8
0
 10
-646.52212719
 20
-1403.17393748
  0
VERTEX
  8
0
 10
-646.42528370
 20
-1403.47201657
  0
VERTEX
  8
0
 10
-646.34507218
 20
-1403.78523305
  0
VERTEX
  8
0
 10
-646.28192662
 20
-1404.11389195
  0
VERTEX
  8
0
 10
-646.23628100
 20
-1404.45829830
  0
VERTEX
  8
0
 10
-646.20856931
 20
-1404.81875715
  0
VERTEX
  8
0
 10
-646.19922553
 20
-1405.19557352
  0
VERTEX
  8
0
 10
-659.49697700
 20
-1405.19557352
  0
VERTEX
  8
0
 10
-661.63431878
 20
-1405.19557352
  0
VERTEX
  8
0
 10
-661.62337794
 20
-1404.78811765
  0
VERTEX
  8
0
 10
-661.59092505
 20
-1404.39984543
  0
VERTEX
  8
0
 10
-661.53751456
 20
-1404.03038701
  0
VERTEX
  8
0
 10
-661.46370092
 20
-1403.67937256
  0
VERTEX
  8
0
 10
-661.37003857
 20
-1403.34643223
  0
VERTEX
  8
0
 10
-661.25708198
 20
-1403.03119617
  0
VERTEX
  8
0
 10
-661.12538558
 20
-1402.73329453
  0
VERTEX
  8
0
 10
-660.97550382
 20
-1402.45235749
  0
VERTEX
  8
0
 10
-662.69808861
 20
-1402.45235749
 42
-0.13939888
  0
VERTEX
  8
0
 10
-664.83416456
 20
-1393.33820477
  0
VERTEX
  8
0
 10
-665.94175950
 20
-1394.32650331
 42
-0.15624018
  0
VERTEX
  8
0
 10
-671.40062026
 20
-1381.87394164
 42
-0.11225109
  0
VERTEX
  8
0
 10
-675.19808861
 20
-1392.82428952
 42
-0.21050098
  0
VERTEX
  8
0
 10
-676.26612659
 20
-1400.29582653
 42
-0.27288567
  0
VERTEX
  8
0
 10
-676.96089589
 20
-1405.19557352
  0
VERTEX
  8
0
 10
-682.82608331
 20
-1405.19557352
  0
VERTEX
  8
0
 10
-691.87925950
 20
-1405.19557352
  0
VERTEX
  8
0
 10
-691.87925950
 20
-1402.19557352
  0
VERTEX
  8
0
 10
-682.02438898
 20
-1381.69460706
  0
VERTEX
  8
0
 10
-674.50828650
 20
-1366.05895113
  0
SEQEND
  0
POLYLINE
  8
Default_Layer
 62
256
 66
   1
 39
0.000000
 70
    1
  0
VERTEX
  8
0
 10
-34.61450232
 20
96.93704437
 42
-0.49074015
  0
VERTEX
  8
0
 10
-37.51455553
 20
96.93704437
  0
VERTEX
  8
0
 10
-55.66664279
 20
130.61590372
  0
VERTEX
  8
0
 10
-56.41518662
 20
130.64625858
  0
VERTEX
  8
0
 10
-57.14060105
 20
130.70665953
  0
VERTEX
  8
0
 10
-57.83941419
 20
130.79954684
  0
VERTEX
  8
0
 10
-58.50815417
 20
130.92736078
  0
VERTEX
  8
0
 10
-59.14334911
 20
131.09254164
  0
VERTEX
  8
0
 10
-59.74152712
 20
131.29752969
  0
VERTEX
  8
0
 10
-60.29921634
 20
131.54476522
  0
VERTEX
  8
0
 10
-60.56179269
 20
131.68498837
  0
VERTEX
  8
0
 10
-60.81294488
 20
131.83668848
  0
VERTEX
  8
0
 10
-61.05223893
 20
132.00017061
  0
VERTEX
  8
0
 10
-61.27924086
 20
132.17573978
  0
VERTEX
  8
0
 10
-61.49351668
 20
132.36370102
  0
VERTEX
  8
0
 10
-61.69463240
 20
132.56435937
  0
VERTEX
  8
0
 10
-61.88215405
 20
132.77801987
  0
VERTEX
  8
0
 10
-62.05564763
 20
133.00498754
  0
VERTEX
  8
0
 10
-62.21467917
 20
133.24556743
  0
VERTEX
  8
0
 10
-62.35881467
 20
133.50006457
  0
VERTEX
  8
0
 10
-62.48762015
 20
133.76878399
  0
VERTEX
  8
0
 10
-62.60066163
 20
134.05203072
  0
VERTEX
  8
0
 10
-62.69750512
 20
134.35010981
  0
VERTEX
  8
0
 10
-62.77771664
 20
134.66332629
  0
VERTEX
  8
0
 10
-62.84086220
 20
134.99198519
  0
VERTEX
  8
0
 10
-62.88650782
 20
135.33639154
  0
VERTEX
  8
0
 10
-62.91421952
 20
135.69685039
  0
VERTEX
  8
0
 10
-62.92356330
 20
136.07366676
  0
VERTEX
  8
0
 10
-49.62581182
 20
136.07366676
  0
VERTEX
  8
0
 10
-47.48847004
 20
136.07366676
  0
VERTEX
  8
0
 10
-47.49941088
 20
135.66621089
  0
VERTEX
  8
0
 10
-47.53186377
 20
135.27793867
  0
VERTEX
  8
0
 10
-47.58527426
 20
134.90848025
  0
VERTEX
  8
0
 10
-47.65908791
 20
134.55746580
  0
VERTEX
  8
0
 10
-47.75275025
 20
134.22452547
  0
VERTEX
  8
0
 10
-47.86570685
 20
133.90928941
  0
VERTEX
  8
0
 10
-47.99740325
 20
133.61138777
  0
VERTEX
  8
0
 10
-48.14728500
 20
133.33045073
  0
VERTEX
  8
0
 10
-46.42470021
 20
133.33045073
 42
-0.13939888
  0
VERTEX
  8
0
 10
-44.28862426
 20
124.21629801
  0
VERTEX
  8
0
 10
-43.18102933
 20
125.20459655
 42
-0.15624018
  0
VERTEX
  8
0
 10
-37.72216857
 20
112.75203488
 42
-0.11225109
  0
VERTEX
  8
0
 10
-33.92470021
 20
123.70238276
 42
-0.21050098
  0
VERTEX
  8
0
 10
-32.85666224
 20
131.17391977
 42
-0.27288567
  0
VERTEX
  8
0
 10
-32.16189294
 20
136.07366676
  0
VERTEX
  8
0
 10
-26.29670552
 20
136.07366676
  0
VERTEX
  8
0
 10
-17.24352933
 20
136.07366676
  0
VERTEX
  8
0
 10
-17.24352933
 20
133.07366676
  0
VERTEX
  8
0
 10
-27.09839985
 20
112.57270030
  0
VERTEX
  8
0
 10
-34.61450232
 20
96.93704437
  0
SEQEND
  0
POLYLINE
  8
Default_Layer
 62
256
 66
   1
 39
0.000000
 70
    1
  0
VERTEX
  8
0
 10
-6.87758376
 20
135.36374884
 42
-0.49074015
  0
VERTEX
  8
0
 10
-3.97753055
 20
135.36374884
  0
VERTEX
  8
0
 10
14.17455671
 20
101.68488949
  0
VERTEX
  8
0
 10
14.92310054
 20
101.65453462
  0
VERTEX
  8
0
 10
15.64851497
 20
101.59413368
  0
VERTEX
  8
0
 10
16.34732811
 20
101.50124637
  0
VERTEX
  8
0
 10
17.01606809
 20
101.37343243
  0
VERTEX
  8
0
 10
17.65126303
 20
101.20825157
  0
VERTEX
  8
0
 10
18.24944104
 20
101.00326351
  0
VERTEX
  8
0
 10
18.80713026
 20
100.75602799
  0
VERTEX
  8
0
 10
19.06970661
 20
100.61580484
  0
VERTEX
  8
0
 10
19.32085880
 20
100.46410472
  0
VERTEX
  8
0
 10
19.56015285
 20
100.30062260
  0
VERTEX
  8
0
 10
19.78715478
 20
100.12505343
  0
VERTEX
  8
0
 10
20.00143060
 20
99.93709219
  0
VERTEX
  8
0
 10
20.20254632
 20
99.73643384
  0
VERTEX
  8
0
 10
20.39006797
 20
99.52277334
  0
VERTEX
  8
0
 10
20.56356155
 20
99.29580567
  0
VERTEX
  8
0
 10
20.72259308
 20
99.05522578
  0
VERTEX
  8
0
 10
20.86672859
 20
98.80072864
  0
VERTEX
  8
0
 10
20.99553407
 20
98.53200922
  0
VERTEX
  8
0
 10
21.10857555
 20
98.24876248
  0
VERTEX
  8
0
 10
21.20541904
 20
97.95068339
  0
VERTEX
  8
0
 10
21.28563056
 20
97.63746692
  0
VERTEX
  8
0
 10
21.34877612
 20
97.30880802
  0
VERTEX
  8
0
 10
21.39442174
 20
96.96440166
  0
VERTEX
  8
0
 10
21.42213343
 20
96.60394282
  0
VERTEX
  8
0
 10
21.43147721
 20
96.22712645
  0
VERTEX
  8
0
 10
8.13372574
 20
96.22712645
  0
VERTEX
  8
0
 10
5.99638396
 20
96.22712645
  0
VERTEX
  8
0
 10
6.00732480
 20
96.63458232
  0
VERTEX
  8
0
 10
6.03977769
 20
97.02285454
  0
VERTEX
  8
0
 10
6.09318818
 20
97.39231295
  0
VERTEX
  8
0
 10
6.16700183
 20
97.74332741
  0
VERTEX
  8
0
 10
6.26066417
 20
98.07626774
  0
VERTEX
  8
0
 10
6.37362077
 20
98.39150380
  0
VERTEX
  8
0
 10
6.50531717
 20
98.68940543
  0
VERTEX
  8
0
 10
6.65519892
 20
98.97034248
  0
VERTEX
  8
0
 10
4.93261413
 20
98.97034248
 42
-0.13939888
  0
VERTEX
  8
0
 10
2.79653818
 20
108.08449520
  0
VERTEX
  8
0
 10
1.68894324
 20
107.09619666
 42
-0.15624018
  0
VERTEX
  8
0
 10
-3.76991752
 20
119.54875833
 42
-0.11225109
  0
VERTEX
  8
0
 10
-7.56738587
 20
108.59841044
 42
-0.21050098
  0
VERTEX
  8
0
 10
-8.63542384
 20
101.12687344
 42
-0.27288567
  0
VERTEX
  8
0
 10
-9.33019314
 20
96.22712645
  0
VERTEX
  8
0
 10
-15.19538056
 20
96.22712645
  0
VERTEX
  8
0
 10
-24.24855676
 20
96.22712645
  0
VERTEX
  8
0
 10
-24.24855676
 20
99.22712645
  0
VERTEX
  8
0
 10
-14.39368623
 20
119.72809290
  0
VERTEX
  8
0
 10
-6.87758376
 20
135.36374884
  0
SEQEND
  0
POLYLINE
  8
Default_Layer
 62
256
 66
   1
 39
0.000000
 70
    1
  0
VERTEX
  8
0
 10
33.01620042
 20
96.93704437
 42
-0.49074015
  0
VERTEX
  8
0
 10
30.11614721
 20
96.93704437
  0
VERTEX
  8
0
 10
11.96405996
 20
130.61590372
  0
VERTEX
  8
0
 10
11.21551612
 20
130.64625858
  0
VERTEX
  8
0
 10
10.49010170
 20
130.70665953
  0
VERTEX
  8
0
 10
9.79128855
 20
130.79954684
  0
VERTEX
  8
0
 10
9.12254857
 20
130.92736078
  0
VERTEX
  8
0
 10
8.48735364
 20
131.09254164
  0
VERTEX
  8
0
 10
7.88917562
 20
131.29752969
  0
VERTEX
  8
0
 10
7.33148640
 20
131.54476522
  0
VERTEX
  8
0
 10
7.06891006
 20
131.68498837
  0
VERTEX
  8
0
 10
6.81775786
 20
131.83668848
  0
VERTEX
  8
0
 10
6.57846381
 20
132.00017061
  0
VERTEX
  8
0
 10
6.35146188
 20
132.17573978
  0
VERTEX
  8
0
 10
6.13718607
 20
132.36370102
  0
VERTEX
  8
0
 10
5.93607034
 20
132.56435937
  0
VERTEX
  8
0
 10
5.74854869
 20
132.77801987
  0
VERTEX
  8
0
 10
5.57505511
 20
133.00498754
  0
VERTEX
  8
0
 10
5.41602358
 20
133.24556743
  0
VERTEX
  8
0
 10
5.27188808
 20
133.50006457
  0
VERTEX
  8
0
 10
5.14308259
 20
133.76878399
  0
VERTEX
  8
0
 10
5.03004111
 20
134.05203072
  0
VERTEX
  8
0
 10
4.93319762
 20
134.35010981
  0
VERTEX
  8
0
 10
4.85298610
 20
134.66332629
  0
VERTEX
  8
0
 10
4.78984054
 20
134.99198519
  0
VERTEX
  8
0
 10
4.74419492
 20
135.33639154
  0
VERTEX
  8
0
 10
4.71648323
 20
135.69685039
  0
VERTEX
  8
0
 10
4.70713945
 20
136.07366676
  0
VERTEX
  8
0
 10
18.00489092
 20
136.07366676
  0
VERTEX
  8
0
 10
20.14223270
 20
136.07366676
  0
VERTEX
  8
0
 10
20.13129186
 20
135.66621089
  0
VERTEX
  8
0
 10
20.09883897
 20
135.27793867
  0
VERTEX
  8
0
 10
20.04542848
 20
134.90848025
  0
VERTEX
  8
0
 10
19.97161484
 20
134.55746580
  0
VERTEX
  8
0
 10
19.87795249
 20
134.22452547
  0
VERTEX
  8
0
 10
19.76499590
 20
133.90928941
  0
VERTEX
  8
0
 10
19.63329950
 20
133.61138777
  0
VERTEX
  8
0
 10
19.48341774
 20
133.33045073
  0
VERTEX
  8
0
 10
21.20600253
 20
133.33045073
 42
-0.13939888
  0
VERTEX
  8
0
 10
23.34207848
 20
124.21629801
  0
VERTEX
  8
0
 10
24.44967342
 20
125.20459655
 42
-0.15624018
  0
VERTEX
  8
0
 10
29.90853418
 20
112.75203488
 42
-0.11225109
  0
VERTEX
  8
0
 10
33.70600253
 20
123.70238276
 42
-0.21050098
  0
VERTEX
  8
0
 10
34.77404051
 20
131.17391977
 42
-0.27288567
  0
VERTEX
  8
0
 10
35.46880981
 20
136.07366676
  0
VERTEX
  8
0
 10
41.33399723
 20
136.07366676
  0
VERTEX
  8
0
 10
50.38717342
 20
136.07366676
  0
VERTEX
  8
0
 10
50.38717342
 20
133.07366676
  0
VERTEX
  8
0
 10
40.53230289
 20
112.57270030
  0
VERTEX
  8
0
 10
33.01620042
 20
96.93704437
  0
SEQEND
  0
POLYLINE
  8
Default_Layer
 62
256
 66
   1
 39
0.000000
 70
    1
  0
VERTEX
  8
0
 10
30.15835611
 20
184.84662663
 42
-0.49074015
  0
VERTEX
  8
0
 10
33.05840932
 20
184.84662663
  0
VERTEX
  8
0
 10
51.21049657
 20
151.16776728
  0
VERTEX
  8
0
 10
51.95904040
 20
151.13741242
  0
VERTEX
  8
0
 10
52.68445483
 20
151.07701147
  0
VERTEX
  8
0
 10
53.38326798
 20
150.98412416
  0
VERTEX
  8
0
 10
54.05200796
 20
150.85631022
  0
VERTEX
  8
0
 10
54.68720289
 20
150.69112936
  0
VERTEX
  8
0
 10
55.28538091
 20
150.48614131
  0
VERTEX
  8
0
 10
55.84307013
 20
150.23890578
  0
VERTEX
  8
0
 10
56.10564647
 20
150.09868264
  0
VERTEX
  8
0
 10
56.35679866
 20
149.94698252
  0
VERTEX
  8
0
 10
56.59609272
 20
149.78350039
  0
VERTEX
  8
0
 10
56.82309464
 20
149.60793122
  0
VERTEX
  8
0
 10
57.03737046
 20
149.41996998
  0
VERTEX
  8
0
 10
57.23848619
 20
149.21931163
  0
VERTEX
  8
0
 10
57.42600783
 20
149.00565113
  0
VERTEX
  8
0
 10
57.59950142
 20
148.77868346
  0
VERTEX
  8
0
 10
57.75853295
 20
148.53810357
  0
VERTEX
  8
0
 10
57.90266845
 20
148.28360643
  0
VERTEX
  8
0
 10
58.03147394
 20
148.01488701
  0
VERTEX
  8
0
 10
58.14451542
 20
147.73164028
  0
VERTEX
  8
0
 10
58.24135891
 20
147.43356119
  0
VERTEX
  8
0
 10
58.32157043
 20
147.12034471
  0
VERTEX
  8
0
 10
58.38471599
 20
146.79168581
  0
VERTEX
  8
0
 10
58.43036161
 20
146.44727946
  0
VERTEX
  8
0
 10
58.45807330
 20
146.08682061
  0
VERTEX
  8
0
 10
58.46741708
 20
145.71000424
  0
VERTEX
  8
0
 10
45.16966561
 20
145.71000424
  0
VERTEX
  8
0
 10
43.03232382
 20
145.71000424
  0
VERTEX
  8
0
 10
43.04326467
 20
146.11746011
  0
VERTEX
  8
0
 10
43.07571756
 20
146.50573233
  0
VERTEX
  8
0
 10
43.12912805
 20
146.87519075
  0
VERTEX
  8
0
 10
43.20294169
 20
147.22620520
  0
VERTEX
  8
0
 10
43.29660404
 20
147.55914553
  0
VERTEX
  8
0
 10
43.40956063
 20
147.87438159
  0
VERTEX
  8
0
 10
43.54125703
 20
148.17228323
  0
VERTEX
  8
0
 10
43.69113878
 20
148.45322027
  0
VERTEX
  8
0
 10
41.96855400
 20
148.45322027
 42
-0.13939888
  0
VERTEX
  8
0
 10
39.83247805
 20
157.56737299
  0
VERTEX
  8
0
 10
38.72488311
 20
156.57907445
 42
-0.15624018
  0
VERTEX
  8
0
 10
33.26602235
 20
169.03163612
 42
-0.11225109
  0
VERTEX
  8
0
 10
29.46855400
 20
158.08128824
 42
-0.21050098
  0
VERTEX
  8
0
 10
28.40051602
 20
150.60975123
 42
-0.27288567
  0
VERTEX
  8
0
 10
27.70574672
 20
145.71000424
  0
VERTEX
  8
0
 10
21.84055930
 20
145.71000424
  0
VERTEX
  8
0
 10
12.78738311
 20
145.71000424
  0
VERTEX
  8
0
 10
12.78738311
 20
148.71000424
  0
VERTEX
  8
0
 10
22.64225363
 20
169.21097070
  0
VERTEX
  8
0
 10
30.15835611
 20
184.84662663
  0
SEQEND
  0
POLYLINE
  8
Default_Layer
 62
256
 66
   1
 39
0.000000
 70
    1
  0
VERTEX
  8
0
 10
70.05214028
 20
146.41992216
 42
-0.49074015
  0
VERTEX
  8
0
 10
67.15208708
 20
146.41992216
  0
VERTEX
  8
0
 10
48.99999982
 20
180.09878151
  0
VERTEX
  8
0
 10
48.25145599
 20
180.12913638
  0
VERTEX
  8
0
 10
47.52604156
 20
180.18953732
  0
VERTEX
  8
0
 10
46.82722842
 20
180.28242463
  0
VERTEX
  8
0
 10
46.15848844
 20
180.41023857
  0
VERTEX
  8
0
 10
45.52329350
 20
180.57541943
  0
VERTEX
  8
0
 10
44.92511549
 20
180.78040749
  0
VERTEX
  8
0
 10
44.36742627
 20
181.02764301
  0
VERTEX
  8
0
 10
44.10484992
 20
181.16786616
  0
VERTEX
  8
0
 10
43.85369773
 20
181.31956628
  0
VERTEX
  8
0
 10
43.61440368
 20
181.48304840
  0
VERTEX
  8
0
 10
43.38740175
 20
181.65861757
  0
VERTEX
  8
0
 10
43.17312593
 20
181.84657881
  0
VERTEX
  8
0
 10
42.97201021
 20
182.04723716
  0
VERTEX
  8
0
 10
42.78448856
 20
182.26089766
  0
VERTEX
  8
0
 10
42.61099498
 20
182.48786533
  0
VERTEX
  8
0
 10
42.45196344
 20
182.72844522
  0
VERTEX
  8
0
 10
42.30782794
 20
182.98294236
  0
VERTEX
  8
0
 10
42.17902246
 20
183.25166178
  0
VERTEX
  8
0
 10
42.06598098
 20
183.53490852
  0
VERTEX
  8
0
 10
41.96913749
 20
183.83298761
  0
VERTEX
  8
0
 10
41.88892597
 20
184.14620408
  0
VERTEX
  8
0
 10
41.82578041
 20
184.47486298
  0
VERTEX
  8
0
 10
41.78013479
 20
184.81926934
  0
VERTEX
  8
0
 10
41.75242309
 20
185.17972818
  0
VERTEX
  8
0
 10
41.74307931
 20
185.55654455
  0
VERTEX
  8
0
 10
55.04083079
 20
185.55654455
  0
VERTEX
  8
0
 10
57.17817257
 20
185.55654455
  0
VERTEX
  8
0
 10
57.16723173
 20
185.14908868
  0
VERTEX
  8
0
 10
57.13477884
 20
184.76081646
  0
VERTEX
  8
0
 10
57.08136835
 20
184.39135805
  0
VERTEX
  8
0
 10
57.00755470
 20
184.04034359
  0
VERTEX
  8
0
 10
56.91389236
 20
183.70740326
  0
VERTEX
  8
0
 10
56.80093576
 20
183.39216720
  0
VERTEX
  8
0
 10
56.66923936
 20
183.09426557
  0
VERTEX
  8
0
 10
56.51935761
 20
182.81332852
  0
VERTEX
  8
0
 10
58.24194240
 20
182.81332852
 42
-0.13939888
  0
VERTEX
  8
0
 10
60.37801835
 20
173.69917580
  0
VERTEX
  8
0
 10
61.48561328
 20
174.68747434
 42
-0.15624018
  0
VERTEX
  8
0
 10
66.94447404
 20
162.23491267
 42
-0.11225109
  0
VERTEX
  8
0
 10
70.74194240
 20
173.18526056
 42
-0.21050098
  0
VERTEX
  8
0
 10
71.80998037
 20
180.65679756
 42
-0.27288567
  0
VERTEX
  8
0
 10
72.50474967
 20
185.55654455
  0
VERTEX
  8
0
 10
78.36993709
 20
185.55654455
  0
VERTEX
  8
0
 10
87.42311328
 20
185.55654455
  0
VERTEX
  8
0
 10
87.42311328
 20
182.55654455
  0
VERTEX
  8
0
 10
77.56824276
 20
162.05557810
  0
VERTEX
  8
0
 10
70.05214028
 20
146.41992216
  0
SEQEND
  0
POLYLINE
  8
Default_Layer
 62
256
 66
   1
 39
0.000000
 70
    1
  0
VERTEX
  8
0
 10
32.05709029
 20
237.02878982
 42
-0.49074015
  0
VERTEX
  8
0
 10
34.95714349
 20
237.02878982
  0
VERTEX
  8
0
 10
53.10923075
 20
203.34993047
  0
VERTEX
  8
0
 10
53.85777458
 20
203.31957560
  0
VERTEX
  8
0
 10
54.58318901
 20
203.25917466
  0
VERTEX
  8
0
 10
55.28200215
 20
203.16628735
  0
VERTEX
  8
0
 10
55.95074213
 20
203.03847341
  0
VERTEX
  8
0
 10
56.58593707
 20
202.87329255
  0
VERTEX
  8
0
 10
57.18411509
 20
202.66830449
  0
VERTEX
  8
0
 10
57.74180430
 20
202.42106897
  0
VERTEX
  8
0
 10
58.00438065
 20
202.28084582
  0
VERTEX
  8
0
 10
58.25553284
 20
202.12914570
  0
VERTEX
  8
0
 10
58.49482689
 20
201.96566358
  0
VERTEX
  8
0
 10
58.72182882
 20
201.79009441
  0
VERTEX
  8
0
 10
58.93610464
 20
201.60213317
  0
VERTEX
  8
0
 10
59.13722036
 20
201.40147482
  0
VERTEX
  8
0
 10
59.32474201
 20
201.18781432
  0
VERTEX
  8
0
 10
59.49823559
 20
200.96084665
  0
VERTEX
  8
0
 10
59.65726713
 20
200.72026676
  0
VERTEX
  8
0
 10
59.80140263
 20
200.46576962
  0
VERTEX
  8
0
 10
59.93020811
 20
200.19705020
  0
VERTEX
  8
0
 10
60.04324959
 20
199.91380346
  0
VERTEX
  8
0
 10
60.14009308
 20
199.61572437
  0
VERTEX
  8
0
 10
60.22030460
 20
199.30250790
  0
VERTEX
  8
0
 10
60.28345017
 20
198.97384900
  0
VERTEX
  8
0
 10
60.32909579
 20
198.62944264
  0
VERTEX
  8
0
 10
60.35680748
 20
198.26898380
  0
VERTEX
  8
0
 10
60.36615126
 20
197.89216743
  0
VERTEX
  8
0
 10
47.06839978
 20
197.89216743
  0
VERTEX
  8
0
 10
44.93105800
 20
197.89216743
  0
VERTEX
  8
0
 10
44.94199884
 20
198.29962330
  0
VERTEX
  8
0
 10
44.97445173
 20
198.68789552
  0
VERTEX
  8
0
 10
45.02786223
 20
199.05735393
  0
VERTEX
  8
0
 10
45.10167587
 20
199.40836839
  0
VERTEX
  8
0
 10
45.19533821
 20
199.74130872
  0
VERTEX
  8
0
 10
45.30829481
 20
200.05654478
  0
VERTEX
  8
0
 10
45.43999121
 20
200.35444641
  0
VERTEX
  8
0
 10
45.58987296
 20
200.63538346
  0
VERTEX
  8
0
 10
43.86728817
 20
200.63538346
 42
-0.13939888
  0
VERTEX
  8
0
 10
41.73121222
 20
209.74953618
  0
VERTEX
  8
0
 10
40.62361729
 20
208.76123764
 42
-0.15624018
  0
VERTEX
  8
0
 10
35.16475653
 20
221.21379931
 42
-0.11225109
  0
VERTEX
  8
0
 10
31.36728817
 20
210.26345142
 42
-0.21050098
  0
VERTEX
  8
0
 10
30.29925020
 20
202.79191442
 42
-0.27288567
  0
VERTEX
  8
0
 10
29.60448090
 20
197.89216743
  0
VERTEX
  8
0
 10
23.73929348
 20
197.89216743
  0
VERTEX
  8
0
 10
14.68611729
 20
197.89216743
  0
VERTEX
  8
0
 10
14.68611729
 20
200.89216743
  0
VERTEX
  8
0
 10
24.54098781
 20
221.39313388
  0
VERTEX
  8
0
 10
32.05709029
 20
237.02878982
  0
SEQEND
  0
POLYLINE
  8
Default_Layer
 62
256
 66
   1
 39
0.000000
 70
    1
  0
VERTEX
  8
0
 10
71.95087446
 20
198.60208535
 42
-0.49074015
  0
VERTEX
  8
0
 10
69.05082126
 20
198.60208535
  0
VERTEX
  8
0
 10
50.89873400
 20
232.28094470
  0
VERTEX
  8
0
 10
50.15019017
 20
232.31129956
  0
VERTEX
  8
0
 10
49.42477574
 20
232.37170051
  0
VERTEX
  8
0
 10
48.72596260
 20
232.46458782
  0
VERTEX
  8
0
 10
48.05722262
 20
232.59240176
  0
VERTEX
  8
0
 10
47.42202768
 20
232.75758262
  0
VERTEX
  8
0
 10
46.82384966
 20
232.96257067
  0
VERTEX
  8
0
 10
46.26616045
 20
233.20980620
  0
VERTEX
  8
0
 10
46.00358410
 20
233.35002934
  0
VERTEX
  8
0
 10
45.75243191
 20
233.50172946
  0
VERTEX
  8
0
 10
45.51313786
 20
233.66521159
  0
VERTEX
  8
0
 10
45.28613593
 20
233.84078076
  0
VERTEX
  8
0
 10
45.07186011
 20
234.02874200
  0
VERTEX
  8
0
 10
44.87074438
 20
234.22940035
  0
VERTEX
  8
0
 10
44.68322274
 20
234.44306085
  0
VERTEX
  8
0
 10
44.50972915
 20
234.67002852
  0
VERTEX
  8
0
 10
44.35069762
 20
234.91060841
  0
VERTEX
  8
0
 10
44.20656212
 20
235.16510555
  0
VERTEX
  8
0
 10
44.07775664
 20
235.43382497
  0
VERTEX
  8
0
 10
43.96471516
 20
235.71707170
  0
VERTEX
  8
0
 10
43.86787166
 20
236.01515079
  0
VERTEX
  8
0
 10
43.78766014
 20
236.32836727
  0
VERTEX
  8
0
 10
43.72451458
 20
236.65702617
  0
VERTEX
  8
0
 10
43.67886896
 20
237.00143252
  0
VERTEX
  8
0
 10
43.65115727
 20
237.36189137
  0
VERTEX
  8
0
 10
43.64181349
 20
237.73870774
  0
VERTEX
  8
0
 10
56.93956497
 20
237.73870774
  0
VERTEX
  8
0
 10
59.07690675
 20
237.73870774
  0
VERTEX
  8
0
 10
59.06596591
 20
237.33125187
  0
VERTEX
  8
0
 10
59.03351301
 20
236.94297965
  0
VERTEX
  8
0
 10
58.98010252
 20
236.57352123
  0
VERTEX
  8
0
 10
58.90628888
 20
236.22250678
  0
VERTEX
  8
0
 10
58.81262654
 20
235.88956645
  0
VERTEX
  8
0
 10
58.69966994
 20
235.57433039
  0
VERTEX
  8
0
 10
58.56797354
 20
235.27642875
  0
VERTEX
  8
0
 10
58.41809179
 20
234.99549171
  0
VERTEX
  8
0
 10
60.14067657
 20
234.99549171
 42
-0.13939888
  0
VERTEX
  8
0
 10
62.27675252
 20
225.88133899
  0
VERTEX
  8
0
 10
63.38434746
 20
226.86963753
 42
-0.15624018
  0
VERTEX
  8
0
 10
68.84320822
 20
214.41707586
 42
-0.11225109
  0
VERTEX
  8
0
 10
72.64067657
 20
225.36742374
 42
-0.21050098
  0
VERTEX
  8
0
 10
73.70871455
 20
232.83896075
 42
-0.27288567
  0
VERTEX
  8
0
 10
74.40348385
 20
237.73870774
  0
VERTEX
  8
0
 10
80.26867127
 20
237.73870774
  0
VERTEX
  8
0
 10
89.32184746
 20
237.73870774
  0
VERTEX
  8
0
 10
89.32184746
 20
234.73870774
  0
VERTEX
  8
0
 10
79.46697694
 20
214.23774128
  0
VERTEX
  8
0
 10
71.95087446
 20
198.60208535
  0
SEQEND
  0
POLYLINE
  8
Default_Layer
 62
256
 66
   1
 39
0.000000
 70
    1
  0
VERTEX
  8
0
 10
-41.90707365
 20
88.29277468
  0
VERTEX
  8
0
 10
-41.90707365
 20
73.37437022
  0
VERTEX
  8
0
 10
-44.90707365
 20
73.37437022
  0
VERTEX
  8
0
 10
-44.90707365
 20
88.29265690
  0
VERTEX
  8
0
 10
-46.40542442
 20
88.22605611
  0
VERTEX
  8
0
 10
-47.89179057
 20
88.11593195
  0
VERTEX
  8
0
 10
-49.36556322
 20
87.96291092
  0
VERTEX
  8
0
 10
-50.82613347
 20
87.76761952
  0
VERTEX
  8
0
 10
-52.27289244
 20
87.53068426
  0
VERTEX
  8
0
 10
-53.70523126
 20
87.25273165
  0
VERTEX
  8
0
 10
-55.12254103
 20
86.93438819
  0
VERTEX
  8
0
 10
-56.52421287
 20
86.57628038
  0
VERTEX
  8
0
 10
-57.90963790
 20
86.17903474
  0
VERTEX
  8
0
 10
-59.27820724
 20
85.74327777
  0
VERTEX
  8
0
 10
-60.62931199
 20
85.26963597
  0
VERTEX
  8
0
 10
-61.96234328
 20
84.75873585
  0
VERTEX
  8
0
 10
-63.27669223
 20
84.21120391
  0
VERTEX
  8
0
 10
-64.57174994
 20
83.62766667
  0
VERTEX
  8
0
 10
-65.84690753
 20
83.00875062
  0
VERTEX
  8
0
 10
-67.10155612
 20
82.35508228
  0
VERTEX
  8
0
 10
-59.63770326
 20
69.42730991
  0
VERTEX
  8
0
 10
-62.23577947
 20
67.92730991
  0
VERTEX
  8
0
 10
-69.69812837
 20
80.85247734
  0
VERTEX
  8
0
 10
-70.92292195
 20
80.06875773
  0
VERTEX
  8
0
 10
-72.12293902
 20
79.25097869
  0
VERTEX
  8
0
 10
-73.29750632
 20
78.39981937
  0
VERTEX
  8
0
 10
-74.44595059
 20
77.51595889
  0
VERTEX
  8
0
 10
-75.56759855
 20
76.60007639
  0
VERTEX
  8
0
 10
-76.66177694
 20
75.65285099
  0
VERTEX
  8
0
 10
-77.72781250
 20
74.67496184
  0
VERTEX
  8
0
 10
-78.76503197
 20
73.66708806
  0
VERTEX
  8
0
 10
-79.77276206
 20
72.62990879
  0
VERTEX
  8
0
 10
-80.75032953
 20
71.56410316
  0
VERTEX
  8
0
 10
-81.69706110
 20
70.47035030
  0
VERTEX
  8
0
 10
-82.61228352
 20
69.34932935
  0
VERTEX
  8
0
 10
-83.49532350
 20
68.20171943
  0
VERTEX
  8
0
 10
-84.34550780
 20
67.02819969
  0
VERTEX
  8
0
 10
-85.16216313
 20
65.82944925
  0
VERTEX
  8
0
 10
-85.94461624
 20
64.60614725
  0
VERTEX
  8
0
 10
-73.01934878
 20
57.14374060
  0
VERTEX
  8
0
 10
-74.51934878
 20
54.54566439
  0
VERTEX
  8
0
 10
-87.44705869
 20
62.00948118
  0
VERTEX
  8
0
 10
-88.10035985
 20
60.75672583
  0
VERTEX
  8
0
 10
-88.71904451
 20
59.48297810
  0
VERTEX
  8
0
 10
-89.30246780
 20
58.18889645
  0
VERTEX
  8
0
 10
-89.84998487
 20
56.87513929
  0
VERTEX
  8
0
 10
-90.36095084
 20
55.54236508
  0
VERTEX
  8
0
 10
-90.83472086
 20
54.19123223
  0
VERTEX
  8
0
 10
-91.27065004
 20
52.82239919
  0
VERTEX
  8
0
 10
-91.66809354
 20
51.43652439
  0
VERTEX
  8
0
 10
-92.02640647
 20
50.03426627
  0
VERTEX
  8
0
 10
-92.34494399
 20
48.61628325
  0
VERTEX
  8
0
 10
-92.62306121
 20
47.18323378
  0
VERTEX
  8
0
 10
-92.86011328
 20
45.73577629
  0
VERTEX
  8
0
 10
-93.05545533
 20
44.27456920
  0
VERTEX
  8
0
 10
-93.20844249
 20
42.80027097
  0
VERTEX
  8
0
 10
-93.31842991
 20
41.31354001
  0
VERTEX
  8
0
 10
-93.38477270
 20
39.81503477
  0
VERTEX
  8
0
 10
-78.46640909
 20
39.81503477
  0
VERTEX
  8
0
 10
-78.46640909
 20
36.81503477
  0
VERTEX
  8
0
 10
-93.38481035
 20
36.81503477
  0
VERTEX
  8
0
 10
-93.33238796
 20
35.57934836
  0
VERTEX
  8
0
 10
-93.25033199
 20
34.35161064
  0
VERTEX
  8
0
 10
-93.13899330
 20
33.13217161
  0
VERTEX
  8
0
 10
-92.99872277
 20
31.92138124
  0
VERTEX
  8
0
 10
-92.82987125
 20
30.71958951
  0
VERTEX
  8
0
 10
-92.63278963
 20
29.52714641
  0
VERTEX
  8
0
 10
-92.40782877
 20
28.34440192
  0
VERTEX
  8
0
 10
-92.15533954
 20
27.17170601
  0
VERTEX
  8
0
 10
-91.87567280
 20
26.00940869
  0
VERTEX
  8
0
 10
-91.56917943
 20
24.85785991
  0
VERTEX
  8
0
 10
-91.23621030
 20
23.71740968
  0
VERTEX
  8
0
 10
-90.87711627
 20
22.58840797
  0
VERTEX
  8
0
 10
-90.49224821
 20
21.47120475
  0
VERTEX
  8
0
 10
-90.08195700
 20
20.36615002
  0
VERTEX
  8
0
 10
-89.64659350
 20
19.27359376
  0
VERTEX
  8
0
 10
-89.18650858
 20
18.19388595
  0
VERTEX
  8
0
 10
-88.70205310
 20
17.12737656
  0
VERTEX
  8
0
 10
-88.19357795
 20
16.07441559
  0
VERTEX
  8
0
 10
-87.66143398
 20
15.03535301
  0
VERTEX
  8
0
 10
-87.10597207
 20
14.01053881
  0
VERTEX
  8
0
 10
-86.52754308
 20
13.00032297
  0
VERTEX
  8
0
 10
-85.92649789
 20
12.00505547
  0
VERTEX
  8
0
 10
-85.30318735
 20
11.02508629
  0
VERTEX
  8
0
 10
-84.65796235
 20
10.06076542
  0
VERTEX
  8
0
 10
-83.99117376
 20
9.11244283
  0
VERTEX
  8
0
 10
-83.30317243
 20
8.18046852
  0
VERTEX
  8
0
 10
-82.59430924
 20
7.26519245
  0
VERTEX
  8
0
 10
-81.86493505
 20
6.36696462
  0
VERTEX
  8
0
 10
-81.11540074
 20
5.48613501
  0
VERTEX
  8
0
 10
-80.34605718
 20
4.62305359
  0
VERTEX
  8
0
 10
-79.55725523
 20
3.77807036
  0
VERTEX
  8
0
 10
-78.74934577
 20
2.95153528
  0
VERTEX
  8
0
 10
-77.92267966
 20
2.14379836
  0
VERTEX
  8
0
 10
-77.07760777
 20
1.35520955
  0
VERTEX
  8
0
 10
-76.21448096
 20
0.58611886
  0
VERTEX
  8
0
 10
-75.33365012
 20
-0.16312374
  0
VERTEX
  8
0
 10
-74.43546610
 20
-0.89216827
  0
VERTEX
  8
0
 10
-73.52027979
 20
-1.60066475
  0
VERTEX
  8
0
 10
-72.58844203
 20
-2.28826319
  0
VERTEX
  8
0
 10
-71.64030371
 20
-2.95461360
  0
VERTEX
  8
0
 10
-70.67621570
 20
-3.59936602
  0
VERTEX
  8
0
 10
-69.69652886
 20
-4.22217045
  0
VERTEX
  8
0
 10
-68.70159405
 20
-4.82267692
  0
VERTEX
  8
0
 10
-67.69176216
 20
-5.40053544
  0
VERTEX
  8
0
 10
-66.66738405
 20
-5.95539603
  0
VERTEX
  8
0
 10
-65.62881059
 20
-6.48690871
  0
VERTEX
  8
0
 10
-64.57639264
 20
-6.99472349
  0
VERTEX
  8
0
 10
-63.51048108
 20
-7.47849039
  0
VERTEX
  8
0
 10
-62.43142677
 20
-7.93785944
  0
VERTEX
  8
0
 10
-61.33958059
 20
-8.37248065
  0
VERTEX
  8
0
 10
-60.23529340
 20
-8.78200403
  0
VERTEX
  8
0
 10
-59.11891607
 20
-9.16607961
  0
VERTEX
  8
0
 10
-57.99079948
 20
-9.52435740
  0
VERTEX
  8
0
 10
-56.85129448
 20
-9.85648743
  0
VERTEX
  8
0
 10
-55.70075195
 20
-10.16211970
  0
VERTEX
  8
0
 10
-54.53952276
 20
-10.44090424
  0
VERTEX
  8
0
 10
-53.36795777
 20
-10.69249106
  0
VERTEX
  8
0
 10
-52.18640786
 20
-10.91653018
  0
VERTEX
  8
0
 10
-50.99522390
 20
-11.11267163
  0
VERTEX
  8
0
 10
-49.79475675
 20
-11.28056541
  0
VERTEX
  8
0
 10
-48.58535728
 20
-11.41986155
  0
VERTEX
  8
0
 10
-47.36737636
 20
-11.53021006
  0
VERTEX
  8
0
 10
-46.14116486
 20
-11.61126097
  0
VERTEX
  8
0
 10
-44.90707365
 20
-11.66266428
  0
VERTEX
  8
0
 10
-44.90707365
 20
3.25569933
  0
VERTEX
  8
0
 10
-41.90707365
 20
3.25569933
  0
VERTEX
  8
0
 10
-41.90707365
 20
-11.66258735
  0
VERTEX
  8
0
 10
-40.40872287
 20
-11.59598656
  0
VERTEX
  8
0
 10
-38.92235672
 20
-11.48586240
  0
VERTEX
  8
0
 10
-37.44858408
 20
-11.33284137
  0
VERTEX
  8
0
 10
-35.98801383
 20
-11.13754997
  0
VERTEX
  8
0
 10
-34.54125485
 20
-10.90061472
  0
VERTEX
  8
0
 10
-33.10891604
 20
-10.62266210
  0
VERTEX
  8
0
 10
-31.69160627
 20
-10.30431864
  0
VERTEX
  8
0
 10
-30.28993442
 20
-9.94621084
  0
VERTEX
  8
0
 10
-28.90450939
 20
-9.54896519
  0
VERTEX
  8
0
 10
-27.53594006
 20
-9.11320822
  0
VERTEX
  8
0
 10
-26.18483530
 20
-8.63956642
  0
VERTEX
  8
0
 10
-24.85180401
 20
-8.12866630
  0
VERTEX
  8
0
 10
-23.53745507
 20
-7.58113436
  0
VERTEX
  8
0
 10
-22.24239736
 20
-6.99759712
  0
VERTEX
  8
0
 10
-20.96723977
 20
-6.37868107
  0
VERTEX
  8
0
 10
-19.71259117
 20
-5.72501273
  0
VERTEX
  8
0
 10
-27.17644403
 20
7.20275964
  0
VERTEX
  8
0
 10
-24.57836782
 20
8.70275964
  0
VERTEX
  8
0
 10
-17.11601893
 20
-4.22240779
  0
VERTEX
  8
0
 10
-15.89122535
 20
-3.43868818
  0
VERTEX
  8
0
 10
-14.69120828
 20
-2.62090915
  0
VERTEX
  8
0
 10
-13.51664097
 20
-1.76974982
  0
VERTEX
  8
0
 10
-12.36819671
 20
-0.88588934
  0
VERTEX
  8
0
 10
-11.24654875
 20
0.02999316
  0
VERTEX
  8
0
 10
-10.15237035
 20
0.97721855
  0
VERTEX
  8
0
 10
-9.08633479
 20
1.95510771
  0
VERTEX
  8
0
 10
-8.04911533
 20
2.96298149
  0
VERTEX
  8
0
 10
-7.04138523
 20
4.00016076
  0
VERTEX
  8
0
 10
-6.06381776
 20
5.06596639
  0
VERTEX
  8
0
 10
-5.11708619
 20
6.15971925
  0
VERTEX
  8
0
 10
-4.20186378
 20
7.28074020
  0
VERTEX
  8
0
 10
-3.31882379
 20
8.42835012
  0
VERTEX
  8
0
 10
-2.46863950
 20
9.60186986
  0
VERTEX
  8
0
 10
-1.65198416
 20
10.80062030
  0
VERTEX
  8
0
 10
-0.86953105
 20
12.02392230
  0
VERTEX
  8
0
 10
-13.79479851
 20
19.48632895
  0
VERTEX
  8
0
 10
-12.29479851
 20
22.08440516
  0
VERTEX
  8
0
 10
0.63291139
 20
14.62058836
  0
VERTEX
  8
0
 10
1.28621255
 20
15.87334372
  0
VERTEX
  8
0
 10
1.90489721
 20
17.14709145
  0
VERTEX
  8
0
 10
2.48832051
 20
18.44117310
  0
VERTEX
  8
0
 10
3.03583758
 20
19.75493026
  0
VERTEX
  8
0
 10
3.54680355
 20
21.08770447
  0
VERTEX
  8
0
 10
4.02057356
 20
22.43883732
  0
VERTEX
  8
0
 10
4.45650275
 20
23.80767036
  0
VERTEX
  8
0
 10
4.85394624
 20
25.19354516
  0
VERTEX
  8
0
 10
5.21225918
 20
26.59580328
  0
VERTEX
  8
0
 10
5.53079669
 20
28.01378630
  0
VERTEX
  8
0
 10
5.80891392
 20
29.44683577
  0
VERTEX
  8
0
 10
6.04596599
 20
30.89429326
  0
VERTEX
  8
0
 10
6.24130804
 20
32.35550034
  0
VERTEX
  8
0
 10
6.39429520
 20
33.82979858
  0
VERTEX
  8
0
 10
6.50428261
 20
35.31652953
  0
VERTEX
  8
0
 10
6.57062541
 20
36.81503477
  0
VERTEX
  8
0
 10
-8.34773820
 20
36.81503477
  0
VERTEX
  8
0
 10
-8.34773820
 20
39.81503477
  0
VERTEX
  8
0
 10
6.57062541
 20
39.81503477
  0
VERTEX
  8
0
 10
6.51953062
 20
41.04941942
  0
VERTEX
  8
0
 10
6.43874455
 20
42.27593661
  0
VERTEX
  8
0
 10
6.32861884
 20
43.49423444
  0
VERTEX
  8
0
 10
6.18950510
 20
44.70396100
  0
VERTEX
  8
0
 10
6.02175496
 20
45.90476436
  0
VERTEX
  8
0
 10
5.82572003
 20
47.09629263
  0
VERTEX
  8
0
 10
5.60175193
 20
48.27819388
  0
VERTEX
  8
0
 10
5.35020230
 20
49.45011620
  0
VERTEX
  8
0
 10
5.07142275
 20
50.61170769
  0
VERTEX
  8
0
 10
4.76576490
 20
51.76261642
  0
VERTEX
  8
0
 10
4.43358037
 20
52.90249049
  0
VERTEX
  8
0
 10
4.07522080
 20
54.03097797
  0
VERTEX
  8
0
 10
3.69103779
 20
55.14772697
  0
VERTEX
  8
0
 10
3.28138297
 20
56.25238556
  0
VERTEX
  8
0
 10
2.84660796
 20
57.34460183
  0
VERTEX
  8
0
 10
2.38706438
 20
58.42402388
  0
VERTEX
  8
0
 10
1.90310387
 20
59.49029978
  0
VERTEX
  8
0
 10
1.39507803
 20
60.54307762
  0
VERTEX
  8
0
 10
0.86333848
 20
61.58200550
  0
VERTEX
  8
0
 10
0.30823686
 20
62.60673149
  0
VERTEX
  8
0
 10
-0.26987522
 20
63.61690369
  0
VERTEX
  8
0
 10
-0.87064613
 20
64.61217018
  0
VERTEX
  8
0
 10
-1.49372426
 20
65.59217906
  0
VERTEX
  8
0
 10
-2.13875797
 20
66.55657839
  0
VERTEX
  8
0
 10
-2.80539566
 20
67.50501629
  0
VERTEX
  8
0
 10
-3.49328570
 20
68.43714082
  0
VERTEX
  8
0
 10
-4.20207646
 20
69.35260008
  0
VERTEX
  8
0
 10
-4.93141633
 20
70.25104216
  0
VERTEX
  8
0
 10
-5.68095368
 20
71.13211513
  0
VERTEX
  8
0
 10
-6.45033689
 20
71.99546710
  0
VERTEX
  8
0
 10
-7.23921434
 20
72.84074615
  0
VERTEX
  8
0
 10
-8.04723441
 20
73.66760035
  0
VERTEX
  8
0
 10
-8.87404548
 20
74.47567781
  0
VERTEX
  8
0
 10
-9.71929591
 20
75.26462661
  0
VERTEX
  8
0
 10
-10.58263410
 20
76.03409483
  0
VERTEX
  8
0
 10
-11.46370842
 20
76.78373057
  0
VERTEX
  8
0
 10
-12.36216725
 20
77.51318190
  0
VERTEX
  8
0
 10
-13.27765896
 20
78.22209692
  0
VERTEX
  8
0
 10
-14.20983194
 20
78.91012371
  0
VERTEX
  8
0
 10
-15.15833456
 20
79.57691036
  0
VERTEX
  8
0
 10
-16.12281521
 20
80.22210496
  0
VERTEX
  8
0
 10
-17.10292225
 20
80.84535560
  0
VERTEX
  8
0
 10
-18.09830407
 20
81.44631036
  0
VERTEX
  8
0
 10
-19.10860904
 20
82.02461732
  0
VERTEX
  8
0
 10
-20.13348555
 20
82.57992458
  0
VERTEX
  8
0
 10
-21.17258197
 20
83.11188023
  0
VERTEX
  8
0
 10
-22.22554668
 20
83.62013234
  0
VERTEX
  8
0
 10
-23.29202806
 20
84.10432902
  0
VERTEX
  8
0
 10
-24.37167449
 20
84.56411834
  0
VERTEX
  8
0
 10
-25.46413434
 20
84.99914838
  0
VERTEX
  8
0
 10
-26.56905600
 20
85.40906725
  0
VERTEX
  8
0
 10
-27.68608783
 20
85.79352303
  0
VERTEX
  8
0
 10
-28.81487822
 20
86.15216379
  0
VERTEX
  8
0
 10
-29.95507556
 20
86.48463764
  0
VERTEX
  8
0
 10
-31.10632820
 20
86.79059265
  0
VERTEX
  8
0
 10
-32.26828455
 20
87.06967692
  0
VERTEX
  8
0
 10
-33.44059296
 20
87.32153853
  0
VERTEX
  8
0
 10
-34.62290183
 20
87.54582557
  0
VERTEX
  8
0
 10
-35.81485952
 20
87.74218612
  0
VERTEX
  8
0
 10
-37.01611442
 20
87.91026828
  0
VERTEX
  8
0
 10
-38.22631490
 20
88.04972013
  0
VERTEX
  8
0
 10
-39.44510935
 20
88.16018975
  0
VERTEX
  8
0
 10
-40.67214614
 20
88.24132524
  0
VERTEX
  8
0
 10
-41.90707365
 20
88.29277468
  0
SEQEND
  0
POLYLINE
  8
Default_Layer
 62
256
 66
   1
 39
0.000000
 70
    1
  0
VERTEX
  8
0
 10
-74.50828650
 20
-19.13338485
 42
-0.49074015
  0
VERTEX
  8
0
 10
-71.60823329
 20
-19.13338485
  0
VERTEX
  8
0
 10
-53.45614604
 20
-52.81224420
  0
VERTEX
  8
0
 10
-52.70760220
 20
-52.84259906
  0
VERTEX
  8
0
 10
-51.98218778
 20
-52.90300001
  0
VERTEX
  8
0
 10
-51.28337463
 20
-52.99588731
  0
VERTEX
  8
0
 10
-50.61463465
 20
-53.12370126
  0
VERTEX
  8
0
 10
-49.97943972
 20
-53.28888212
  0
VERTEX
  8
0
 10
-49.38126170
 20
-53.49387017
  0
VERTEX
  8
0
 10
-48.82357248
 20
-53.74110569
  0
VERTEX
  8
0
 10
-48.56099614
 20
-53.88132884
  0
VERTEX
  8
0
 10
-48.30984395
 20
-54.03302896
  0
VERTEX
  8
0
 10
-48.07054989
 20
-54.19651109
  0
VERTEX
  8
0
 10
-47.84354797
 20
-54.37208025
  0
VERTEX
  8
0
 10
-47.62927215
 20
-54.56004149
  0
VERTEX
  8
0
 10
-47.42815642
 20
-54.76069985
  0
VERTEX
  8
0
 10
-47.24063477
 20
-54.97436034
  0
VERTEX
  8
0
 10
-47.06714119
 20
-55.20132802
  0
VERTEX
  8
0
 10
-46.90810966
 20
-55.44190791
  0
VERTEX
  8
0
 10
-46.76397416
 20
-55.69640504
  0
VERTEX
  8
0
 10
-46.63516867
 20
-55.96512446
  0
VERTEX
  8
0
 10
-46.52212719
 20
-56.24837120
  0
VERTEX
  8
0
 10
-46.42528370
 20
-56.54645029
  0
VERTEX
  8
0
 10
-46.34507218
 20
-56.85966677
  0
VERTEX
  8
0
 10
-46.28192662
 20
-57.18832567
  0
VERTEX
  8
0
 10
-46.23628100
 20
-57.53273202
  0
VERTEX
  8
0
 10
-46.20856931
 20
-57.89319087
  0
VERTEX
  8
0
 10
-46.19922553
 20
-58.27000724
  0
VERTEX
  8
0
 10
-59.49697700
 20
-58.27000724
  0
VERTEX
  8
0
 10
-61.63431878
 20
-58.27000724
  0
VERTEX
  8
0
 10
-61.62337794
 20
-57.86255137
  0
VERTEX
  8
0
 10
-61.59092505
 20
-57.47427914
  0
VERTEX
  8
0
 10
-61.53751456
 20
-57.10482073
  0
VERTEX
  8
0
 10
-61.46370092
 20
-56.75380628
  0
VERTEX
  8
0
 10
-61.37003857
 20
-56.42086594
  0
VERTEX
  8
0
 10
-61.25708198
 20
-56.10562988
  0
VERTEX
  8
0
 10
-61.12538558
 20
-55.80772825
  0
VERTEX
  8
0
 10
-60.97550382
 20
-55.52679120
  0
VERTEX
  8
0
 10
-62.69808861
 20
-55.52679120
 42
-0.13939888
  0
VERTEX
  8
0
 10
-64.83416456
 20
-46.41263848
  0
VERTEX
  8
0
 10
-65.94175950
 20
-47.40093703
 42
-0.15624018
  0
VERTEX
  8
0
 10
-71.40062026
 20
-34.94837536
 42
-0.11225109
  0
VERTEX
  8
0
 10
-75.19808861
 20
-45.89872324
 42
-0.21050098
  0
VERTEX
  8
0
 10
-76.26612659
 20
-53.37026024
 42
-0.27288567
  0
VERTEX
  8
0
 10
-76.96089589
 20
-58.27000724
  0
VERTEX
  8
0
 10
-82.82608331
 20
-58.27000724
  0
VERTEX
  8
0
 10
-91.87925950
 20
-58.27000724
  0
VERTEX
  8
0
 10
-91.87925950
 20
-55.27000724
  0
VERTEX
  8
0
 10
-82.02438898
 20
-34.76904078
  0
VERTEX
  8
0
 10
-74.50828650
 20
-19.13338485
  0
SEQEND
  0
POLYLINE
  8
Default_Layer
 62
256
 66
   1
 39
0.000000
 70
    1
  0
VERTEX
  8
0
 10
-34.61450232
 20
-57.56008931
 42
-0.49074015
  0
VERTEX
  8
0
 10
-37.51455553
 20
-57.56008931
  0
VERTEX
  8
0
 10
-55.66664279
 20
-23.88122996
  0
VERTEX
  8
0
 10
-56.41518662
 20
-23.85087510
  0
VERTEX
  8
0
 10
-57.14060105
 20
-23.79047415
  0
VERTEX
  8
0
 10
-57.83941419
 20
-23.69758685
  0
VERTEX
  8
0
 10
-58.50815417
 20
-23.56977290
  0
VERTEX
  8
0
 10
-59.14334911
 20
-23.40459204
  0
VERTEX
  8
0
 10
-59.74152712
 20
-23.19960399
  0
VERTEX
  8
0
 10
-60.29921634
 20
-22.95236847
  0
VERTEX
  8
0
 10
-60.56179269
 20
-22.81214532
  0
VERTEX
  8
0
 10
-60.81294488
 20
-22.66044520
  0
VERTEX
  8
0
 10
-61.05223893
 20
-22.49696307
  0
VERTEX
  8
0
 10
-61.27924086
 20
-22.32139391
  0
VERTEX
  8
0
 10
-61.49351668
 20
-22.13343267
  0
VERTEX
  8
0
 10
-61.69463240
 20
-21.93277431
  0
VERTEX
  8
0
 10
-61.88215405
 20
-21.71911382
  0
VERTEX
  8
0
 10
-62.05564763
 20
-21.49214614
  0
VERTEX
  8
0
 10
-62.21467917
 20
-21.25156625
  0
VERTEX
  8
0
 10
-62.35881467
 20
-20.99706912
  0
VERTEX
  8
0
 10
-62.48762015
 20
-20.72834970
  0
VERTEX
  8
0
 10
-62.60066163
 20
-20.44510296
  0
VERTEX
  8
0
 10
-62.69750512
 20
-20.14702387
  0
VERTEX
  8
0
 10
-62.77771664
 20
-19.83380739
  0
VERTEX
  8
0
 10
-62.84086220
 20
-19.50514849
  0
VERTEX
  8
0
 10
-62.88650782
 20
-19.16074214
  0
VERTEX
  8
0
 10
-62.91421952
 20
-18.80028329
  0
VERTEX
  8
0
 10
-62.92356330
 20
-18.42346692
  0
VERTEX
  8
0
 10
-49.62581182
 20
-18.42346692
  0
VERTEX
  8
0
 10
-47.48847004
 20
-18.42346692
  0
VERTEX
  8
0
 10
-47.49941088
 20
-18.83092279
  0
VERTEX
  8
0
 10
-47.53186377
 20
-19.21919502
  0
VERTEX
  8
0
 10
-47.58527426
 20
-19.58865343
  0
VERTEX
  8
0
 10
-47.65908791
 20
-19.93966788
  0
VERTEX
  8
0
 10
-47.75275025
 20
-20.27260822
  0
VERTEX
  8
0
 10
-47.86570685
 20
-20.58784428
  0
VERTEX
  8
0
 10
-47.99740325
 20
-20.88574591
  0
VERTEX
  8
0
 10
-48.14728500
 20
-21.16668296
  0
VERTEX
  8
0
 10
-46.42470021
 20
-21.16668296
 42
-0.13939888
  0
VERTEX
  8
0
 10
-44.28862426
 20
-30.28083568
  0
VERTEX
  8
0
 10
-43.18102933
 20
-29.29253713
 42
-0.15624018
  0
VERTEX
  8
0
 10
-37.72216857
 20
-41.74509880
 42
-0.11225109
  0
VERTEX
  8
0
 10
-33.92470021
 20
-30.79475092
 42
-0.21050098
  0
VERTEX
  8
0
 10
-32.85666224
 20
-23.32321392
 42
-0.27288567
  0
VERTEX
  8
0
 10
-32.16189294
 20
-18.42346692
  0
VERTEX
  8
0
 10
-26.29670552
 20
-18.42346692
  0
VERTEX
  8
0
 10
-17.24352933
 20
-18.42346692
  0
VERTEX
  8
0
 10
-17.24352933
 20
-21.42346692
  0
VERTEX
  8
0
 10
-27.09839985
 20
-41.92443338
  0
VERTEX
  8
0
 10
-34.61450232
 20
-57.56008931
  0
SEQEND
  0
POLYLINE
  8
Default_Layer
 62
256
 66
   1
 39
0.000000
 70
    1
  0
VERTEX
  8
0
 10
-6.87758376
 20
-19.13338485
 42
-0.49074015
  0
VERTEX
  8
0
 10
-3.97753055
 20
-19.13338485
  0
VERTEX
  8
0
 10
14.17455671
 20
-52.81224420
  0
VERTEX
  8
0
 10
14.92310054
 20
-52.84259906
  0
VERTEX
  8
0
 10
15.64851497
 20
-52.90300001
  0
VERTEX
  8
0
 10
16.34732811
 20
-52.99588731
  0
VERTEX
  8
0
 10
17.01606809
 20
-53.12370126
  0
VERTEX
  8
0
 10
17.65126303
 20
-53.28888212
  0
VERTEX
  8
0
 10
18.24944104
 20
-53.49387017
  0
VERTEX
  8
0
 10
18.80713026
 20
-53.74110569
  0
VERTEX
  8
0
 10
19.06970661
 20
-53.88132884
  0
VERTEX
  8
0
 10
19.32085880
 20
-54.03302896
  0
VERTEX
  8
0
 10
19.56015285
 20
-54.19651109
  0
VERTEX
  8
0
 10
19.78715478
 20
-54.37208025
  0
VERTEX
  8
0
 10
20.00143060
 20
-54.56004149
  0
VERTEX
  8
0
 10
20.20254632
 20
-54.76069985
  0
VERTEX
  8
0
 10
20.39006797
 20
-54.97436034
  0
VERTEX
  8
0
 10
20.56356155
 20
-55.20132802
  0
VERTEX
  8
0
 10
20.72259308
 20
-55.44190791
  0
VERTEX
  8
0
 10
20.86672859
 20
-55.69640504
  0
VERTEX
  8
0
 10
20.99553407
 20
-55.96512446
  0
VERTEX
  8
0
 10
21.10857555
 20
-56.24837120
  0
VERTEX
  8
0
 10
21.20541904
 20
-56.54645029
  0
VERTEX
  8
0
 10
21.28563056
 20
-56.85966677
  0
VERTEX
  8
0
 10
21.34877612
 20
-57.18832567
  0
VERTEX
  8
0
 10
21.39442174
 20
-57.53273202
  0
VERTEX
  8
0
 10
21.42213343
 20
-57.89319087
  0
VERTEX
  8
0
 10
21.43147721
 20
-58.27000724
  0
VERTEX
  8
0
 10
8.13372574
 20
-58.27000724
  0
VERTEX
  8
0
 10
5.99638396
 20
-58.27000724
  0
VERTEX
  8
0
 10
6.00732480
 20
-57.86255137
  0
VERTEX
  8
0
 10
6.03977769
 20
-57.47427914
  0
VERTEX
  8
0
 10
6.09318818
 20
-57.10482073
  0
VERTEX
  8
0
 10
6.16700183
 20
-56.75380628
  0
VERTEX
  8
0
 10
6.26066417
 20
-56.42086594
  0
VERTEX
  8
0
 10
6.37362077
 20
-56.10562988
  0
VERTEX
  8
0
 10
6.50531717
 20
-55.80772825
  0
VERTEX
  8
0
 10
6.65519892
 20
-55.52679120
  0
VERTEX
  8
0
 10
4.93261413
 20
-55.52679120
 42
-0.13939888
  0
VERTEX
  8
0
 10
2.79653818
 20
-46.41263848
  0
VERTEX
  8
0
 10
1.68894324
 20
-47.40093703
 42
-0.15624018
  0
VERTEX
  8
0
 10
-3.76991752
 20
-34.94837536
 42
-0.11225109
  0
VERTEX
  8
0
 10
-7.56738587
 20
-45.89872324
 42
-0.21050098
  0
VERTEX
  8
0
 10
-8.63542384
 20
-53.37026024
 42
-0.27288567
  0
VERTEX
  8
0
 10
-9.33019314
 20
-58.27000724
  0
VERTEX
  8
0
 10
-15.19538056
 20
-58.27000724
  0
VERTEX
  8
0
 10
-24.24855676
 20
-58.27000724
  0
VERTEX
  8
0
 10
-24.24855676
 20
-55.27000724
  0
VERTEX
  8
0
 10
-14.39368623
 20
-34.76904078
  0
VERTEX
  8
0
 10
-6.87758376
 20
-19.13338485
  0
SEQEND
  0
POLYLINE
  8
Default_Layer
 62
256
 66
   1
 39
0.000000
 70
    1
  0
VERTEX
  8
0
 10
33.01620042
 20
-57.56008931
 42
-0.49074015
  0
VERTEX
  8
0
 10
30.11614721
 20
-57.56008931
  0
VERTEX
  8
0
 10
11.96405996
 20
-23.88122996
  0
VERTEX
  8
0
 10
11.21551612
 20
-23.85087510
  0
VERTEX
  8
0
 10
10.49010170
 20
-23.79047415
  0
VERTEX
  8
0
 10
9.79128855
 20
-23.69758685
  0
VERTEX
  8
0
 10
9.12254857
 20
-23.56977290
  0
VERTEX
  8
0
 10
8.48735364
 20
-23.40459204
  0
VERTEX
  8
0
 10
7.88917562
 20
-23.19960399
  0
VERTEX
  8
0
 10
7.33148640
 20
-22.95236847
  0
VERTEX
  8
0
 10
7.06891006
 20
-22.81214532
  0
VERTEX
  8
0
 10
6.81775786
 20
-22.66044520
  0
VERTEX
  8
0
 10
6.57846381
 20
-22.49696307
  0
VERTEX
  8
0
 10
6.35146188
 20
-22.32139391
  0
VERTEX
  8
0
 10
6.13718607
 20
-22.13343267
  0
VERTEX
  8
0
 10
5.93607034
 20
-21.93277431
  0
VERTEX
  8
0
 10
5.74854869
 20
-21.71911382
  0
VERTEX
  8
0
 10
5.57505511
 20
-21.49214614
  0
VERTEX
  8
0
 10
5.41602358
 20
-21.25156625
  0
VERTEX
  8
0
 10
5.27188808
 20
-20.99706912
  0
VERTEX
  8
0
 10
5.14308259
 20
-20.72834970
  0
VERTEX
  8
0
 10
5.03004111
 20
-20.44510296
  0
VERTEX
  8
0
 10
4.93319762
 20
-20.14702387
  0
VERTEX
  8
0
 10
4.85298610
 20
-19.83380739
  0
VERTEX
  8
0
 10
4.78984054
 20
-19.50514849
  0
VERTEX
  8
0
 10
4.74419492
 20
-19.16074214
  0
VERTEX
  8
0
 10
4.71648323
 20
-18.80028329
  0
VERTEX
  8
0
 10
4.70713945
 20
-18.42346692
  0
VERTEX
  8
0
 10
18.00489092
 20
-18.42346692
  0
VERTEX
  8
0
 10
20.14223270
 20
-18.42346692
  0
VERTEX
  8
0
 10
20.13129186
 20
-18.83092279
  0
VERTEX
  8
0
 10
20.09883897
 20
-19.21919502
  0
VERTEX
  8
0
 10
20.04542848
 20
-19.58865343
  0
VERTEX
  8
0
 10
19.97161484
 20
-19.93966788
  0
VERTEX
  8
0
 10
19.87795249
 20
-20.27260822
  0
VERTEX
  8
0
 10
19.76499590
 20
-20.58784428
  0
VERTEX
  8
0
 10
19.63329950
 20
-20.88574591
  0
VERTEX
  8
0
 10
19.48341774
 20
-21.16668296
  0
VERTEX
  8
0
 10
21.20600253
 20
-21.16668296
 42
-0.13939888
  0
VERTEX
  8
0
 10
23.34207848
 20
-30.28083568
  0
VERTEX
  8
0
 10
24.44967342
 20
-29.29253713
 42
-0.15624018
  0
VERTEX
  8
0
 10
29.90853418
 20
-41.74509880
 42
-0.11225109
  0
VERTEX
  8
0
 10
33.70600253
 20
-30.79475092
 42
-0.21050098
  0
VERTEX
  8
0
 10
34.77404051
 20
-23.32321392
 42
-0.27288567
  0
VERTEX
  8
0
 10
35.46880981
 20
-18.42346692
  0
VERTEX
  8
0
 10
41.33399723
 20
-18.42346692
  0
VERTEX
  8
0
 10
50.38717342
 20
-18.42346692
  0
VERTEX
  8
0
 10
50.38717342
 20
-21.42346692
  0
VERTEX
  8
0
 10
40.53230289
 20
-41.92443338
  0
VERTEX
  8
0
 10
33.01620042
 20
-57.56008931
  0
SEQEND
  0
POLYLINE
  8
Default_Layer
 62
256
 66
   1
 39
0.000000
 70
    1
  0
VERTEX
  8
0
 10
30.15835611
 20
30.34949295
 42
-0.49074015
  0
VERTEX
  8
0
 10
33.05840932
 20
30.34949295
  0
VERTEX
  8
0
 10
51.21049657
 20
-3.32936641
  0
VERTEX
  8
0
 10
51.95904040
 20
-3.35972127
  0
VERTEX
  8
0
 10
52.68445483
 20
-3.42012221
  0
VERTEX
  8
0
 10
53.38326798
 20
-3.51300952
  0
VERTEX
  8
0
 10
54.05200796
 20
-3.64082347
  0
VERTEX
  8
0
 10
54.68720289
 20
-3.80600433
  0
VERTEX
  8
0
 10
55.28538091
 20
-4.01099238
  0
VERTEX
  8
0
 10
55.84307013
 20
-4.25822790
  0
VERTEX
  8
0
 10
56.10564647
 20
-4.39845105
  0
VERTEX
  8
0
 10
56.35679866
 20
-4.55015117
  0
VERTEX
  8
0
 10
56.59609272
 20
-4.71363329
  0
VERTEX
  8
0
 10
56.82309464
 20
-4.88920246
  0
VERTEX
  8
0
 10
57.03737046
 20
-5.07716370
  0
VERTEX
  8
0
 10
57.23848619
 20
-5.27782205
  0
VERTEX
  8
0
 10
57.42600783
 20
-5.49148255
  0
VERTEX
  8
0
 10
57.59950142
 20
-5.71845022
  0
VERTEX
  8
0
 10
57.75853295
 20
-5.95903011
  0
VERTEX
  8
0
 10
57.90266845
 20
-6.21352725
  0
VERTEX
  8
0
 10
58.03147394
 20
-6.48224667
  0
VERTEX
  8
0
 10
58.14451542
 20
-6.76549341
  0
VERTEX
  8
0
 10
58.24135891
 20
-7.06357250
  0
VERTEX
  8
0
 10
58.32157043
 20
-7.37678898
  0
VERTEX
  8
0
 10
58.38471599
 20
-7.70544787
  0
VERTEX
  8
0
 10
58.43036161
 20
-8.04985423
  0
VERTEX
  8
0
 10
58.45807330
 20
-8.41031307
  0
VERTEX
  8
0
 10
58.46741708
 20
-8.78712945
  0
VERTEX
  8
0
 10
45.16966561
 20
-8.78712945
  0
VERTEX
  8
0
 10
43.03232382
 20
-8.78712945
  0
VERTEX
  8
0
 10
43.04326467
 20
-8.37967357
  0
VERTEX
  8
0
 10
43.07571756
 20
-7.99140135
  0
VERTEX
  8
0
 10
43.12912805
 20
-7.62194294
  0
VERTEX
  8
0
 10
43.20294169
 20
-7.27092849
  0
VERTEX
  8
0
 10
43.29660404
 20
-6.93798815
  0
VERTEX
  8
0
 10
43.40956063
 20
-6.62275209
  0
VERTEX
  8
0
 10
43.54125703
 20
-6.32485046
  0
VERTEX
  8
0
 10
43.69113878
 20
-6.04391341
  0
VERTEX
  8
0
 10
41.96855400
 20
-6.04391341
 42
-0.13939888
  0
VERTEX
  8
0
 10
39.83247805
 20
3.07023931
  0
VERTEX
  8
0
 10
38.72488311
 20
2.08194076
 42
-0.15624018
  0
VERTEX
  8
0
 10
33.26602235
 20
14.53450243
 42
-0.11225109
  0
VERTEX
  8
0
 10
29.46855400
 20
3.58415455
 42
-0.21050098
  0
VERTEX
  8
0
 10
28.40051602
 20
-3.88738245
 42
-0.27288567
  0
VERTEX
  8
0
 10
27.70574672
 20
-8.78712945
  0
VERTEX
  8
0
 10
21.84055930
 20
-8.78712945
  0
VERTEX
  8
0
 10
12.78738311
 20
-8.78712945
  0
VERTEX
  8
0
 10
12.78738311
 20
-5.78712945
  0
VERTEX
  8
0
 10
22.64225363
 20
14.71383701
  0
VERTEX
  8
0
 10
30.15835611
 20
30.34949295
  0
SEQEND
  0
POLYLINE
  8
Default_Layer
 62
256
 66
   1
 39
0.000000
 70
    1
  0
VERTEX
  8
0
 10
70.05214028
 20
-8.07721152
 42
-0.49074015
  0
VERTEX
  8
0
 10
67.15208708
 20
-8.07721152
  0
VERTEX
  8
0
 10
48.99999982
 20
25.60164783
  0
VERTEX
  8
0
 10
48.25145599
 20
25.63200269
  0
VERTEX
  8
0
 10
47.52604156
 20
25.69240364
  0
VERTEX
  8
0
 10
46.82722842
 20
25.78529094
  0
VERTEX
  8
0
 10
46.15848844
 20
25.91310489
  0
VERTEX
  8
0
 10
45.52329350
 20
26.07828575
  0
VERTEX
  8
0
 10
44.92511549
 20
26.28327380
  0
VERTEX
  8
0
 10
44.36742627
 20
26.53050932
  0
VERTEX
  8
0
 10
44.10484992
 20
26.67073247
  0
VERTEX
  8
0
 10
43.85369773
 20
26.82243259
  0
VERTEX
  8
0
 10
43.61440368
 20
26.98591472
  0
VERTEX
  8
0
 10
43.38740175
 20
27.16148389
  0
VERTEX
  8
0
 10
43.17312593
 20
27.34944513
  0
VERTEX
  8
0
 10
42.97201021
 20
27.55010348
  0
VERTEX
  8
0
 10
42.78448856
 20
27.76376397
  0
VERTEX
  8
0
 10
42.61099498
 20
27.99073165
  0
VERTEX
  8
0
 10
42.45196344
 20
28.23131154
  0
VERTEX
  8
0
 10
42.30782794
 20
28.48580867
  0
VERTEX
  8
0
 10
42.17902246
 20
28.75452809
  0
VERTEX
  8
0
 10
42.06598098
 20
29.03777483
  0
VERTEX
  8
0
 10
41.96913749
 20
29.33585392
  0
VERTEX
  8
0
 10
41.88892597
 20
29.64907040
  0
VERTEX
  8
0
 10
41.82578041
 20
29.97772930
  0
VERTEX
  8
0
 10
41.78013479
 20
30.32213565
  0
VERTEX
  8
0
 10
41.75242309
 20
30.68259450
  0
VERTEX
  8
0
 10
41.74307931
 20
31.05941087
  0
VERTEX
  8
0
 10
55.04083079
 20
31.05941087
  0
VERTEX
  8
0
 10
57.17817257
 20
31.05941087
  0
VERTEX
  8
0
 10
57.16723173
 20
30.65195500
  0
VERTEX
  8
0
 10
57.13477884
 20
30.26368278
  0
VERTEX
  8
0
 10
57.08136835
 20
29.89422436
  0
VERTEX
  8
0
 10
57.00755470
 20
29.54320991
  0
VERTEX
  8
0
 10
56.91389236
 20
29.21026958
  0
VERTEX
  8
0
 10
56.80093576
 20
28.89503351
  0
VERTEX
  8
0
 10
56.66923936
 20
28.59713188
  0
VERTEX
  8
0
 10
56.51935761
 20
28.31619483
  0
VERTEX
  8
0
 10
58.24194240
 20
28.31619483
 42
-0.13939888
  0
VERTEX
  8
0
 10
60.37801835
 20
19.20204212
  0
VERTEX
  8
0
 10
61.48561328
 20
20.19034066
 42
-0.15624018
  0
VERTEX
  8
0
 10
66.94447404
 20
7.73777899
 42
-0.11225109
  0
VERTEX
  8
0
 10
70.74194240
 20
18.68812687
 42
-0.21050098
  0
VERTEX
  8
0
 10
71.80998037
 20
26.15966387
 42
-0.27288567
  0
VERTEX
  8
0
 10
72.50474967
 20
31.05941087
  0
VERTEX
  8
0
 10
78.36993709
 20
31.05941087
  0
VERTEX
  8
0
 10
87.42311328
 20
31.05941087
  0
VERTEX
  8
0
 10
87.42311328
 20
28.05941087
  0
VERTEX
  8
0
 10
77.56824276
 20
7.55844441
  0
VERTEX
  8
0
 10
70.05214028
 20
-8.07721152
  0
SEQEND
  0
POLYLINE
  8
Default_Layer
 62
256
 66
   1
 39
0.000000
 70
    1
  0
VERTEX
  8
0
 10
32.05709029
 20
82.53165613
 42
-0.49074015
  0
VERTEX
  8
0
 10
34.95714349
 20
82.53165613
  0
VERTEX
  8
0
 10
53.10923075
 20
48.85279678
  0
VERTEX
  8
0
 10
53.85777458
 20
48.82244192
  0
VERTEX
  8
0
 10
54.58318901
 20
48.76204097
  0
VERTEX
  8
0
 10
55.28200215
 20
48.66915367
  0
VERTEX
  8
0
 10
55.95074213
 20
48.54133972
  0
VERTEX
  8
0
 10
56.58593707
 20
48.37615886
  0
VERTEX
  8
0
 10
57.18411509
 20
48.17117081
  0
VERTEX
  8
0
 10
57.74180430
 20
47.92393529
  0
VERTEX
  8
0
 10
58.00438065
 20
47.78371214
  0
VERTEX
  8
0
 10
58.25553284
 20
47.63201202
  0
VERTEX
  8
0
 10
58.49482689
 20
47.46852989
  0
VERTEX
  8
0
 10
58.72182882
 20
47.29296073
  0
VERTEX
  8
0
 10
58.93610464
 20
47.10499949
  0
VERTEX
  8
0
 10
59.13722036
 20
46.90434113
  0
VERTEX
  8
0
 10
59.32474201
 20
46.69068064
  0
VERTEX
  8
0
 10
59.49823559
 20
46.46371296
  0
VERTEX
  8
0
 10
59.65726713
 20
46.22313307
  0
VERTEX
  8
0
 10
59.80140263
 20
45.96863594
  0
VERTEX
  8
0
 10
59.93020811
 20
45.69991652
  0
VERTEX
  8
0
 10
60.04324959
 20
45.41666978
  0
VERTEX
  8
0
 10
60.14009308
 20
45.11859069
  0
VERTEX
  8
0
 10
60.22030460
 20
44.80537421
  0
VERTEX
  8
0
 10
60.28345017
 20
44.47671531
  0
VERTEX
  8
0
 10
60.32909579
 20
44.13230896
  0
VERTEX
  8
0
 10
60.35680748
 20
43.77185011
  0
VERTEX
  8
0
 10
60.36615126
 20
43.39503374
  0
VERTEX
  8
0
 10
47.06839978
 20
43.39503374
  0
VERTEX
  8
0
 10
44.93105800
 20
43.39503374
  0
VERTEX
  8
0
 10
44.94199884
 20
43.80248961
  0
VERTEX
  8
0
 10
44.97445173
 20
44.19076184
  0
VERTEX
  8
0
 10
45.02786223
 20
44.56022025
  0
VERTEX
  8
0
 10
45.10167587
 20
44.91123470
  0
VERTEX
  8
0
 10
45.19533821
 20
45.24417504
  0
VERTEX
  8
0
 10
45.30829481
 20
45.55941110
  0
VERTEX
  8
0
 10
45.43999121
 20
45.85731273
  0
VERTEX
  8
0
 10
45.58987296
 20
46.13824978
  0
VERTEX
  8
0
 10
43.86728817
 20
46.13824978
 42
-0.13939888
  0
VERTEX
  8
0
 10
41.73121222
 20
55.25240250
  0
VERTEX
  8
0
 10
40.62361729
 20
54.26410395
 42
-0.15624018
  0
VERTEX
  8
0
 10
35.16475653
 20
66.71666562
 42
-0.11225109
  0
VERTEX
  8
0
 10
31.36728817
 20
55.76631774
 42
-0.21050098
  0
VERTEX
  8
0
 10
30.29925020
 20
48.29478074
 42
-0.27288567
  0
VERTEX
  8
0
 10
29.60448090
 20
43.39503374
  0
VERTEX
  8
0
 10
23.73929348
 20
43.39503374
  0
VERTEX
  8
0
 10
14.68611729
 20
43.39503374
  0
VERTEX
  8
0
 10
14.68611729
 20
46.39503374
  0
VERTEX
  8
0
 10
24.54098781
 20
66.89600020
  0
VERTEX
  8
0
 10
32.05709029
 20
82.53165613
  0
SEQEND
  0
POLYLINE
  8
Default_Layer
 62
256
 66
   1
 39
0.000000
 70
    1
  0
VERTEX
  8
0
 10
71.95087446
 20
44.10495167
 42
-0.49074015
  0
VERTEX
  8
0
 10
69.05082126
 20
44.10495167
  0
VERTEX
  8
0
 10
50.89873400
 20
77.78381102
  0
VERTEX
  8
0
 10
50.15019017
 20
77.81416588
  0
VERTEX
  8
0
 10
49.42477574
 20
77.87456683
  0
VERTEX
  8
0
 10
48.72596260
 20
77.96745413
  0
VERTEX
  8
0
 10
48.05722262
 20
78.09526808
  0
VERTEX
  8
0
 10
47.42202768
 20
78.26044894
  0
VERTEX
  8
0
 10
46.82384966
 20
78.46543699
  0
VERTEX
  8
0
 10
46.26616045
 20
78.71267251
  0
VERTEX
  8
0
 10
46.00358410
 20
78.85289566
  0
VERTEX
  8
0
 10
45.75243191
 20
79.00459578
  0
VERTEX
  8
0
 10
45.51313786
 20
79.16807791
  0
VERTEX
  8
0
 10
45.28613593
 20
79.34364707
  0
VERTEX
  8
0
 10
45.07186011
 20
79.53160831
  0
VERTEX
  8
0
 10
44.87074438
 20
79.73226667
  0
VERTEX
  8
0
 10
44.68322274
 20
79.94592716
  0
VERTEX
  8
0
 10
44.50972915
 20
80.17289484
  0
VERTEX
  8
0
 10
44.35069762
 20
80.41347473
  0
VERTEX
  8
0
 10
44.20656212
 20
80.66797186
  0
VERTEX
  8
0
 10
44.07775664
 20
80.93669128
  0
VERTEX
  8
0
 10
43.96471516
 20
81.21993802
  0
VERTEX
  8
0
 10
43.86787166
 20
81.51801711
  0
VERTEX
  8
0
 10
43.78766014
 20
81.83123359
  0
VERTEX
  8
0
 10
43.72451458
 20
82.15989249
  0
VERTEX
  8
0
 10
43.67886896
 20
82.50429884
  0
VERTEX
  8
0
 10
43.65115727
 20
82.86475769
  0
VERTEX
  8
0
 10
43.64181349
 20
83.24157406
  0
VERTEX
  8
0
 10
56.93956497
 20
83.24157406
  0
VERTEX
  8
0
 10
59.07690675
 20
83.24157406
  0
VERTEX
  8
0
 10
59.06596591
 20
82.83411819
  0
VERTEX
  8
0
 10
59.03351301
 20
82.44584596
  0
VERTEX
  8
0
 10
58.98010252
 20
82.07638755
  0
VERTEX
  8
0
 10
58.90628888
 20
81.72537310
  0
VERTEX
  8
0
 10
58.81262654
 20
81.39243276
  0
VERTEX
  8
0
 10
58.69966994
 20
81.07719670
  0
VERTEX
  8
0
 10
58.56797354
 20
80.77929507
  0
VERTEX
  8
0
 10
58.41809179
 20
80.49835802
  0
VERTEX
  8
0
 10
60.14067657
 20
80.49835802
 42
-0.13939888
  0
VERTEX
  8
0
 10
62.27675252
 20
71.38420530
  0
VERTEX
  8
0
 10
63.38434746
 20
72.37250385
 42
-0.15624018
  0
VERTEX
  8
0
 10
68.84320822
 20
59.91994218
 42
-0.11225109
  0
VERTEX
  8
0
 10
72.64067657
 20
70.87029006
 42
-0.21050098
  0
VERTEX
  8
0
 10
73.70871455
 20
78.34182706
 42
-0.27288567
  0
VERTEX
  8
0
 10
74.40348385
 20
83.24157406
  0
VERTEX
  8
0
 10
80.26867127
 20
83.24157406
  0
VERTEX
  8
0
 10
89.32184746
 20
83.24157406
  0
VERTEX
  8
0
 10
89.32184746
 20
80.24157406
  0
VERTEX
  8
0
 10
79.46697694
 20
59.74060760
  0
VERTEX
  8
0
 10
71.95087446
 20
44.10495167
  0
SEQEND
  0
POLYLINE
  8
Default_Layer
 62
256
 66
   1
 39
0.000000
 70
    1
  0
VERTEX
  8
0
 10
-41.90707365
 20
-69.83499256
  0
VERTEX
  8
0
 10
-41.90707365
 20
-84.75339702
  0
VERTEX
  8
0
 10
-44.90707365
 20
-84.75339702
  0
VERTEX
  8
0
 10
-44.90707365
 20
-69.83511034
  0
VERTEX
  8
0
 10
-46.40542442
 20
-69.90171112
  0
VERTEX
  8
0
 10
-47.89179057
 20
-70.01183528
  0
VERTEX
  8
0
 10
-49.36556322
 20
-70.16485632
  0
VERTEX
  8
0
 10
-50.82613347
 20
-70.36014771
  0
VERTEX
  8
0
 10
-52.27289244
 20
-70.59708297
  0
VERTEX
  8
0
 10
-53.70523126
 20
-70.87503558
  0
VERTEX
  8
0
 10
-55.12254103
 20
-71.19337905
  0
VERTEX
  8
0
 10
-56.52421287
 20
-71.55148685
  0
VERTEX
  8
0
 10
-57.90963790
 20
-71.94873249
  0
VERTEX
  8
0
 10
-59.27820724
 20
-72.38448947
  0
VERTEX
  8
0
 10
-60.62931199
 20
-72.85813127
  0
VERTEX
  8
0
 10
-61.96234328
 20
-73.36903139
  0
VERTEX
  8
0
 10
-63.27669223
 20
-73.91656332
  0
VERTEX
  8
0
 10
-64.57174994
 20
-74.50010057
  0
VERTEX
  8
0
 10
-65.84690753
 20
-75.11901661
  0
VERTEX
  8
0
 10
-67.10155612
 20
-75.77268496
  0
VERTEX
  8
0
 10
-59.63770326
 20
-88.70045733
  0
VERTEX
  8
0
 10
-62.23577947
 20
-90.20045733
  0
VERTEX
  8
0
 10
-69.69812837
 20
-77.27528990
  0
VERTEX
  8
0
 10
-70.92292195
 20
-78.05900951
  0
VERTEX
  8
0
 10
-72.12293902
 20
-78.87678854
  0
VERTEX
  8
0
 10
-73.29750632
 20
-79.72794786
  0
VERTEX
  8
0
 10
-74.44595059
 20
-80.61180834
  0
VERTEX
  8
0
 10
-75.56759855
 20
-81.52769085
  0
VERTEX
  8
0
 10
-76.66177694
 20
-82.47491624
  0
VERTEX
  8
0
 10
-77.72781250
 20
-83.45280539
  0
VERTEX
  8
0
 10
-78.76503197
 20
-84.46067917
  0
VERTEX
  8
0
 10
-79.77276206
 20
-85.49785845
  0
VERTEX
  8
0
 10
-80.75032953
 20
-86.56366408
  0
VERTEX
  8
0
 10
-81.69706110
 20
-87.65741694
  0
VERTEX
  8
0
 10
-82.61228352
 20
-88.77843789
  0
VERTEX
  8
0
 10
-83.49532350
 20
-89.92604780
  0
VERTEX
  8
0
 10
-84.34550780
 20
-91.09956755
  0
VERTEX
  8
0
 10
-85.16216313
 20
-92.29831798
  0
VERTEX
  8
0
 10
-85.94461624
 20
-93.52161998
  0
VERTEX
  8
0
 10
-73.01934878
 20
-100.98402663
  0
VERTEX
  8
0
 10
-74.51934878
 20
-103.58210285
  0
VERTEX
  8
0
 10
-87.44705869
 20
-96.11828605
  0
VERTEX
  8
0
 10
-88.10035985
 20
-97.37104141
  0
VERTEX
  8
0
 10
-88.71904451
 20
-98.64478913
  0
VERTEX
  8
0
 10
-89.30246780
 20
-99.93887079
  0
VERTEX
  8
0
 10
-89.84998487
 20
-101.25262794
  0
VERTEX
  8
0
 10
-90.36095084
 20
-102.58540216
  0
VERTEX
  8
0
 10
-90.83472086
 20
-103.93653500
  0
VERTEX
  8
0
 10
-91.27065004
 20
-105.30536804
  0
VERTEX
  8
0
 10
-91.66809354
 20
-106.69124284
  0
VERTEX
  8
0
 10
-92.02640647
 20
-108.09350097
  0
VERTEX
  8
0
 10
-92.34494399
 20
-109.51148398
  0
VERTEX
  8
0
 10
-92.62306121
 20
-110.94453345
  0
VERTEX
  8
0
 10
-92.86011328
 20
-112.39199095
  0
VERTEX
  8
0
 10
-93.05545533
 20
-113.85319803
  0
VERTEX
  8
0
 10
-93.20844249
 20
-115.32749627
  0
VERTEX
  8
0
 10
-93.31842991
 20
-116.81422722
  0
VERTEX
  8
0
 10
-93.38477270
 20
-118.31273246
  0
VERTEX
  8
0
 10
-78.46640909
 20
-118.31273246
  0
VERTEX
  8
0
 10
-78.46640909
 20
-121.31273246
  0
VERTEX
  8
0
 10
-93.38481035
 20
-121.31273246
  0
VERTEX
  8
0
 10
-93.33238796
 20
-122.54841888
  0
VERTEX
  8
0
 10
-93.25033199
 20
-123.77615659
  0
VERTEX
  8
0
 10
-93.13899330
 20
-124.99559563
  0
VERTEX
  8
0
 10
-92.99872277
 20
-126.20638600
  0
VERTEX
  8
0
 10
-92.82987125
 20
-127.40817773
  0
VERTEX
  8
0
 10
-92.63278963
 20
-128.60062083
  0
VERTEX
  8
0
 10
-92.40782877
 20
-129.78336532
  0
VERTEX
  8
0
 10
-92.15533954
 20
-130.95606122
  0
VERTEX
  8
0
 10
-91.87567280
 20
-132.11835855
  0
VERTEX
  8
0
 10
-91.56917943
 20
-133.26990732
  0
VERTEX
  8
0
 10
-91.23621030
 20
-134.41035756
  0
VERTEX
  8
0
 10
-90.87711627
 20
-135.53935927
  0
VERTEX
  8
0
 10
-90.49224821
 20
-136.65656248
  0
VERTEX
  8
0
 10
-90.08195700
 20
-137.76161721
  0
VERTEX
  8
0
 10
-89.64659350
 20
-138.85417348
  0
VERTEX
  8
0
 10
-89.18650858
 20
-139.93388129
  0
VERTEX
  8
0
 10
-88.70205310
 20
-141.00039068
  0
VERTEX
  8
0
 10
-88.19357795
 20
-142.05335165
  0
VERTEX
  8
0
 10
-87.66143398
 20
-143.09241422
  0
VERTEX
  8
0
 10
-87.10597207
 20
-144.11722843
  0
VERTEX
  8
0
 10
-86.52754308
 20
-145.12744427
  0
VERTEX
  8
0
 10
-85.92649789
 20
-146.12271177
  0
VERTEX
  8
0
 10
-85.30318735
 20
-147.10268095
  0
VERTEX
  8
0
 10
-84.65796235
 20
-148.06700182
  0
VERTEX
  8
0
 10
-83.99117376
 20
-149.01532440
  0
VERTEX
  8
0
 10
-83.30317243
 20
-149.94729872
  0
VERTEX
  8
0
 10
-82.59430924
 20
-150.86257478
  0
VERTEX
  8
0
 10
-81.86493505
 20
-151.76080261
  0
VERTEX
  8
0
 10
-81.11540074
 20
-152.64163223
  0
VERTEX
  8
0
 10
-80.34605718
 20
-153.50471364
  0
VERTEX
  8
0
 10
-79.55725523
 20
-154.34969688
  0
VERTEX
  8
0
 10
-78.74934577
 20
-155.17623195
  0
VERTEX
  8
0
 10
-77.92267966
 20
-155.98396888
  0
VERTEX
  8
0
 10
-77.07760777
 20
-156.77255768
  0
VERTEX
  8
0
 10
-76.21448096
 20
-157.54164838
  0
VERTEX
  8
0
 10
-75.33365012
 20
-158.29089098
  0
VERTEX
  8
0
 10
-74.43546610
 20
-159.01993551
  0
VERTEX
  8
0
 10
-73.52027979
 20
-159.72843198
  0
VERTEX
  8
0
 10
-72.58844203
 20
-160.41603042
  0
VERTEX
  8
0
 10
-71.64030371
 20
-161.08238084
  0
VERTEX
  8
0
 10
-70.67621570
 20
-161.72713326
  0
VERTEX
  8
0
 10
-69.69652886
 20
-162.34993769
  0
VERTEX
  8
0
 10
-68.70159405
 20
-162.95044416
  0
VERTEX
  8
0
 10
-67.69176216
 20
-163.52830268
  0
VERTEX
  8
0
 10
-66.66738405
 20
-164.08316326
  0
VERTEX
  8
0
 10
-65.62881059
 20
-164.61467594
  0
VERTEX
  8
0
 10
-64.57639264
 20
-165.12249072
  0
VERTEX
  8
0
 10
-63.51048108
 20
-165.60625763
  0
VERTEX
  8
0
 10
-62.43142677
 20
-166.06562668
  0
VERTEX
  8
0
 10
-61.33958059
 20
-166.50024789
  0
VERTEX
  8
0
 10
-60.23529340
 20
-166.90977127
  0
VERTEX
  8
0
 10
-59.11891607
 20
-167.29384685
  0
VERTEX
  8
0
 10
-57.99079948
 20
-167.65212464
  0
VERTEX
  8
0
 10
-56.85129448
 20
-167.98425466
  0
VERTEX
  8
0
 10
-55.70075195
 20
-168.28988694
  0
VERTEX
  8
0
 10
-54.53952276
 20
-168.56867147
  0
VERTEX
  8
0
 10
-53.36795777
 20
-168.82025830
  0
VERTEX
  8
0
 10
-52.18640786
 20
-169.04429742
  0
VERTEX
  8
0
 10
-50.99522390
 20
-169.24043886
  0
VERTEX
  8
0
 10
-49.79475675
 20
-169.40833265
  0
VERTEX
  8
0
 10
-48.58535728
 20
-169.54762879
  0
VERTEX
  8
0
 10
-47.36737636
 20
-169.65797730
  0
VERTEX
  8
0
 10
-46.14116486
 20
-169.73902820
  0
VERTEX
  8
0
 10
-44.90707365
 20
-169.79043152
  0
VERTEX
  8
0
 10
-44.90707365
 20
-154.87206790
  0
VERTEX
  8
0
 10
-41.90707365
 20
-154.87206790
  0
VERTEX
  8
0
 10
-41.90707365
 20
-169.79035458
  0
VERTEX
  8
0
 10
-40.40872287
 20
-169.72375380
  0
VERTEX
  8
0
 10
-38.92235672
 20
-169.61362964
  0
VERTEX
  8
0
 10
-37.44858408
 20
-169.46060861
  0
VERTEX
  8
0
 10
-35.98801383
 20
-169.26531721
  0
VERTEX
  8
0
 10
-34.54125485
 20
-169.02838195
  0
VERTEX
  8
0
 10
-33.10891604
 20
-168.75042934
  0
VERTEX
  8
0
 10
-31.69160627
 20
-168.43208588
  0
VERTEX
  8
0
 10
-30.28993442
 20
-168.07397807
  0
VERTEX
  8
0
 10
-28.90450939
 20
-167.67673243
  0
VERTEX
  8
0
 10
-27.53594006
 20
-167.24097546
  0
VERTEX
  8
0
 10
-26.18483530
 20
-166.76733366
  0
VERTEX
  8
0
 10
-24.85180401
 20
-166.25643354
  0
VERTEX
  8
0
 10
-23.53745507
 20
-165.70890160
  0
VERTEX
  8
0
 10
-22.24239736
 20
-165.12536436
  0
VERTEX
  8
0
 10
-20.96723977
 20
-164.50644831
  0
VERTEX
  8
0
 10
-19.71259117
 20
-163.85277996
  0
VERTEX
  8
0
 10
-27.17644403
 20
-150.92500759
  0
VERTEX
  8
0
 10
-24.57836782
 20
-149.42500759
  0
VERTEX
  8
0
 10
-17.11601893
 20
-162.35017502
  0
VERTEX
  8
0
 10
-15.89122535
 20
-161.56645541
  0
VERTEX
  8
0
 10
-14.69120828
 20
-160.74867638
  0
VERTEX
  8
0
 10
-13.51664097
 20
-159.89751706
  0
VERTEX
  8
0
 10
-12.36819671
 20
-159.01365658
  0
VERTEX
  8
0
 10
-11.24654875
 20
-158.09777408
  0
VERTEX
  8
0
 10
-10.15237035
 20
-157.15054868
  0
VERTEX
  8
0
 10
-9.08633479
 20
-156.17265953
  0
VERTEX
  8
0
 10
-8.04911533
 20
-155.16478575
  0
VERTEX
  8
0
 10
-7.04138523
 20
-154.12760648
  0
VERTEX
  8
0
 10
-6.06381776
 20
-153.06180085
  0
VERTEX
  8
0
 10
-5.11708619
 20
-151.96804799
  0
VERTEX
  8
0
 10
-4.20186378
 20
-150.84702703
  0
VERTEX
  8
0
 10
-3.31882379
 20
-149.69941712
  0
VERTEX
  8
0
 10
-2.46863950
 20
-148.52589738
  0
VERTEX
  8
0
 10
-1.65198416
 20
-147.32714694
  0
VERTEX
  8
0
 10
-0.86953105
 20
-146.10384494
  0
VERTEX
  8
0
 10
-13.79479851
 20
-138.64143829
  0
VERTEX
  8
0
 10
-12.29479851
 20
-136.04336208
  0
VERTEX
  8
0
 10
0.63291139
 20
-143.50717887
  0
VERTEX
  8
0
 10
1.28621255
 20
-142.25442351
  0
VERTEX
  8
0
 10
1.90489721
 20
-140.98067579
  0
VERTEX
  8
0
 10
2.48832051
 20
-139.68659413
  0
VERTEX
  8
0
 10
3.03583758
 20
-138.37283698
  0
VERTEX
  8
0
 10
3.54680355
 20
-137.04006276
  0
VERTEX
  8
0
 10
4.02057356
 20
-135.68892992
  0
VERTEX
  8
0
 10
4.45650275
 20
-134.32009688
  0
VERTEX
  8
0
 10
4.85394624
 20
-132.93422208
  0
VERTEX
  8
0
 10
5.21225918
 20
-131.53196396
  0
VERTEX
  8
0
 10
5.53079669
 20
-130.11398094
  0
VERTEX
  8
0
 10
5.80891392
 20
-128.68093147
  0
VERTEX
  8
0
 10
6.04596599
 20
-127.23347397
  0
VERTEX
  8
0
 10
6.24130804
 20
-125.77226689
  0
VERTEX
  8
0
 10
6.39429520
 20
-124.29796866
  0
VERTEX
  8
0
 10
6.50428261
 20
-122.81123770
  0
VERTEX
  8
0
 10
6.57062541
 20
-121.31273246
  0
VERTEX
  8
0
 10
-8.34773820
 20
-121.31273246
  0
VERTEX
  8
0
 10
-8.34773820
 20
-118.31273246
  0
VERTEX
  8
0
 10
6.57062541
 20
-118.31273246
  0
VERTEX
  8
0
 10
6.51953062
 20
-117.07834782
  0
VERTEX
  8
0
 10
6.43874455
 20
-115.85183063
  0
VERTEX
  8
0
 10
6.32861884
 20
-114.63353279
  0
VERTEX
  8
0
 10
6.18950510
 20
-113.42380624
  0
VERTEX
  8
0
 10
6.02175496
 20
-112.22300287
  0
VERTEX
  8
0
 10
5.82572003
 20
-111.03147461
  0
VERTEX
  8
0
 10
5.60175193
 20
-109.84957336
  0
VERTEX
  8
0
 10
5.35020230
 20
-108.67765103
  0
VERTEX
  8
0
 10
5.07142275
 20
-107.51605955
  0
VERTEX
  8
0
 10
4.76576490
 20
-106.36515082
  0
VERTEX
  8
0
 10
4.43358037
 20
-105.22527675
  0
VERTEX
  8
0
 10
4.07522080
 20
-104.09678926
  0
VERTEX
  8
0
 10
3.69103779
 20
-102.98004027
  0
VERTEX
  8
0
 10
3.28138297
 20
-101.87538168
  0
VERTEX
  8
0
 10
2.84660796
 20
-100.78316540
  0
VERTEX
  8
0
 10
2.38706438
 20
-99.70374336
  0
VERTEX
  8
0
 10
1.90310387
 20
-98.63746746
  0
VERTEX
  8
0
 10
1.39507803
 20
-97.58468961
  0
VERTEX
  8
0
 10
0.86333848
 20
-96.54576174
  0
VERTEX
  8
0
 10
0.30823686
 20
-95.52103574
  0
VERTEX
  8
0
 10
-0.26987522
 20
-94.51086354
  0
VERTEX
  8
0
 10
-0.87064613
 20
-93.51559705
  0
VERTEX
  8
0
 10
-1.49372426
 20
-92.53558818
  0
VERTEX
  8
0
 10
-2.13875797
 20
-91.57118884
  0
VERTEX
  8
0
 10
-2.80539566
 20
-90.62275095
  0
VERTEX
  8
0
 10
-3.49328570
 20
-89.69062642
  0
VERTEX
  8
0
 10
-4.20207646
 20
-88.77516716
  0
VERTEX
  8
0
 10
-4.93141633
 20
-87.87672508
  0
VERTEX
  8
0
 10
-5.68095368
 20
-86.99565210
  0
VERTEX
  8
0
 10
-6.45033689
 20
-86.13230013
  0
VERTEX
  8
0
 10
-7.23921434
 20
-85.28702109
  0
VERTEX
  8
0
 10
-8.04723441
 20
-84.46016688
  0
VERTEX
  8
0
 10
-8.87404548
 20
-83.65208942
  0
VERTEX
  8
0
 10
-9.71929591
 20
-82.86314063
  0
VERTEX
  8
0
 10
-10.58263410
 20
-82.09367240
  0
VERTEX
  8
0
 10
-11.46370842
 20
-81.34403667
  0
VERTEX
  8
0
 10
-12.36216725
 20
-80.61458534
  0
VERTEX
  8
0
 10
-13.27765896
 20
-79.90567032
  0
VERTEX
  8
0
 10
-14.20983194
 20
-79.21764353
  0
VERTEX
  8
0
 10
-15.15833456
 20
-78.55085687
  0
VERTEX
  8
0
 10
-16.12281521
 20
-77.90566227
  0
VERTEX
  8
0
 10
-17.10292225
 20
-77.28241164
  0
VERTEX
  8
0
 10
-18.09830407
 20
-76.68145688
  0
VERTEX
  8
0
 10
-19.10860904
 20
-76.10314991
  0
VERTEX
  8
0
 10
-20.13348555
 20
-75.54784265
  0
VERTEX
  8
0
 10
-21.17258197
 20
-75.01588701
  0
VERTEX
  8
0
 10
-22.22554668
 20
-74.50763489
  0
VERTEX
  8
0
 10
-23.29202806
 20
-74.02343822
  0
VERTEX
  8
0
 10
-24.37167449
 20
-73.56364890
  0
VERTEX
  8
0
 10
-25.46413434
 20
-73.12861885
  0
VERTEX
  8
0
 10
-26.56905600
 20
-72.71869998
  0
VERTEX
  8
0
 10
-27.68608783
 20
-72.33424421
  0
VERTEX
  8
0
 10
-28.81487822
 20
-71.97560344
  0
VERTEX
  8
0
 10
-29.95507556
 20
-71.64312960
  0
VERTEX
  8
0
 10
-31.10632820
 20
-71.33717458
  0
VERTEX
  8
0
 10
-32.26828455
 20
-71.05809031
  0
VERTEX
  8
0
 10
-33.44059296
 20
-70.80622870
  0
VERTEX
  8
0
 10
-34.62290183
 20
-70.58194167
  0
VERTEX
  8
0
 10
-35.81485952
 20
-70.38558111
  0
VERTEX
  8
0
 10
-37.01611442
 20
-70.21749896
  0
VERTEX
  8
0
 10
-38.22631490
 20
-70.07804711
  0
VERTEX
  8
0
 10
-39.44510935
 20
-69.96757749
  0
VERTEX
  8
0
 10
-40.67214614
 20
-69.88644200
  0
VERTEX
  8
0
 10
-41.90707365
 20
-69.83499256
  0
SEQEND
  0
POLYLINE
  8
Default_Layer
 62
256
 66
   1
 39
0.000000
 70
    1
  0
VERTEX
  8
0
 10
-74.50828650
 20
-177.26115208
 42
-0.49074015
  0
VERTEX
  8
0
 10
-71.60823329
 20
-177.26115208
  0
VERTEX
  8
0
 10
-53.45614604
 20
-210.94001143
  0
VERTEX
  8
0
 10
-52.70760220
 20
-210.97036630
  0
VERTEX
  8
0
 10
-51.98218778
 20
-211.03076724
  0
VERTEX
  8
0
 10
-51.28337463
 20
-211.12365455
  0
VERTEX
  8
0
 10
-50.61463465
 20
-211.25146849
  0
VERTEX
  8
0
 10
-49.97943972
 20
-211.41664935
  0
VERTEX
  8
0
 10
-49.38126170
 20
-211.62163741
  0
VERTEX
  8
0
 10
-48.82357248
 20
-211.86887293
  0
VERTEX
  8
0
 10
-48.56099614
 20
-212.00909608
  0
VERTEX
  8
0
 10
-48.30984395
 20
-212.16079620
  0
VERTEX
  8
0
 10
-48.07054989
 20
-212.32427832
  0
VERTEX
  8
0
 10
-47.84354797
 20
-212.49984749
  0
VERTEX
  8
0
 10
-47.62927215
 20
-212.68780873
  0
VERTEX
  8
0
 10
-47.42815642
 20
-212.88846708
  0
VERTEX
  8
0
 10
-47.24063477
 20
-213.10212758
  0
VERTEX
  8
0
 10
-47.06714119
 20
-213.32909525
  0
VERTEX
  8
0
 10
-46.90810966
 20
-213.56967514
  0
VERTEX
  8
0
 10
-46.76397416
 20
-213.82417228
  0
VERTEX
  8
0
 10
-46.63516867
 20
-214.09289170
  0
VERTEX
  8
0
 10
-46.52212719
 20
-214.37613844
  0
VERTEX
  8
0
 10
-46.42528370
 20
-214.67421753
  0
VERTEX
  8
0
 10
-46.34507218
 20
-214.98743400
  0
VERTEX
  8
0
 10
-46.28192662
 20
-215.31609290
  0
VERTEX
  8
0
 10
-46.23628100
 20
-215.66049926
  0
VERTEX
  8
0
 10
-46.20856931
 20
-216.02095810
  0
VERTEX
  8
0
 10
-46.19922553
 20
-216.39777447
  0
VERTEX
  8
0
 10
-59.49697700
 20
-216.39777447
  0
VERTEX
  8
0
 10
-61.63431878
 20
-216.39777447
  0
VERTEX
  8
0
 10
-61.62337794
 20
-215.99031860
  0
VERTEX
  8
0
 10
-61.59092505
 20
-215.60204638
  0
VERTEX
  8
0
 10
-61.53751456
 20
-215.23258797
  0
VERTEX
  8
0
 10
-61.46370092
 20
-214.88157351
  0
VERTEX
  8
0
 10
-61.37003857
 20
-214.54863318
  0
VERTEX
  8
0
 10
-61.25708198
 20
-214.23339712
  0
VERTEX
  8
0
 10
-61.12538558
 20
-213.93549549
  0
VERTEX
  8
0
 10
-60.97550382
 20
-213.65455844
  0
VERTEX
  8
0
 10
-62.69808861
 20
-213.65455844
 42
-0.13939888
  0
VERTEX
  8
0
 10
-64.83416456
 20
-204.54040572
  0
VERTEX
  8
0
 10
-65.94175950
 20
-205.52870426
 42
-0.15624018
  0
VERTEX
  8
0
 10
-71.40062026
 20
-193.07614259
 42
-0.11225109
  0
VERTEX
  8
0
 10
-75.19808861
 20
-204.02649048
 42
-0.21050098
  0
VERTEX
  8
0
 10
-76.26612659
 20
-211.49802748
 42
-0.27288567
  0
VERTEX
  8
0
 10
-76.96089589
 20
-216.39777447
  0
VERTEX
  8
0
 10
-82.82608331
 20
-216.39777447
  0
VERTEX
  8
0
 10
-91.87925950
 20
-216.39777447
  0
VERTEX
  8
0
 10
-91.87925950
 20
-213.39777447
  0
VERTEX
  8
0
 10
-82.02438898
 20
-192.89680802
  0
VERTEX
  8
0
 10
-74.50828650
 20
-177.26115208
  0
SEQEND
  0
POLYLINE
  8
Default_Layer
 62
256
 66
   1
 39
0.000000
 70
    1
  0
VERTEX
  8
0
 10
-34.61450232
 20
-215.68785655
 42
-0.49074015
  0
VERTEX
  8
0
 10
-37.51455553
 20
-215.68785655
  0
VERTEX
  8
0
 10
-55.66664279
 20
-182.00899720
  0
VERTEX
  8
0
 10
-56.41518662
 20
-181.97864234
  0
VERTEX
  8
0
 10
-57.14060105
 20
-181.91824139
  0
VERTEX
  8
0
 10
-57.83941419
 20
-181.82535408
  0
VERTEX
  8
0
 10
-58.50815417
 20
-181.69754014
  0
VERTEX
  8
0
 10
-59.14334911
 20
-181.53235928
  0
VERTEX
  8
0
 10
-59.74152712
 20
-181.32737123
  0
VERTEX
  8
0
 10
-60.29921634
 20
-181.08013570
  0
VERTEX
  8
0
 10
-60.56179269
 20
-180.93991255
  0
VERTEX
  8
0
 10
-60.81294488
 20
-180.78821243
  0
VERTEX
  8
0
 10
-61.05223893
 20
-180.62473031
  0
VERTEX
  8
0
 10
-61.27924086
 20
-180.44916114
  0
VERTEX
  8
0
 10
-61.49351668
 20
-180.26119990
  0
VERTEX
  8
0
 10
-61.69463240
 20
-180.06054155
  0
VERTEX
  8
0
 10
-61.88215405
 20
-179.84688105
  0
VERTEX
  8
0
 10
-62.05564763
 20
-179.61991338
  0
VERTEX
  8
0
 10
-62.21467917
 20
-179.37933349
  0
VERTEX
  8
0
 10
-62.35881467
 20
-179.12483635
  0
VERTEX
  8
0
 10
-62.48762015
 20
-178.85611693
  0
VERTEX
  8
0
 10
-62.60066163
 20
-178.57287020
  0
VERTEX
  8
0
 10
-62.69750512
 20
-178.27479111
  0
VERTEX
  8
0
 10
-62.77771664
 20
-177.96157463
  0
VERTEX
  8
0
 10
-62.84086220
 20
-177.63291573
  0
VERTEX
  8
0
 10
-62.88650782
 20
-177.28850938
  0
VERTEX
  8
0
 10
-62.91421952
 20
-176.92805053
  0
VERTEX
  8
0
 10
-62.92356330
 20
-176.55123416
  0
VERTEX
  8
0
 10
-49.62581182
 20
-176.55123416
  0
VERTEX
  8
0
 10
-47.48847004
 20
-176.55123416
  0
VERTEX
  8
0
 10
-47.49941088
 20
-176.95869003
  0
VERTEX
  8
0
 10
-47.53186377
 20
-177.34696225
  0
VERTEX
  8
0
 10
-47.58527426
 20
-177.71642067
  0
VERTEX
  8
0
 10
-47.65908791
 20
-178.06743512
  0
VERTEX
  8
0
 10
-47.75275025
 20
-178.40037545
  0
VERTEX
  8
0
 10
-47.86570685
 20
-178.71561151
  0
VERTEX
  8
0
 10
-47.99740325
 20
-179.01351315
  0
VERTEX
  8
0
 10
-48.14728500
 20
-179.29445019
  0
VERTEX
  8
0
 10
-46.42470021
 20
-179.29445019
 42
-0.13939888
  0
VERTEX
  8
0
 10
-44.28862426
 20
-188.40860291
  0
VERTEX
  8
0
 10
-43.18102933
 20
-187.42030437
 42
-0.15624018
  0
VERTEX
  8
0
 10
-37.72216857
 20
-199.87286604
 42
-0.11225109
  0
VERTEX
  8
0
 10
-33.92470021
 20
-188.92251816
 42
-0.21050098
  0
VERTEX
  8
0
 10
-32.85666224
 20
-181.45098115
 42
-0.27288567
  0
VERTEX
  8
0
 10
-32.16189294
 20
-176.55123416
  0
VERTEX
  8
0
 10
-26.29670552
 20
-176.55123416
  0
VERTEX
  8
0
 10
-17.24352933
 20
-176.55123416
  0
VERTEX
  8
0
 10
-17.24352933
 20
-179.55123416
  0
VERTEX
  8
0
 10
-27.09839985
 20
-200.05220062
  0
VERTEX
  8
0
 10
-34.61450232
 20
-215.68785655
  0
SEQEND
  0
POLYLINE
  8
Default_Layer
 62
256
 66
   1
 39
0.000000
 70
    1
  0
VERTEX
  8
0
 10
-6.87758376
 20
-177.26115208
 42
-0.49074015
  0
VERTEX
  8
0
 10
-3.97753055
 20
-177.26115208
  0
VERTEX
  8
0
 10
14.17455671
 20
-210.94001143
  0
VERTEX
  8
0
 10
14.92310054
 20
-210.97036630
  0
VERTEX
  8
0
 10
15.64851497
 20
-211.03076724
  0
VERTEX
  8
0
 10
16.34732811
 20
-211.12365455
  0
VERTEX
  8
0
 10
17.01606809
 20
-211.25146849
  0
VERTEX
  8
0
 10
17.65126303
 20
-211.41664935
  0
VERTEX
  8
0
 10
18.24944104
 20
-211.62163741
  0
VERTEX
  8
0
 10
18.80713026
 20
-211.86887293
  0
VERTEX
  8
0
 10
19.06970661
 20
-212.00909608
  0
VERTEX
  8
0
 10
19.32085880
 20
-212.16079620
  0
VERTEX
  8
0
 10
19.56015285
 20
-212.32427832
  0
VERTEX
  8
0
 10
19.78715478
 20
-212.49984749
  0
VERTEX
  8
0
 10
20.00143060
 20
-212.68780873
  0
VERTEX
  8
0
 10
20.20254632
 20
-212.88846708
  0
VERTEX
  8
0
 10
20.39006797
 20
-213.10212758
  0
VERTEX
  8
0
 10
20.56356155
 20
-213.32909525
  0
VERTEX
  8
0
 10
20.72259308
 20
-213.56967514
  0
VERTEX
  8
0
 10
20.86672859
 20
-213.82417228
  0
VERTEX
  8
0
 10
20.99553407
 20
-214.09289170
  0
VERTEX
  8
0
 10
21.10857555
 20
-214.37613844
  0
VERTEX
  8
0
 10
21.20541904
 20
-214.67421753
  0
VERTEX
  8
0
 10
21.28563056
 20
-214.98743400
  0
VERTEX
  8
0
 10
21.34877612
 20
-215.31609290
  0
VERTEX
  8
0
 10
21.39442174
 20
-215.66049926
  0
VERTEX
  8
0
 10
21.42213343
 20
-216.02095810
  0
VERTEX
  8
0
 10
21.43147721
 20
-216.39777447
  0
VERTEX
  8
0
 10
8.13372574
 20
-216.39777447
  0
VERTEX
  8
0
 10
5.99638396
 20
-216.39777447
  0
VERTEX
  8
0
 10
6.00732480
 20
-215.99031860
  0
VERTEX
  8
0
 10
6.03977769
 20
-215.60204638
  0
VERTEX
  8
0
 10
6.09318818
 20
-215.23258797
  0
VERTEX
  8
0
 10
6.16700183
 20
-214.88157351
  0
VERTEX
  8
0
 10
6.26066417
 20
-214.54863318
  0
VERTEX
  8
0
 10
6.37362077
 20
-214.23339712
  0
VERTEX
  8
0
 10
6.50531717
 20
-213.93549549
  0
VERTEX
  8
0
 10
6.65519892
 20
-213.65455844
  0
VERTEX
  8
0
 10
4.93261413
 20
-213.65455844
 42
-0.13939888
  0
VERTEX
  8
0
 10
2.79653818
 20
-204.54040572
  0
VERTEX
  8
0
 10
1.68894324
 20
-205.52870426
 42
-0.15624018
  0
VERTEX
  8
0
 10
-3.76991752
 20
-193.07614259
 42
-0.11225109
  0
VERTEX
  8
0
 10
-7.56738587
 20
-204.02649048
 42
-0.21050098
  0
VERTEX
  8
0
 10
-8.63542384
 20
-211.49802748
 42
-0.27288567
  0
VERTEX
  8
0
 10
-9.33019314
 20
-216.39777447
  0
VERTEX
  8
0
 10
-15.19538056
 20
-216.39777447
  0
VERTEX
  8
0
 10
-24.24855676
 20
-216.39777447
  0
VERTEX
  8
0
 10
-24.24855676
 20
-213.39777447
  0
VERTEX
  8
0
 10
-14.39368623
 20
-192.89680802
  0
VERTEX
  8
0
 10
-6.87758376
 20
-177.26115208
  0
SEQEND
  0
POLYLINE
  8
Default_Layer
 62
256
 66
   1
 39
0.000000
 70
    1
  0
VERTEX
  8
0
 10
33.01620042
 20
-215.68785655
 42
-0.49074015
  0
VERTEX
  8
0
 10
30.11614721
 20
-215.68785655
  0
VERTEX
  8
0
 10
11.96405996
 20
-182.00899720
  0
VERTEX
  8
0
 10
11.21551612
 20
-181.97864234
  0
VERTEX
  8
0
 10
10.49010170
 20
-181.91824139
  0
VERTEX
  8
0
 10
9.79128855
 20
-181.82535408
  0
VERTEX
  8
0
 10
9.12254857
 20
-181.69754014
  0
VERTEX
  8
0
 10
8.48735364
 20
-181.53235928
  0
VERTEX
  8
0
 10
7.88917562
 20
-181.32737123
  0
VERTEX
  8
0
 10
7.33148640
 20
-181.08013570
  0
VERTEX
  8
0
 10
7.06891006
 20
-180.93991255
  0
VERTEX
  8
0
 10
6.81775786
 20
-180.78821243
  0
VERTEX
  8
0
 10
6.57846381
 20
-180.62473031
  0
VERTEX
  8
0
 10
6.35146188
 20
-180.44916114
  0
VERTEX
  8
0
 10
6.13718607
 20
-180.26119990
  0
VERTEX
  8
0
 10
5.93607034
 20
-180.06054155
  0
VERTEX
  8
0
 10
5.74854869
 20
-179.84688105
  0
VERTEX
  8
0
 10
5.57505511
 20
-179.61991338
  0
VERTEX
  8
0
 10
5.41602358
 20
-179.37933349
  0
VERTEX
  8
0
 10
5.27188808
 20
-179.12483635
  0
VERTEX
  8
0
 10
5.14308259
 20
-178.85611693
  0
VERTEX
  8
0
 10
5.03004111
 20
-178.57287020
  0
VERTEX
  8
0
 10
4.93319762
 20
-178.27479111
  0
VERTEX
  8
0
 10
4.85298610
 20
-177.96157463
  0
VERTEX
  8
0
 10
4.78984054
 20
-177.63291573
  0
VERTEX
  8
0
 10
4.74419492
 20
-177.28850938
  0
VERTEX
  8
0
 10
4.71648323
 20
-176.92805053
  0
VERTEX
  8
0
 10
4.70713945
 20
-176.55123416
  0
VERTEX
  8
0
 10
18.00489092
 20
-176.55123416
  0
VERTEX
  8
0
 10
20.14223270
 20
-176.55123416
  0
VERTEX
  8
0
 10
20.13129186
 20
-176.95869003
  0
VERTEX
  8
0
 10
20.09883897
 20
-177.34696225
  0
VERTEX
  8
0
 10
20.04542848
 20
-177.71642067
  0
VERTEX
  8
0
 10
19.97161484
 20
-178.06743512
  0
VERTEX
  8
0
 10
19.87795249
 20
-178.40037545
  0
VERTEX
  8
0
 10
19.76499590
 20
-178.71561151
  0
VERTEX
  8
0
 10
19.63329950
 20
-179.01351315
  0
VERTEX
  8
0
 10
19.48341774
 20
-179.29445019
  0
VERTEX
  8
0
 10
21.20600253
 20
-179.29445019
 42
-0.13939888
  0
VERTEX
  8
0
 10
23.34207848
 20
-188.40860291
  0
VERTEX
  8
0
 10
24.44967342
 20
-187.42030437
 42
-0.15624018
  0
VERTEX
  8
0
 10
29.90853418
 20
-199.87286604
 42
-0.11225109
  0
VERTEX
  8
0
 10
33.70600253
 20
-188.92251816
 42
-0.21050098
  0
VERTEX
  8
0
 10
34.77404051
 20
-181.45098115
 42
-0.27288567
  0
VERTEX
  8
0
 10
35.46880981
 20
-176.55123416
  0
VERTEX
  8
0
 10
41.33399723
 20
-176.55123416
  0
VERTEX
  8
0
 10
50.38717342
 20
-176.55123416
  0
VERTEX
  8
0
 10
50.38717342
 20
-179.55123416
  0
VERTEX
  8
0
 10
40.53230289
 20
-200.05220062
  0
VERTEX
  8
0
 10
33.01620042
 20
-215.68785655
  0
SEQEND
  0
POLYLINE
  8
Default_Layer
 62
256
 66
   1
 39
0.000000
 70
    1
  0
VERTEX
  8
0
 10
30.15835611
 20
-127.77827429
 42
-0.49074015
  0
VERTEX
  8
0
 10
33.05840932
 20
-127.77827429
  0
VERTEX
  8
0
 10
51.21049657
 20
-161.45713364
  0
VERTEX
  8
0
 10
51.95904040
 20
-161.48748850
  0
VERTEX
  8
0
 10
52.68445483
 20
-161.54788945
  0
VERTEX
  8
0
 10
53.38326798
 20
-161.64077676
  0
VERTEX
  8
0
 10
54.05200796
 20
-161.76859070
  0
VERTEX
  8
0
 10
54.68720289
 20
-161.93377156
  0
VERTEX
  8
0
 10
55.28538091
 20
-162.13875961
  0
VERTEX
  8
0
 10
55.84307013
 20
-162.38599514
  0
VERTEX
  8
0
 10
56.10564647
 20
-162.52621828
  0
VERTEX
  8
0
 10
56.35679866
 20
-162.67791840
  0
VERTEX
  8
0
 10
56.59609272
 20
-162.84140053
  0
VERTEX
  8
0
 10
56.82309464
 20
-163.01696970
  0
VERTEX
  8
0
 10
57.03737046
 20
-163.20493094
  0
VERTEX
  8
0
 10
57.23848619
 20
-163.40558929
  0
VERTEX
  8
0
 10
57.42600783
 20
-163.61924979
  0
VERTEX
  8
0
 10
57.59950142
 20
-163.84621746
  0
VERTEX
  8
0
 10
57.75853295
 20
-164.08679735
  0
VERTEX
  8
0
 10
57.90266845
 20
-164.34129449
  0
VERTEX
  8
0
 10
58.03147394
 20
-164.61001391
  0
VERTEX
  8
0
 10
58.14451542
 20
-164.89326064
  0
VERTEX
  8
0
 10
58.24135891
 20
-165.19133973
  0
VERTEX
  8
0
 10
58.32157043
 20
-165.50455621
  0
VERTEX
  8
0
 10
58.38471599
 20
-165.83321511
  0
VERTEX
  8
0
 10
58.43036161
 20
-166.17762146
  0
VERTEX
  8
0
 10
58.45807330
 20
-166.53808031
  0
VERTEX
  8
0
 10
58.46741708
 20
-166.91489668
  0
VERTEX
  8
0
 10
45.16966561
 20
-166.91489668
  0
VERTEX
  8
0
 10
43.03232382
 20
-166.91489668
  0
VERTEX
  8
0
 10
43.04326467
 20
-166.50744081
  0
VERTEX
  8
0
 10
43.07571756
 20
-166.11916859
  0
VERTEX
  8
0
 10
43.12912805
 20
-165.74971017
  0
VERTEX
  8
0
 10
43.20294169
 20
-165.39869572
  0
VERTEX
  8
0
 10
43.29660404
 20
-165.06575539
  0
VERTEX
  8
0
 10
43.40956063
 20
-164.75051933
  0
VERTEX
  8
0
 10
43.54125703
 20
-164.45261769
  0
VERTEX
  8
0
 10
43.69113878
 20
-164.17168065
  0
VERTEX
  8
0
 10
41.96855400
 20
-164.17168065
 42
-0.13939888
  0
VERTEX
  8
0
 10
39.83247805
 20
-155.05752793
  0
VERTEX
  8
0
 10
38.72488311
 20
-156.04582647
 42
-0.15624018
  0
VERTEX
  8
0
 10
33.26602235
 20
-143.59326480
 42
-0.11225109
  0
VERTEX
  8
0
 10
29.46855400
 20
-154.54361268
 42
-0.21050098
  0
VERTEX
  8
0
 10
28.40051602
 20
-162.01514969
 42
-0.27288567
  0
VERTEX
  8
0
 10
27.70574672
 20
-166.91489668
  0
VERTEX
  8
0
 10
21.84055930
 20
-166.91489668
  0
VERTEX
  8
0
 10
12.78738311
 20
-166.91489668
  0
VERTEX
  8
0
 10
12.78738311
 20
-163.91489668
  0
VERTEX
  8
0
 10
22.64225363
 20
-143.41393022
  0
VERTEX
  8
0
 10
30.15835611
 20
-127.77827429
  0
SEQEND
  0
POLYLINE
  8
Default_Layer
 62
256
 66
   1
 39
0.000000
 70
    1
  0
VERTEX
  8
0
 10
70.05214028
 20
-166.20497876
 42
-0.49074015
  0
VERTEX
  8
0
 10
67.15208708
 20
-166.20497876
  0
VERTEX
  8
0
 10
48.99999982
 20
-132.52611941
  0
VERTEX
  8
0
 10
48.25145599
 20
-132.49576454
  0
VERTEX
  8
0
 10
47.52604156
 20
-132.43536360
  0
VERTEX
  8
0
 10
46.82722842
 20
-132.34247629
  0
VERTEX
  8
0
 10
46.15848844
 20
-132.21466235
  0
VERTEX
  8
0
 10
45.52329350
 20
-132.04948149
  0
VERTEX
  8
0
 10
44.92511549
 20
-131.84449343
  0
VERTEX
  8
0
 10
44.36742627
 20
-131.59725791
  0
VERTEX
  8
0
 10
44.10484992
 20
-131.45703476
  0
VERTEX
  8
0
 10
43.85369773
 20
-131.30533464
  0
VERTEX
  8
0
 10
43.61440368
 20
-131.14185252
  0
VERTEX
  8
0
 10
43.38740175
 20
-130.96628335
  0
VERTEX
  8
0
 10
43.17312593
 20
-130.77832211
  0
VERTEX
  8
0
 10
42.97201021
 20
-130.57766376
  0
VERTEX
  8
0
 10
42.78448856
 20
-130.36400326
  0
VERTEX
  8
0
 10
42.61099498
 20
-130.13703559
  0
VERTEX
  8
0
 10
42.45196344
 20
-129.89645570
  0
VERTEX
  8
0
 10
42.30782794
 20
-129.64195856
  0
VERTEX
  8
0
 10
42.17902246
 20
-129.37323914
  0
VERTEX
  8
0
 10
42.06598098
 20
-129.08999240
  0
VERTEX
  8
0
 10
41.96913749
 20
-128.79191331
  0
VERTEX
  8
0
 10
41.88892597
 20
-128.47869684
  0
VERTEX
  8
0
 10
41.82578041
 20
-128.15003794
  0
VERTEX
  8
0
 10
41.78013479
 20
-127.80563158
  0
VERTEX
  8
0
 10
41.75242309
 20
-127.44517274
  0
VERTEX
  8
0
 10
41.74307931
 20
-127.06835637
  0
VERTEX
  8
0
 10
55.04083079
 20
-127.06835637
  0
VERTEX
  8
0
 10
57.17817257
 20
-127.06835637
  0
VERTEX
  8
0
 10
57.16723173
 20
-127.47581224
  0
VERTEX
  8
0
 10
57.13477884
 20
-127.86408446
  0
VERTEX
  8
0
 10
57.08136835
 20
-128.23354287
  0
VERTEX
  8
0
 10
57.00755470
 20
-128.58455733
  0
VERTEX
  8
0
 10
56.91389236
 20
-128.91749766
  0
VERTEX
  8
0
 10
56.80093576
 20
-129.23273372
  0
VERTEX
  8
0
 10
56.66923936
 20
-129.53063535
  0
VERTEX
  8
0
 10
56.51935761
 20
-129.81157240
  0
VERTEX
  8
0
 10
58.24194240
 20
-129.81157240
 42
-0.13939888
  0
VERTEX
  8
0
 10
60.37801835
 20
-138.92572512
  0
VERTEX
  8
0
 10
61.48561328
 20
-137.93742658
 42
-0.15624018
  0
VERTEX
  8
0
 10
66.94447404
 20
-150.38998825
 42
-0.11225109
  0
VERTEX
  8
0
 10
70.74194240
 20
-139.43964036
 42
-0.21050098
  0
VERTEX
  8
0
 10
71.80998037
 20
-131.96810336
 42
-0.27288567
  0
VERTEX
  8
0
 10
72.50474967
 20
-127.06835637
  0
VERTEX
  8
0
 10
78.36993709
 20
-127.06835637
  0
VERTEX
  8
0
 10
87.42311328
 20
-127.06835637
  0
VERTEX
  8
0
 10
87.42311328
 20
-130.06835637
  0
VERTEX
  8
0
 10
77.56824276
 20
-150.56932282
  0
VERTEX
  8
0
 10
70.05214028
 20
-166.20497876
  0
SEQEND
  0
POLYLINE
  8
Default_Layer
 62
256
 66
   1
 39
0.000000
 70
    1
  0
VERTEX
  8
0
 10
32.05709029
 20
-75.59611110
 42
-0.49074015
  0
VERTEX
  8
0
 10
34.95714349
 20
-75.59611110
  0
VERTEX
  8
0
 10
53.10923075
 20
-109.27497045
  0
VERTEX
  8
0
 10
53.85777458
 20
-109.30532532
  0
VERTEX
  8
0
 10
54.58318901
 20
-109.36572626
  0
VERTEX
  8
0
 10
55.28200215
 20
-109.45861357
  0
VERTEX
  8
0
 10
55.95074213
 20
-109.58642751
  0
VERTEX
  8
0
 10
56.58593707
 20
-109.75160837
  0
VERTEX
  8
0
 10
57.18411509
 20
-109.95659643
  0
VERTEX
  8
0
 10
57.74180430
 20
-110.20383195
  0
VERTEX
  8
0
 10
58.00438065
 20
-110.34405510
  0
VERTEX
  8
0
 10
58.25553284
 20
-110.49575522
  0
VERTEX
  8
0
 10
58.49482689
 20
-110.65923734
  0
VERTEX
  8
0
 10
58.72182882
 20
-110.83480651
  0
VERTEX
  8
0
 10
58.93610464
 20
-111.02276775
  0
VERTEX
  8
0
 10
59.13722036
 20
-111.22342610
  0
VERTEX
  8
0
 10
59.32474201
 20
-111.43708660
  0
VERTEX
  8
0
 10
59.49823559
 20
-111.66405427
  0
VERTEX
  8
0
 10
59.65726713
 20
-111.90463416
  0
VERTEX
  8
0
 10
59.80140263
 20
-112.15913130
  0
VERTEX
  8
0
 10
59.93020811
 20
-112.42785072
  0
VERTEX
  8
0
 10
60.04324959
 20
-112.71109746
  0
VERTEX
  8
0
 10
60.14009308
 20
-113.00917655
  0
VERTEX
  8
0
 10
60.22030460
 20
-113.32239302
  0
VERTEX
  8
0
 10
60.28345017
 20
-113.65105192
  0
VERTEX
  8
0
 10
60.32909579
 20
-113.99545828
  0
VERTEX
  8
0
 10
60.35680748
 20
-114.35591712
  0
VERTEX
  8
0
 10
60.36615126
 20
-114.73273349
  0
VERTEX
  8
0
 10
47.06839978
 20
-114.73273349
  0
VERTEX
  8
0
 10
44.93105800
 20
-114.73273349
  0
VERTEX
  8
0
 10
44.94199884
 20
-114.32527762
  0
VERTEX
  8
0
 10
44.97445173
 20
-113.93700540
  0
VERTEX
  8
0
 10
45.02786223
 20
-113.56754699
  0
VERTEX
  8
0
 10
45.10167587
 20
-113.21653253
  0
VERTEX
  8
0
 10
45.19533821
 20
-112.88359220
  0
VERTEX
  8
0
 10
45.30829481
 20
-112.56835614
  0
VERTEX
  8
0
 10
45.43999121
 20
-112.27045451
  0
VERTEX
  8
0
 10
45.58987296
 20
-111.98951746
  0
VERTEX
  8
0
 10
43.86728817
 20
-111.98951746
 42
-0.13939888
  0
VERTEX
  8
0
 10
41.73121222
 20
-102.87536474
  0
VERTEX
  8
0
 10
40.62361729
 20
-103.86366328
 42
-0.15624018
  0
VERTEX
  8
0
 10
35.16475653
 20
-91.41110161
 42
-0.11225109
  0
VERTEX
  8
0
 10
31.36728817
 20
-102.36144950
 42
-0.21050098
  0
VERTEX
  8
0
 10
30.29925020
 20
-109.83298650
 42
-0.27288567
  0
VERTEX
  8
0
 10
29.60448090
 20
-114.73273349
  0
VERTEX
  8
0
 10
23.73929348
 20
-114.73273349
  0
VERTEX
  8
0
 10
14.68611729
 20
-114.73273349
  0
VERTEX
  8
0
 10
14.68611729
 20
-111.73273349
  0
VERTEX
  8
0
 10
24.54098781
 20
-91.23176704
  0
VERTEX
  8
0
 10
32.05709029
 20
-75.59611110
  0
SEQEND
  0
POLYLINE
  8
Default_Layer
 62
256
 66
   1
 39
0.000000
 70
    1
  0
VERTEX
  8
0
 10
71.95087446
 20
-114.02281557
 42
-0.49074015
  0
VERTEX
  8
0
 10
69.05082126
 20
-114.02281557
  0
VERTEX
  8
0
 10
50.89873400
 20
-80.34395622
  0
VERTEX
  8
0
 10
50.15019017
 20
-80.31360136
  0
VERTEX
  8
0
 10
49.42477574
 20
-80.25320041
  0
VERTEX
  8
0
 10
48.72596260
 20
-80.16031310
  0
VERTEX
  8
0
 10
48.05722262
 20
-80.03249916
  0
VERTEX
  8
0
 10
47.42202768
 20
-79.86731830
  0
VERTEX
  8
0
 10
46.82384966
 20
-79.66233025
  0
VERTEX
  8
0
 10
46.26616045
 20
-79.41509472
  0
VERTEX
  8
0
 10
46.00358410
 20
-79.27487158
  0
VERTEX
  8
0
 10
45.75243191
 20
-79.12317146
  0
VERTEX
  8
0
 10
45.51313786
 20
-78.95968933
  0
VERTEX
  8
0
 10
45.28613593
 20
-78.78412016
  0
VERTEX
  8
0
 10
45.07186011
 20
-78.59615892
  0
VERTEX
  8
0
 10
44.87074438
 20
-78.39550057
  0
VERTEX
  8
0
 10
44.68322274
 20
-78.18184007
  0
VERTEX
  8
0
 10
44.50972915
 20
-77.95487240
  0
VERTEX
  8
0
 10
44.35069762
 20
-77.71429251
  0
VERTEX
  8
0
 10
44.20656212
 20
-77.45979537
  0
VERTEX
  8
0
 10
44.07775664
 20
-77.19107595
  0
VERTEX
  8
0
 10
43.96471516
 20
-76.90782922
  0
VERTEX
  8
0
 10
43.86787166
 20
-76.60975013
  0
VERTEX
  8
0
 10
43.78766014
 20
-76.29653365
  0
VERTEX
  8
0
 10
43.72451458
 20
-75.96787475
  0
VERTEX
  8
0
 10
43.67886896
 20
-75.62346840
  0
VERTEX
  8
0
 10
43.65115727
 20
-75.26300955
  0
VERTEX
  8
0
 10
43.64181349
 20
-74.88619318
  0
VERTEX
  8
0
 10
56.93956497
 20
-74.88619318
  0
VERTEX
  8
0
 10
59.07690675
 20
-74.88619318
  0
VERTEX
  8
0
 10
59.06596591
 20
-75.29364905
  0
VERTEX
  8
0
 10
59.03351301
 20
-75.68192127
  0
VERTEX
  8
0
 10
58.98010252
 20
-76.05137969
  0
VERTEX
  8
0
 10
58.90628888
 20
-76.40239414
  0
VERTEX
  8
0
 10
58.81262654
 20
-76.73533447
  0
VERTEX
  8
0
 10
58.69966994
 20
-77.05057053
  0
VERTEX
  8
0
 10
58.56797354
 20
-77.34847217
  0
VERTEX
  8
0
 10
58.41809179
 20
-77.62940921
  0
VERTEX
  8
0
 10
60.14067657
 20
-77.62940921
 42
-0.13939888
  0
VERTEX
  8
0
 10
62.27675252
 20
-86.74356193
  0
VERTEX
  8
0
 10
63.38434746
 20
-85.75526339
 42
-0.15624018
  0
VERTEX
  8
0
 10
68.84320822
 20
-98.20782506
 42
-0.11225109
  0
VERTEX
  8
0
 10
72.64067657
 20
-87.25747718
 42
-0.21050098
  0
VERTEX
  8
0
 10
73.70871455
 20
-79.78594017
 42
-0.27288567
  0
VERTEX
  8
0
 10
74.40348385
 20
-74.88619318
  0
VERTEX
  8
0
 10
80.26867127
 20
-74.88619318
  0
VERTEX
  8
0
 10
89.32184746
 20
-74.88619318
  0
VERTEX
  8
0
 10
89.32184746
 20
-77.88619318
  0
VERTEX
  8
0
 10
79.46697694
 20
-98.38715964
  0
VERTEX
  8
0
 10
71.95087446
 20
-114.02281557
  0
SEQEND
  0
ENDSEC
  0
EOF
