  0
SECTION
  2
HEADER
  9
$ACADVER
  1
AC1032
  9
$ACADMAINTVER
 90
      228
  9
$DWGCODEPAGE
  3
ANSI_1252
  9
$REQUIREDVERSIONS
160
                 0
  9
$INSBASE
 10
0.0
 20
0.0
 30
0.0
  9
$EXTMIN
 10
1.000000000000000E+20
 20
1.000000000000000E+20
 30
1.000000000000000E+20
  9
$EXTMAX
 10
-1.000000000000000E+20
 20
-1.000000000000000E+20
 30
-1.000000000000000E+20
  9
$LIMMIN
 10
0.0
 20
0.0
  9
$LIMMAX
 10
12.0
 20
9.0
  9
$ORTHOMODE
 70
     0
  9
$REGENMODE
 70
     1
  9
$FILLMODE
 70
     1
  9
$QTEXTMODE
 70
     0
  9
$MIRRTEXT
 70
     0
  9
$LTSCALE
 40
1.0
  9
$ATTMODE
 70
     1
  9
$TEXTSIZE
 40
0.2
  9
$TRACEWID
 40
0.05
  9
$TEXTSTYLE
  7
Standard
  9
$CLAYER
  8
0
  9
$CELTYPE
  6
ByLayer
  9
$CECOLOR
 62
   256
  9
$CELTSCALE
 40
1.0
  9
$DISPSILH
 70
     0
  9
$DIMSCALE
 40
1.0
  9
$DIMASZ
 40
0.18
  9
$DIMEXO
 40
0.0625
  9
$DIMDLI
 40
0.38
  9
$DIMRND
 40
0.0
  9
$DIMDLE
 40
0.0
  9
$DIMEXE
 40
0.18
  9
$DIMTP
 40
0.0
  9
$DIMTM
 40
0.0
  9
$DIMTXT
 40
0.18
  9
$DIMCEN
 40
0.09
  9
$DIMTSZ
 40
0.0
  9
$DIMTOL
 70
     0
  9
$DIMLIM
 70
     0
  9
$DIMTIH
 70
     1
  9
$DIMTOH
 70
     1
  9
$DIMSE1
 70
     0
  9
$DIMSE2
 70
     0
  9
$DIMTAD
 70
     0
  9
$DIMZIN
 70
     0
  9
$DIMBLK
  1

  9
$DIMASO
 70
     1
  9
$DIMSHO
 70
     1
  9
$DIMPOST
  1

  9
$DIMAPOST
  1

  9
$DIMALT
 70
     0
  9
$DIMALTD
 70
     2
  9
$DIMALTF
 40
25.4
  9
$DIMLFAC
 40
1.0
  9
$DIMTOFL
 70
     0
  9
$DIMTVP
 40
0.0
  9
$DIMTIX
 70
     0
  9
$DIMSOXD
 70
     0
  9
$DIMSAH
 70
     0
  9
$DIMBLK1
  1

  9
$DIMBLK2
  1

  9
$DIMSTYLE
  2
Standard
  9
$DIMCLRD
 70
     0
  9
$DIMCLRE
 70
     0
  9
$DIMCLRT
 70
     0
  9
$DIMTFAC
 40
1.0
  9
$DIMGAP
 40
0.09
  9
$DIMJUST
 70
     0
  9
$DIMSD1
 70
     0
  9
$DIMSD2
 70
     0
  9
$DIMTOLJ
 70
     1
  9
$DIMTZIN
 70
     0
  9
$DIMALTZ
 70
     0
  9
$DIMALTTZ
 70
     0
  9
$DIMUPT
 70
     0
  9
$DIMDEC
 70
     4
  9
$DIMTDEC
 70
     4
  9
$DIMALTU
 70
     2
  9
$DIMALTTD
 70
     2
  9
$DIMTXSTY
  7
Standard
  9
$DIMAUNIT
 70
     0
  9
$DIMADEC
 70
     0
  9
$DIMALTRND
 40
0.0
  9
$DIMAZIN
 70
     0
  9
$DIMDSEP
 70
    46
  9
$DIMATFIT
 70
     3
  9
$DIMFRAC
 70
     0
  9
$DIMLDRBLK
  1

  9
$DIMLUNIT
 70
     2
  9
$DIMLWD
 70
    -2
  9
$DIMLWE
 70
    -2
  9
$DIMTMOVE
 70
     0
  9
$DIMFXL
 40
1.0
  9
$DIMFXLON
 70
     0
  9
$DIMJOGANG
 40
0.7853981633974483
  9
$DIMTFILL
 70
     0
  9
$DIMTFILLCLR
 70
     0
  9
$DIMARCSYM
 70
     0
  9
$DIMLTYPE
  6

  9
$DIMLTEX1
  6

  9
$DIMLTEX2
  6

  9
$DIMTXTDIRECTION
 70
     0
  9
$LUNITS
 70
     2
  9
$LUPREC
 70
     4
  9
$SKETCHINC
 40
0.1
  9
$FILLETRAD
 40
0.0
  9
$AUNITS
 70
     0
  9
$AUPREC
 70
     0
  9
$MENU
  1
.
  9
$ELEVATION
 40
0.0
  9
$PELEVATION
 40
0.0
  9
$THICKNESS
 40
0.0
  9
$LIMCHECK
 70
     0
  9
$CHAMFERA
 40
0.0
  9
$CHAMFERB
 40
0.0
  9
$CHAMFERC
 40
0.0
  9
$CHAMFERD
 40
0.0
  9
$SKPOLY
 70
     0
  9
$TDCREATE
 40
2459984.370462963
  9
$TDUCREATE
 40
2459984.703796297
  9
$TDUPDATE
 40
2459984.370462963
  9
$TDUUPDATE
 40
2459984.703796297
  9
$TDINDWG
 40
0.0000000000
  9
$TDUSRTIMER
 40
0.0000000000
  9
$USRTIMER
 70
     1
  9
$ANGBASE
 50
0.0
  9
$ANGDIR
 70
     0
  9
$PDMODE
 70
     0
  9
$PDSIZE
 40
0.0
  9
$PLINEWID
 40
0.0
  9
$SPLFRAME
 70
     0
  9
$SPLINETYPE
 70
     6
  9
$SPLINESEGS
 70
     8
  9
$HANDSEED
  5
1C0
  9
$SURFTAB1
 70
     6
  9
$SURFTAB2
 70
     6
  9
$SURFTYPE
 70
     6
  9
$SURFU
 70
     6
  9
$SURFV
 70
     6
  9
$UCSBASE
  2

  9
$UCSNAME
  2

  9
$UCSORG
 10
0.0
 20
0.0
 30
0.0
  9
$UCSXDIR
 10
1.0
 20
0.0
 30
0.0
  9
$UCSYDIR
 10
0.0
 20
1.0
 30
0.0
  9
$UCSORTHOREF
  2

  9
$UCSORTHOVIEW
 70
     0
  9
$UCSORGTOP
 10
0.0
 20
0.0
 30
0.0
  9
$UCSORGBOTTOM
 10
0.0
 20
0.0
 30
0.0
  9
$UCSORGLEFT
 10
0.0
 20
0.0
 30
0.0
  9
$UCSORGRIGHT
 10
0.0
 20
0.0
 30
0.0
  9
$UCSORGFRONT
 10
0.0
 20
0.0
 30
0.0
  9
$UCSORGBACK
 10
0.0
 20
0.0
 30
0.0
  9
$PUCSBASE
  2

  9
$PUCSNAME
  2

  9
$PUCSORG
 10
0.0
 20
0.0
 30
0.0
  9
$PUCSXDIR
 10
1.0
 20
0.0
 30
0.0
  9
$PUCSYDIR
 10
0.0
 20
1.0
 30
0.0
  9
$PUCSORTHOREF
  2

  9
$PUCSORTHOVIEW
 70
     0
  9
$PUCSORGTOP
 10
0.0
 20
0.0
 30
0.0
  9
$PUCSORGBOTTOM
 10
0.0
 20
0.0
 30
0.0
  9
$PUCSORGLEFT
 10
0.0
 20
0.0
 30
0.0
  9
$PUCSORGRIGHT
 10
0.0
 20
0.0
 30
0.0
  9
$PUCSORGFRONT
 10
0.0
 20
0.0
 30
0.0
  9
$PUCSORGBACK
 10
0.0
 20
0.0
 30
0.0
  9
$USERI1
 70
     0
  9
$USERI2
 70
     0
  9
$USERI3
 70
     0
  9
$USERI4
 70
     0
  9
$USERI5
 70
     0
  9
$USERR1
 40
0.0
  9
$USERR2
 40
0.0
  9
$USERR3
 40
0.0
  9
$USERR4
 40
0.0
  9
$USERR5
 40
0.0
  9
$WORLDVIEW
 70
     1
  9
$SHADEDGE
 70
     3
  9
$SHADEDIF
 70
    70
  9
$TILEMODE
 70
     1
  9
$MAXACTVP
 70
    64
  9
$PINSBASE
 10
0.0
 20
0.0
 30
0.0
  9
$PLIMCHECK
 70
     0
  9
$PEXTMIN
 10
1.000000000000000E+20
 20
1.000000000000000E+20
 30
1.000000000000000E+20
  9
$PEXTMAX
 10
-1.000000000000000E+20
 20
-1.000000000000000E+20
 30
-1.000000000000000E+20
  9
$PLIMMIN
 10
0.0
 20
0.0
  9
$PLIMMAX
 10
12.0
 20
9.0
  9
$UNITMODE
 70
     0
  9
$VISRETAIN
 70
     1
  9
$PLINEGEN
 70
     0
  9
$PSLTSCALE
 70
     1
  9
$TREEDEPTH
 70
  3020
  9
$CMLSTYLE
  2
Standard
  9
$CMLJUST
 70
     0
  9
$CMLSCALE
 40
1.0
  9
$PROXYGRAPHICS
 70
     1
  9
$MEASUREMENT
 70
     0
  9
$CELWEIGHT
370
    -1
  9
$ENDCAPS
280
     0
  9
$JOINSTYLE
280
     0
  9
$LWDISPLAY
290
     1
  9
$INSUNITS
 70
     4
  9
$HYPERLINKBASE
  1

  9
$STYLESHEET
  1

  9
$XEDIT
290
     1
  9
$CEPSNTYPE
380
     0
  9
$PSTYLEMODE
290
     1
  9
$FINGERPRINTGUID
  2
{F022390D-4C48-7545-8EC1-B42795D9A9FB}
  9
$VERSIONGUID
  2
{413B0501-FC7E-FE47-B316-2724A98EF45A}
  9
$EXTNAMES
290
     1
  9
$PSVPSCALE
 40
0.0
  9
$OLESTARTUP
290
     0
  9
$SORTENTS
280
   127
  9
$INDEXCTL
280
     0
  9
$HIDETEXT
280
     1
  9
$XCLIPFRAME
280
     2
  9
$HALOGAP
280
     0
  9
$OBSCOLOR
 70
   257
  9
$OBSLTYPE
280
     0
  9
$INTERSECTIONDISPLAY
280
     0
  9
$INTERSECTIONCOLOR
 70
   257
  9
$DIMASSOC
280
     2
  9
$PROJECTNAME
  1

  9
$CAMERADISPLAY
290
     0
  9
$LENSLENGTH
 40
50.0
  9
$CAMERAHEIGHT
 40
0.0
  9
$STEPSPERSEC
 40
2.0
  9
$STEPSIZE
 40
6.0
  9
$3DDWFPREC
 40
2.0
  9
$PSOLWIDTH
 40
0.25
  9
$PSOLHEIGHT
 40
4.0
  9
$LOFTANG1
 40
1.570796326794896
  9
$LOFTANG2
 40
1.570796326794896
  9
$LOFTMAG1
 40
0.0
  9
$LOFTMAG2
 40
0.0
  9
$LOFTPARAM
 70
     7
  9
$LOFTNORMALS
280
     1
  9
$LATITUDE
 40
37.795
  9
$LONGITUDE
 40
-122.394
  9
$NORTHDIRECTION
 40
0.0
  9
$TIMEZONE
 70
 -8000
  9
$LIGHTGLYPHDISPLAY
280
     1
  9
$TILEMODELIGHTSYNCH
280
     1
  9
$CMATERIAL
347
11
  9
$SOLIDHIST
280
     0
  9
$SHOWHIST
280
     1
  9
$DWFFRAME
280
     2
  9
$DGNFRAME
280
     0
  9
$REALWORLDSCALE
290
     1
  9
$INTERFERECOLOR
 62
     1
  9
$INTERFEREOBJVS
345
33
  9
$INTERFEREVPVS
346
30
  9
$CSHADOW
280
     0
  9
$SHADOWPLANELOCATION
 40
0.0
  0
ENDSEC
  0
SECTION
  2
CLASSES
  0
CLASS
  1
ACDBDICTIONARYWDFLT
  2
AcDbDictionaryWithDefault
  3
ObjectDBX Classes
 90
        0
 91
        1
280
     0
281
     0
  0
CLASS
  1
MATERIAL
  2
AcDbMaterial
  3
ObjectDBX Classes
 90
     1153
 91
        3
280
     0
281
     0
  0
CLASS
  1
VISUALSTYLE
  2
AcDbVisualStyle
  3
ObjectDBX Classes
 90
     4095
 91
       24
280
     0
281
     0
  0
CLASS
  1
SCALE
  2
AcDbScale
  3
ObjectDBX Classes
 90
     1153
 91
       17
280
     0
281
     0
  0
CLASS
  1
TABLESTYLE
  2
AcDbTableStyle
  3
ObjectDBX Classes
 90
     4095
 91
        1
280
     0
281
     0
  0
CLASS
  1
MLEADERSTYLE
  2
AcDbMLeaderStyle
  3
ACDB_MLEADERSTYLE_CLASS
 90
     4095
 91
        1
280
     0
281
     0
  0
CLASS
  1
ACDBSECTIONVIEWSTYLE
  2
AcDbSectionViewStyle
  3
ObjectDBX Classes
 90
     1025
 91
        1
280
     0
281
     0
  0
CLASS
  1
ACDBDETAILVIEWSTYLE
  2
AcDbDetailViewStyle
  3
ObjectDBX Classes
 90
     1025
 91
        1
280
     0
281
     0
  0
CLASS
  1
DICTIONARYVAR
  2
AcDbDictionaryVar
  3
ObjectDBX Classes
 90
        0
 91
        5
280
     0
281
     0
  0
CLASS
  1
CELLSTYLEMAP
  2
AcDbCellStyleMap
  3
ObjectDBX Classes
 90
     1152
 91
        1
280
     0
281
     0
  0
ENDSEC
  0
SECTION
  2
TABLES
  0
TABLE
  2
VPORT
  5
8
330
0
100
AcDbSymbolTable
 70
     1
  0
VPORT
  5
57
330
8
100
AcDbSymbolTableRecord
100
AcDbViewportTableRecord
  2
*Active
 70
     0
 10
0.0
 20
0.0
 11
1.0
 21
1.0
 12
0.0
 22
0.0
 13
0.0
 23
0.0
 14
1.0
 24
1.0
 15
0.0
 25
0.0
 16
0.0
 26
0.0
 36
1.0
 17
399.9999999000053
 27
-249.9999999375054
 37
0.0
 40
509.999999872511
 41
1.599999999999986
 42
50.0
 43
0.0
 44
0.0
 50
0.0
 51
0.0
 71
     0
 72
   100
 73
     1
 74
     1
 75
     0
 76
     0
 77
     0
 78
     0
281
     0
 65
     1
110
0.0
120
0.0
130
0.0
111
1.0
121
0.0
131
0.0
112
0.0
122
1.0
132
0.0
 79
     0
146
0.0
 60
     3
 61
     5
292
     1
282
     1
141
0.0
142
0.0
 63
   250
421
  3355443
  0
ENDTAB
  0
TABLE
  2
LTYPE
  5
5
330
0
100
AcDbSymbolTable
 70
     1
  0
LTYPE
  5
5B
330
5
100
AcDbSymbolTableRecord
100
AcDbLinetypeTableRecord
  2
ByBlock
 70
     0
  3

 72
    65
 73
     0
 40
0.0
  0
LTYPE
  5
5C
330
5
100
AcDbSymbolTableRecord
100
AcDbLinetypeTableRecord
  2
ByLayer
 70
     0
  3

 72
    65
 73
     0
 40
0.0
  0
LTYPE
  5
5D
330
5
100
AcDbSymbolTableRecord
100
AcDbLinetypeTableRecord
  2
Continuous
 70
     0
  3
Solid line
 72
    65
 73
     0
 40
0.0
  0
ENDTAB
  0
TABLE
  2
LAYER
  5
2
330
0
100
AcDbSymbolTable
 70
     2
  0
LAYER
  5
54
330
2
100
AcDbSymbolTableRecord
100
AcDbLayerTableRecord
  2
0
 70
     0
 62
     7
  6
Continuous
370
    -3
390
F
347
21
348
0
  0
LAYER
  5
78
330
2
100
AcDbSymbolTableRecord
100
AcDbLayerTableRecord
  2
Layer 1
 70
     0
 62
     7
  6
Continuous
370
     0
390
F
347
21
348
0
  0
ENDTAB
  0
TABLE
  2
STYLE
  5
3
330
0
100
AcDbSymbolTable
 70
     2
  0
STYLE
  5
55
330
3
100
AcDbSymbolTableRecord
100
AcDbTextStyleTableRecord
  2
Standard
 70
     0
 40
0.0
 41
1.0
 50
0.0
 71
     0
 42
0.2
  3
txt
  4

  0
STYLE
  5
5A
330
3
100
AcDbSymbolTableRecord
100
AcDbTextStyleTableRecord
  2
Annotative
 70
     0
 40
0.0
 41
1.0
 50
0.0
 71
     0
 42
0.2
  3
txt
  4

1001
AcadAnnotative
1000
AnnotativeData
1002
{
1070
     1
1070
     1
1002
}
  0
ENDTAB
  0
TABLE
  2
VIEW
  5
6
330
0
100
AcDbSymbolTable
 70
     0
  0
ENDTAB
  0
TABLE
  2
UCS
  5
7
330
0
100
AcDbSymbolTable
 70
     0
  0
ENDTAB
  0
TABLE
  2
APPID
  5
9
330
0
100
AcDbSymbolTable
 70
     2
  0
APPID
  5
56
330
9
100
AcDbSymbolTableRecord
100
AcDbRegAppTableRecord
  2
ACAD
 70
     0
  0
APPID
  5
5E
330
9
100
AcDbSymbolTableRecord
100
AcDbRegAppTableRecord
  2
AcadAnnotative
 70
     0
  0
ENDTAB
  0
TABLE
  2
DIMSTYLE
  5
A
330
0
100
AcDbSymbolTable
 70
     2
100
AcDbDimStyleTable
 71
     0
  0
DIMSTYLE
105
58
330
A
100
AcDbSymbolTableRecord
100
AcDbDimStyleTableRecord
  2
Standard
 70
     0
340
55
  0
DIMSTYLE
105
59
330
A
100
AcDbSymbolTableRecord
100
AcDbDimStyleTableRecord
  2
Annotative
 70
     0
340
55
1001
AcadAnnotative
1000
AnnotativeData
1002
{
1070
     1
1070
     1
1002
}
  0
ENDTAB
  0
TABLE
  2
BLOCK_RECORD
  5
1
330
0
100
AcDbSymbolTable
 70
     8
  0
BLOCK_RECORD
  5
70
330
1
100
AcDbSymbolTableRecord
100
AcDbBlockTableRecord
  2
*Model_Space
340
73
 70
     0
280
     1
281
     0
  0
BLOCK_RECORD
  5
6C
330
1
100
AcDbSymbolTableRecord
100
AcDbBlockTableRecord
  2
*Paper_Space
340
6F
 70
     0
280
     1
281
     0
  0
BLOCK_RECORD
  5
74
330
1
100
AcDbSymbolTableRecord
100
AcDbBlockTableRecord
  2
*Paper_Space0
340
77
 70
     0
280
     1
281
     0
  0
BLOCK_RECORD
  5
7D
330
1
100
AcDbSymbolTableRecord
100
AcDbBlockTableRecord
  2
Block_0
340
0
102
{BLKREFS
331
7E
102
}
 70
     0
280
     1
281
     0
  0
BLOCK_RECORD
  5
84
330
1
100
AcDbSymbolTableRecord
100
AcDbBlockTableRecord
  2
Block_1
340
0
102
{BLKREFS
331
85
102
}
 70
     0
280
     1
281
     0
  0
BLOCK_RECORD
  5
104
330
1
100
AcDbSymbolTableRecord
100
AcDbBlockTableRecord
  2
Block_2
340
0
102
{BLKREFS
331
105
102
}
 70
     0
280
     1
281
     0
  0
BLOCK_RECORD
  5
136
330
1
100
AcDbSymbolTableRecord
100
AcDbBlockTableRecord
  2
Block_3
340
0
102
{BLKREFS
331
137
102
}
 70
     0
280
     1
281
     0
  0
BLOCK_RECORD
  5
157
330
1
100
AcDbSymbolTableRecord
100
AcDbBlockTableRecord
  2
Block_4
340
0
102
{BLKREFS
331
158
102
}
 70
     0
280
     1
281
     0
  0
BLOCK_RECORD
  5
184
330
1
100
AcDbSymbolTableRecord
100
AcDbBlockTableRecord
  2
Block_5
340
0
102
{BLKREFS
331
185
102
}
 70
     0
280
     1
281
     0
  0
BLOCK_RECORD
  5
19B
330
1
100
AcDbSymbolTableRecord
100
AcDbBlockTableRecord
  2
Block_6
340
0
102
{BLKREFS
331
19C
102
}
 70
     0
280
     1
281
     0
  0
ENDTAB
  0
ENDSEC
  0
SECTION
  2
BLOCKS
  0
BLOCK
  5
71
330
70
100
AcDbEntity
  8
0
100
AcDbBlockBegin
  2
*Model_Space
 70
     0
 10
0.0
 20
0.0
 30
0.0
  3
*Model_Space
  1

  0
ENDBLK
  5
72
330
70
100
AcDbEntity
  8
0
100
AcDbBlockEnd
  0
BLOCK
  5
6D
330
6C
100
AcDbEntity
 67
     1
  8
0
100
AcDbBlockBegin
  2
*Paper_Space
 70
     0
 10
0.0
 20
0.0
 30
0.0
  3
*Paper_Space
  1

  0
ENDBLK
  5
6E
330
6C
100
AcDbEntity
 67
     1
  8
0
100
AcDbBlockEnd
  0
BLOCK
  5
75
330
74
100
AcDbEntity
 67
     1
  8
0
100
AcDbBlockBegin
  2
*Paper_Space0
 70
     0
 10
0.0
 20
0.0
 30
0.0
  3
*Paper_Space0
  1

  0
ENDBLK
  5
76
330
74
100
AcDbEntity
 67
     1
  8
0
100
AcDbBlockEnd
  0
BLOCK
  5
7F
330
7D
100
AcDbEntity
  8
0
100
AcDbBlockBegin
  2
Block_0
 70
     0
 10
0.0
 20
0.0
 30
0.0
  3
Block_0
  1

  0
LWPOLYLINE
  5
81
330
7D
100
AcDbEntity
  8
Layer 1
 62
    18
420
    65793
370
    25
100
AcDbPolyline
 90
       20
 70
     1
 43
0.0
 10
378.3660400049117
 20
-4.669461689305961
 10
427.9660400049079
 20
-4.669461689305961
 10
427.9660400049079
 20
-19.16946168930551
 10
430.966040004912
 20
-19.16946168930551
 10
430.966040004912
 20
-4.669461689305961
 10
480.5660400049085
 20
-4.669461689305961
 10
480.5660400049085
 20
-19.16946168930551
 10
483.566040004908
 20
-19.16946168930551
 10
483.566040004908
 20
-4.669461689305961
 10
533.1660400049084
 20
-4.669461689305961
 10
533.1660400049084
 20
-19.16946168930551
 10
536.166040004908
 20
-19.16946168930551
 10
536.166040004908
 20
-4.669461689305961
 10
585.7660400049083
 20
-4.669461689305961
 10
585.7660400049083
 20
-19.16946168930551
 10
588.7660400049084
 20
-19.16946168930551
 10
588.7660400049084
 20
-4.669461689305961
 10
638.3660400049084
 20
-4.669461689305961
 10
638.3660400049084
 20
-33.66946168930506
 10
378.3660400049117
 20
-33.66946168930506
  0
LINE
  5
82
330
7D
100
AcDbEntity
  8
Layer 1
 62
    18
420
    65793
370
    25
100
AcDbLine
 10
483.566040004908
 20
-4.669461689305961
 30
0.0
 11
533.1660400049084
 21
-4.669461689305961
 31
0.0
  0
LINE
  5
83
330
7D
100
AcDbEntity
  8
Layer 1
 62
    18
420
    65793
370
    25
100
AcDbLine
 10
536.166040004908
 20
-4.669461689305961
 30
0.0
 11
585.7660400049083
 21
-4.669461689305961
 31
0.0
  0
ENDBLK
  5
80
330
7D
100
AcDbEntity
  8
0
100
AcDbBlockEnd
  0
BLOCK
  5
86
330
84
100
AcDbEntity
  8
0
100
AcDbBlockBegin
  2
Block_1
 70
     0
 10
0.0
 20
0.0
 30
0.0
  3
Block_1
  1

  0
LINE
  5
88
330
84
100
AcDbEntity
  8
Layer 1
 62
    18
420
    65793
370
    25
100
AcDbLine
 10
93.81546048838048
 20
-272.3785505156745
 30
0.0
 11
93.81546048838048
 21
-210.4785505156743
 31
0.0
  0
LINE
  5
89
330
84
100
AcDbEntity
  8
Layer 1
 62
    18
420
    65793
370
    25
100
AcDbLine
 10
87.5008101883804
 20
-323.4035505156745
 30
0.0
 11
87.5008101883804
 21
-312.5285505156745
 31
0.0
  0
LINE
  5
8A
330
84
100
AcDbEntity
  8
Layer 1
 62
    18
420
    65793
370
    25
100
AcDbLine
 10
93.81546048838048
 20
-323.4035505156745
 30
0.0
 11
93.81546048838048
 21
-312.5285505156745
 31
0.0
  0
LINE
  5
8B
330
84
100
AcDbEntity
  8
Layer 1
 62
    18
420
    65793
370
    25
100
AcDbLine
 10
90.65813528838118
 20
-221.3535505156743
 30
0.0
 11
90.65813528838118
 21
-159.4535505156746
 31
0.0
  0
LINE
  5
8C
330
84
100
AcDbEntity
  8
Layer 1
 62
    18
420
    65793
370
    25
100
AcDbLine
 10
81.18615978838048
 20
-323.4035505156745
 30
0.0
 11
81.18615978838048
 21
-312.5285505156745
 31
0.0
  0
LINE
  5
8D
330
84
100
AcDbEntity
  8
Layer 1
 62
    18
420
    65793
370
    25
100
AcDbLine
 10
81.18615978838048
 20
-272.3785505156745
 30
0.0
 11
81.18615978838048
 21
-210.4785505156743
 31
0.0
  0
LINE
  5
8E
330
84
100
AcDbEntity
  8
Layer 1
 62
    18
420
    65793
370
    25
100
AcDbLine
 10
96.97278568838108
 20
-221.3535505156743
 30
0.0
 11
96.97278568838108
 21
-159.4535505156746
 31
0.0
  0
LINE
  5
8F
330
84
100
AcDbEntity
  8
Layer 1
 62
    18
420
    65793
370
    25
100
AcDbLine
 10
100.1301107883805
 20
-272.3785505156745
 30
0.0
 11
100.1301107883805
 21
-210.4785505156743
 31
0.0
  0
LINE
  5
90
330
84
100
AcDbEntity
  8
Layer 1
 62
    18
420
    65793
370
    25
100
AcDbLine
 10
103.2874359883811
 20
-119.303550515674
 30
0.0
 11
103.2874359883811
 21
-57.40355051567409
 31
0.0
  0
LINE
  5
91
330
84
100
AcDbEntity
  8
Layer 1
 62
    18
420
    65793
370
    25
100
AcDbLine
 10
96.97278568838108
 20
-119.303550515674
 30
0.0
 11
96.97278568838108
 21
-57.40355051567409
 31
0.0
  0
LINE
  5
92
330
84
100
AcDbEntity
  8
Layer 1
 62
    18
420
    65793
370
    25
100
AcDbLine
 10
87.5008101883804
 20
-170.328550515674
 30
0.0
 11
87.5008101883804
 21
-108.428550515674
 31
0.0
  0
LINE
  5
93
330
84
100
AcDbEntity
  8
Layer 1
 62
    18
420
    65793
370
    25
100
AcDbLine
 10
218.5119569883808
 20
-119.303550515674
 30
0.0
 11
218.5119569883808
 21
-57.40355051567409
 31
0.0
  0
LINE
  5
94
330
84
100
AcDbEntity
  8
Layer 1
 62
    18
420
    65793
370
    25
100
AcDbLine
 10
221.6692821883807
 20
-323.4035505156745
 30
0.0
 11
221.6692821883807
 21
-312.5285505156745
 31
0.0
  0
LINE
  5
95
330
84
100
AcDbEntity
  8
Layer 1
 62
    18
420
    65793
370
    25
100
AcDbLine
 10
218.5119569883808
 20
-221.3535505156743
 30
0.0
 11
218.5119569883808
 21
-159.4535505156746
 31
0.0
  0
LINE
  5
96
330
84
100
AcDbEntity
  8
Layer 1
 62
    18
420
    65793
370
    25
100
AcDbLine
 10
93.81546048838048
 20
-68.27855051567408
 30
0.0
 11
93.81546048838048
 21
-57.40355051567409
 31
0.0
  0
LINE
  5
97
330
84
100
AcDbEntity
  8
Layer 1
 62
    18
420
    65793
370
    25
100
AcDbLine
 10
81.18615978838048
 20
-170.328550515674
 30
0.0
 11
81.18615978838048
 21
-108.428550515674
 31
0.0
  0
LINE
  5
98
330
84
100
AcDbEntity
  8
Layer 1
 62
    18
420
    65793
370
    25
100
AcDbLine
 10
103.2874359883811
 20
-323.4035505156745
 30
0.0
 11
103.2874359883811
 21
-261.5035505156746
 31
0.0
  0
LINE
  5
99
330
84
100
AcDbEntity
  8
Layer 1
 62
    18
420
    65793
370
    25
100
AcDbLine
 10
100.1301107883805
 20
-68.27855051567408
 30
0.0
 11
100.1301107883805
 21
-57.40355051567409
 31
0.0
  0
LINE
  5
9A
330
84
100
AcDbEntity
  8
Layer 1
 62
    18
420
    65793
370
    25
100
AcDbLine
 10
78.02883468838101
 20
-119.303550515674
 30
0.0
 11
78.02883468838101
 21
-57.40355051567409
 31
0.0
  0
LINE
  5
9B
330
84
100
AcDbEntity
  8
Layer 1
 62
    18
420
    65793
370
    25
100
AcDbLine
 10
221.6692821883807
 20
-272.3785505156745
 30
0.0
 11
221.6692821883807
 21
-210.4785505156743
 31
0.0
  0
LINE
  5
9C
330
84
100
AcDbEntity
  8
Layer 1
 62
    18
420
    65793
370
    25
100
AcDbLine
 10
93.81546048838048
 20
-170.328550515674
 30
0.0
 11
93.81546048838048
 21
-108.428550515674
 31
0.0
  0
LINE
  5
9D
330
84
100
AcDbEntity
  8
Layer 1
 62
    18
420
    65793
370
    25
100
AcDbLine
 10
90.65813528838118
 20
-119.303550515674
 30
0.0
 11
90.65813528838118
 21
-57.40355051567409
 31
0.0
  0
LINE
  5
9E
330
84
100
AcDbEntity
  8
Layer 1
 62
    18
420
    65793
370
    25
100
AcDbLine
 10
84.3434849883811
 20
-119.303550515674
 30
0.0
 11
84.3434849883811
 21
-57.40355051567409
 31
0.0
  0
LINE
  5
9F
330
84
100
AcDbEntity
  8
Layer 1
 62
    18
420
    65793
370
    25
100
AcDbLine
 10
78.02883468838101
 20
-221.3535505156743
 30
0.0
 11
78.02883468838101
 21
-159.4535505156746
 31
0.0
  0
LINE
  5
A0
330
84
100
AcDbEntity
  8
Layer 1
 62
    18
420
    65793
370
    25
100
AcDbLine
 10
100.1301107883805
 20
-323.4035505156745
 30
0.0
 11
100.1301107883805
 21
-312.5285505156745
 31
0.0
  0
LINE
  5
A1
330
84
100
AcDbEntity
  8
Layer 1
 62
    18
420
    65793
370
    25
100
AcDbLine
 10
100.1301107883805
 20
-170.328550515674
 30
0.0
 11
100.1301107883805
 21
-108.428550515674
 31
0.0
  0
LINE
  5
A2
330
84
100
AcDbEntity
  8
Layer 1
 62
    18
420
    65793
370
    25
100
AcDbLine
 10
106.4447611883804
 20
-323.4035505156745
 30
0.0
 11
106.4447611883804
 21
-312.5285505156745
 31
0.0
  0
LINE
  5
A3
330
84
100
AcDbEntity
  8
Layer 1
 62
    18
420
    65793
370
    25
100
AcDbLine
 10
87.5008101883804
 20
-272.3785505156745
 30
0.0
 11
87.5008101883804
 21
-210.4785505156743
 31
0.0
  0
LINE
  5
A4
330
84
100
AcDbEntity
  8
Layer 1
 62
    18
420
    65793
370
    25
100
AcDbLine
 10
90.65813528838118
 20
-323.4035505156745
 30
0.0
 11
90.65813528838118
 21
-261.5035505156746
 31
0.0
  0
LINE
  5
A5
330
84
100
AcDbEntity
  8
Layer 1
 62
    18
420
    65793
370
    25
100
AcDbLine
 10
103.2874359883811
 20
-221.3535505156743
 30
0.0
 11
103.2874359883811
 21
-159.4535505156746
 31
0.0
  0
LINE
  5
A6
330
84
100
AcDbEntity
  8
Layer 1
 62
    18
420
    65793
370
    25
100
AcDbLine
 10
106.4447611883804
 20
-170.328550515674
 30
0.0
 11
106.4447611883804
 21
-108.428550515674
 31
0.0
  0
LINE
  5
A7
330
84
100
AcDbEntity
  8
Layer 1
 62
    18
420
    65793
370
    25
100
AcDbLine
 10
106.4447611883804
 20
-272.3785505156745
 30
0.0
 11
106.4447611883804
 21
-210.4785505156743
 31
0.0
  0
LINE
  5
A8
330
84
100
AcDbEntity
  8
Layer 1
 62
    18
420
    65793
370
    25
100
AcDbLine
 10
106.4447611883804
 20
-68.27855051567408
 30
0.0
 11
106.4447611883804
 21
-57.40355051567409
 31
0.0
  0
LINE
  5
A9
330
84
100
AcDbEntity
  8
Layer 1
 62
    18
420
    65793
370
    25
100
AcDbLine
 10
96.97278568838108
 20
-323.4035505156745
 30
0.0
 11
96.97278568838108
 21
-261.5035505156746
 31
0.0
  0
LINE
  5
AA
330
84
100
AcDbEntity
  8
Layer 1
 62
    18
420
    65793
370
    25
100
AcDbLine
 10
84.3434849883811
 20
-323.4035505156745
 30
0.0
 11
84.3434849883811
 21
-261.5035505156746
 31
0.0
  0
LINE
  5
AB
330
84
100
AcDbEntity
  8
Layer 1
 62
    18
420
    65793
370
    25
100
AcDbLine
 10
81.18615978838048
 20
-68.27855051567408
 30
0.0
 11
81.18615978838048
 21
-57.40355051567409
 31
0.0
  0
LINE
  5
AC
330
84
100
AcDbEntity
  8
Layer 1
 62
    18
420
    65793
370
    25
100
AcDbLine
 10
84.3434849883811
 20
-221.3535505156743
 30
0.0
 11
84.3434849883811
 21
-159.4535505156746
 31
0.0
  0
LINE
  5
AD
330
84
100
AcDbEntity
  8
Layer 1
 62
    18
420
    65793
370
    25
100
AcDbLine
 10
78.02883468838101
 20
-323.4035505156745
 30
0.0
 11
78.02883468838101
 21
-261.5035505156746
 31
0.0
  0
LINE
  5
AE
330
84
100
AcDbEntity
  8
Layer 1
 62
    18
420
    65793
370
    25
100
AcDbLine
 10
87.5008101883804
 20
-68.27855051567408
 30
0.0
 11
87.5008101883804
 21
-57.40355051567409
 31
0.0
  0
LINE
  5
AF
330
84
100
AcDbEntity
  8
Layer 1
 62
    18
420
    65793
370
    25
100
AcDbLine
 10
227.9839324883809
 20
-323.4035505156745
 30
0.0
 11
227.9839324883809
 21
-312.5285505156745
 31
0.0
  0
LINE
  5
B0
330
84
100
AcDbEntity
  8
Layer 1
 62
    18
420
    65793
370
    25
100
AcDbLine
 10
218.5119569883808
 20
-323.4035505156745
 30
0.0
 11
218.5119569883808
 21
-261.5035505156746
 31
0.0
  0
LINE
  5
B1
330
84
100
AcDbEntity
  8
Layer 1
 62
    18
420
    65793
370
    25
100
AcDbLine
 10
231.1412576883808
 20
-323.4035505156745
 30
0.0
 11
231.1412576883808
 21
-261.5035505156746
 31
0.0
  0
LINE
  5
B2
330
84
100
AcDbEntity
  8
Layer 1
 62
    18
420
    65793
370
    25
100
AcDbLine
 10
231.1412576883808
 20
-221.3535505156743
 30
0.0
 11
231.1412576883808
 21
-159.4535505156746
 31
0.0
  0
LINE
  5
B3
330
84
100
AcDbEntity
  8
Layer 1
 62
    18
420
    65793
370
    25
100
AcDbLine
 10
224.8266072883809
 20
-323.4035505156745
 30
0.0
 11
224.8266072883809
 21
-261.5035505156746
 31
0.0
  0
LINE
  5
B4
330
84
100
AcDbEntity
  8
Layer 1
 62
    18
420
    65793
370
    25
100
AcDbLine
 10
227.9839324883809
 20
-68.27855051567408
 30
0.0
 11
227.9839324883809
 21
-57.40355051567409
 31
0.0
  0
LINE
  5
B5
330
84
100
AcDbEntity
  8
Layer 1
 62
    18
420
    65793
370
    25
100
AcDbLine
 10
243.7705583883808
 20
-323.4035505156745
 30
0.0
 11
243.7705583883808
 21
-261.5035505156746
 31
0.0
  0
LINE
  5
B6
330
84
100
AcDbEntity
  8
Layer 1
 62
    18
420
    65793
370
    25
100
AcDbLine
 10
237.4559079883809
 20
-119.303550515674
 30
0.0
 11
237.4559079883809
 21
-57.40355051567409
 31
0.0
  0
LINE
  5
B7
330
84
100
AcDbEntity
  8
Layer 1
 62
    18
420
    65793
370
    25
100
AcDbLine
 10
240.6132331883808
 20
-68.27855051567408
 30
0.0
 11
240.6132331883808
 21
-57.40355051567409
 31
0.0
  0
LINE
  5
B8
330
84
100
AcDbEntity
  8
Layer 1
 62
    18
420
    65793
370
    25
100
AcDbLine
 10
224.8266072883809
 20
-119.303550515674
 30
0.0
 11
224.8266072883809
 21
-57.40355051567409
 31
0.0
  0
LINE
  5
B9
330
84
100
AcDbEntity
  8
Layer 1
 62
    18
420
    65793
370
    25
100
AcDbLine
 10
240.6132331883808
 20
-272.3785505156745
 30
0.0
 11
240.6132331883808
 21
-210.4785505156743
 31
0.0
  0
LINE
  5
BA
330
84
100
AcDbEntity
  8
Layer 1
 62
    18
420
    65793
370
    25
100
AcDbLine
 10
237.4559079883809
 20
-323.4035505156745
 30
0.0
 11
237.4559079883809
 21
-261.5035505156746
 31
0.0
  0
LINE
  5
BB
330
84
100
AcDbEntity
  8
Layer 1
 62
    18
420
    65793
370
    25
100
AcDbLine
 10
237.4559079883809
 20
-221.3535505156743
 30
0.0
 11
237.4559079883809
 21
-159.4535505156746
 31
0.0
  0
LINE
  5
BC
330
84
100
AcDbEntity
  8
Layer 1
 62
    18
420
    65793
370
    25
100
AcDbLine
 10
234.2985828883807
 20
-68.27855051567408
 30
0.0
 11
234.2985828883807
 21
-57.40355051567409
 31
0.0
  0
LINE
  5
BD
330
84
100
AcDbEntity
  8
Layer 1
 62
    18
420
    65793
370
    25
100
AcDbLine
 10
246.9278834883809
 20
-272.3785505156745
 30
0.0
 11
246.9278834883809
 21
-210.4785505156743
 31
0.0
  0
LINE
  5
BE
330
84
100
AcDbEntity
  8
Layer 1
 62
    18
420
    65793
370
    25
100
AcDbLine
 10
234.2985828883807
 20
-272.3785505156745
 30
0.0
 11
234.2985828883807
 21
-210.4785505156743
 31
0.0
  0
LINE
  5
BF
330
84
100
AcDbEntity
  8
Layer 1
 62
    18
420
    65793
370
    25
100
AcDbLine
 10
224.8266072883809
 20
-221.3535505156743
 30
0.0
 11
224.8266072883809
 21
-159.4535505156746
 31
0.0
  0
LINE
  5
C0
330
84
100
AcDbEntity
  8
Layer 1
 62
    18
420
    65793
370
    25
100
AcDbLine
 10
246.9278834883809
 20
-170.328550515674
 30
0.0
 11
246.9278834883809
 21
-108.428550515674
 31
0.0
  0
LINE
  5
C1
330
84
100
AcDbEntity
  8
Layer 1
 62
    18
420
    65793
370
    25
100
AcDbLine
 10
243.7705583883808
 20
-221.3535505156743
 30
0.0
 11
243.7705583883808
 21
-159.4535505156746
 31
0.0
  0
LINE
  5
C2
330
84
100
AcDbEntity
  8
Layer 1
 62
    18
420
    65793
370
    25
100
AcDbLine
 10
240.6132331883808
 20
-170.328550515674
 30
0.0
 11
240.6132331883808
 21
-108.428550515674
 31
0.0
  0
LINE
  5
C3
330
84
100
AcDbEntity
  8
Layer 1
 62
    18
420
    65793
370
    25
100
AcDbLine
 10
227.9839324883809
 20
-170.328550515674
 30
0.0
 11
227.9839324883809
 21
-108.428550515674
 31
0.0
  0
LINE
  5
C4
330
84
100
AcDbEntity
  8
Layer 1
 62
    18
420
    65793
370
    25
100
AcDbLine
 10
243.7705583883808
 20
-119.303550515674
 30
0.0
 11
243.7705583883808
 21
-57.40355051567409
 31
0.0
  0
LINE
  5
C5
330
84
100
AcDbEntity
  8
Layer 1
 62
    18
420
    65793
370
    25
100
AcDbLine
 10
231.1412576883808
 20
-119.303550515674
 30
0.0
 11
231.1412576883808
 21
-57.40355051567409
 31
0.0
  0
LINE
  5
C6
330
84
100
AcDbEntity
  8
Layer 1
 62
    18
420
    65793
370
    25
100
AcDbLine
 10
227.9839324883809
 20
-272.3785505156745
 30
0.0
 11
227.9839324883809
 21
-210.4785505156743
 31
0.0
  0
LINE
  5
C7
330
84
100
AcDbEntity
  8
Layer 1
 62
    18
420
    65793
370
    25
100
AcDbLine
 10
240.6132331883808
 20
-323.4035505156745
 30
0.0
 11
240.6132331883808
 21
-312.5285505156745
 31
0.0
  0
LINE
  5
C8
330
84
100
AcDbEntity
  8
Layer 1
 62
    18
420
    65793
370
    25
100
AcDbLine
 10
234.2985828883807
 20
-323.4035505156745
 30
0.0
 11
234.2985828883807
 21
-312.5285505156745
 31
0.0
  0
LINE
  5
C9
330
84
100
AcDbEntity
  8
Layer 1
 62
    18
420
    65793
370
    25
100
AcDbLine
 10
246.9278834883809
 20
-68.27855051567408
 30
0.0
 11
246.9278834883809
 21
-57.40355051567409
 31
0.0
  0
LINE
  5
CA
330
84
100
AcDbEntity
  8
Layer 1
 62
    18
420
    65793
370
    25
100
AcDbLine
 10
246.9278834883809
 20
-323.4035505156745
 30
0.0
 11
246.9278834883809
 21
-312.5285505156745
 31
0.0
  0
LINE
  5
CB
330
84
100
AcDbEntity
  8
Layer 1
 62
    18
420
    65793
370
    25
100
AcDbLine
 10
221.6692821883807
 20
-170.328550515674
 30
0.0
 11
221.6692821883807
 21
-108.428550515674
 31
0.0
  0
LINE
  5
CC
330
84
100
AcDbEntity
  8
Layer 1
 62
    18
420
    65793
370
    25
100
AcDbLine
 10
221.6692821883807
 20
-68.27855051567408
 30
0.0
 11
221.6692821883807
 21
-57.40355051567409
 31
0.0
  0
LINE
  5
CD
330
84
100
AcDbEntity
  8
Layer 1
 62
    18
420
    65793
370
    25
100
AcDbLine
 10
234.2985828883807
 20
-170.328550515674
 30
0.0
 11
234.2985828883807
 21
-108.428550515674
 31
0.0
  0
LWPOLYLINE
  5
CE
330
84
100
AcDbEntity
  8
Layer 1
 62
    18
420
    65793
370
    25
100
AcDbPolyline
 90
      104
 70
     1
 43
0.0
 10
208.978359088381
 20
-320.4035505156738
 10
208.978359088381
 20
-323.4035505156745
 10
214.9783590883806
 20
-323.4035505156745
 10
218.5119569883808
 20
-323.4035505156745
 10
249.927883488381
 20
-323.4035505156745
 10
252.9283425883808
 20
-323.4035505156745
 10
252.9283425883808
 20
-320.428466976547
 10
255.9283425883809
 20
-320.4160087461104
 10
255.9283425883809
 20
-323.4035505156745
 10
258.928342588381
 20
-323.4035505156745
 10
258.928342588381
 20
-320.4035505156738
 10
258.928342588381
 20
-270.8035505156739
 10
258.928342588381
 20
-267.8035505156745
 10
258.928342588381
 20
-218.2035505156747
 10
258.928342588381
 20
-215.2035505156742
 10
258.928342588381
 20
-165.6035505156741
 10
258.928342588381
 20
-162.6035505156742
 10
258.928342588381
 20
-113.0035505156741
 10
258.928342588381
 20
-110.003550515674
 10
258.928342588381
 20
-60.40355051567388
 10
259.0543920883809
 20
-57.40355051567409
 10
255.9283425883809
 20
-57.40355051567409
 10
255.9283425883809
 20
-60.40355051567388
 10
252.9283425883808
 20
-60.40355051567388
 10
252.9283425883808
 20
-57.40355051567409
 10
251.9403425883812
 20
-57.40355051567409
 10
249.927883488381
 20
-57.40355051567409
 10
218.5119569883808
 20
-57.40355051567409
 10
208.978359088381
 20
-57.40355051567409
 10
208.978359088381
 20
-60.40355051567388
 10
202.9783590883808
 20
-60.40355051567388
 10
202.9783590883808
 20
-57.40355051567409
 10
196.9783590883812
 20
-57.40355051567409
 10
196.9783590883812
 20
-60.40355051567388
 10
190.978359088381
 20
-60.40355051567388
 10
190.978359088381
 20
-57.40355051567409
 10
184.9783590883808
 20
-57.40355051567409
 10
184.9783590883808
 20
-60.40355051567388
 10
178.9783590883805
 20
-60.40355051567388
 10
178.9783590883805
 20
-57.40355051567409
 10
172.978359088381
 20
-57.40355051567409
 10
172.978359088381
 20
-60.40355051567388
 10
166.9783590883808
 20
-60.40355051567388
 10
166.9783590883808
 20
-57.40355051567409
 10
160.9783590883812
 20
-57.40355051567409
 10
160.9783590883812
 20
-60.40355051567388
 10
154.978359088381
 20
-60.40355051567388
 10
154.978359088381
 20
-57.40355051567409
 10
148.9783590883808
 20
-57.40355051567409
 10
148.9783590883808
 20
-60.40355051567388
 10
142.9783590883806
 20
-60.40355051567388
 10
142.9783590883806
 20
-57.40355051567409
 10
136.978359088381
 20
-57.40355051567409
 10
136.978359088381
 20
-60.40355051567388
 10
130.9783590883808
 20
-60.40355051567388
 10
130.9783590883808
 20
-57.40355051567409
 10
124.9783590883812
 20
-57.40355051567409
 10
124.9783590883812
 20
-60.40355051567388
 10
118.978359088381
 20
-60.40355051567388
 10
118.978359088381
 20
-57.40355051567409
 10
112.9783590883808
 20
-57.40355051567409
 10
109.4447611883812
 20
-57.40355051567409
 10
78.02883468838101
 20
-57.40355051567409
 10
75.02835908838091
 20
-57.40355051567409
 10
75.02835908838091
 20
-60.40355051567388
 10
72.02835908838081
 20
-60.40355051567388
 10
72.02835908838081
 20
-57.40355051567409
 10
70.01637558838091
 20
-57.40355051567409
 10
69.02835908838103
 20
-57.40355051567409
 10
69.02835908838103
 20
-323.4035505156745
 10
72.02835908838081
 20
-323.4035505156745
 10
72.02835908838081
 20
-320.4035505156738
 10
75.02835908838091
 20
-320.4035505156738
 10
75.02835908838091
 20
-323.4035505156745
 10
118.978359088381
 20
-323.4035505156745
 10
118.978359088381
 20
-320.4035505156738
 10
124.9783590883812
 20
-320.4035505156738
 10
124.9783590883812
 20
-323.4035505156745
 10
130.9783590883808
 20
-323.4035505156745
 10
130.9783590883808
 20
-320.4035505156738
 10
136.9783590883804
 20
-320.4035505156738
 10
136.978359088381
 20
-323.4035505156745
 10
142.9783590883806
 20
-323.4035505156745
 10
142.9783590883806
 20
-320.4035505156738
 10
148.9783590883808
 20
-320.4035505156738
 10
148.9783590883808
 20
-323.4035505156745
 10
154.978359088381
 20
-323.4035505156745
 10
154.978359088381
 20
-320.4035505156738
 10
160.9783590883812
 20
-320.4035505156738
 10
160.9783590883812
 20
-323.4035505156745
 10
166.9783590883808
 20
-323.4035505156745
 10
166.9783590883808
 20
-320.4035505156738
 10
172.978359088381
 20
-320.4035505156738
 10
172.978359088381
 20
-323.4035505156745
 10
178.9783590883805
 20
-323.4035505156745
 10
178.9783590883805
 20
-320.4035505156738
 10
184.9783590883808
 20
-320.4035505156738
 10
184.9783590883808
 20
-323.4035505156745
 10
190.978359088381
 20
-323.4035505156745
 10
190.978359088381
 20
-320.4035505156738
 10
196.9783590883812
 20
-320.4035505156738
 10
196.9783590883812
 20
-323.4035505156745
 10
202.9783590883808
 20
-323.4035505156745
 10
202.9783590883808
 20
-320.4035505156738
  0
LINE
  5
CF
330
84
100
AcDbEntity
  8
Layer 1
 62
    18
420
    65793
370
    25
100
AcDbLine
 10
109.4447611883812
 20
-323.4035505156745
 30
0.0
 11
118.978359088381
 21
-323.4035505156745
 31
0.0
  0
LINE
  5
D0
330
84
100
AcDbEntity
  8
Layer 1
 62
    18
420
    65793
370
    25
100
AcDbLine
 10
78.02883468838101
 20
-323.4035505156745
 30
0.0
 11
109.4447611883812
 21
-323.4035505156745
 31
0.0
  0
LINE
  5
D1
330
84
100
AcDbEntity
  8
Layer 1
 62
    18
420
    65793
370
    25
100
AcDbLine
 10
76.01637558838048
 20
-323.4035505156745
 30
0.0
 11
78.02883468838101
 21
-323.4035505156745
 31
0.0
  0
LWPOLYLINE
  5
D2
330
84
100
AcDbEntity
  8
Layer 1
 62
    18
420
    65793
370
    25
100
AcDbPolyline
 90
        4
 70
     1
 43
0.0
 10
208.978359088381
 20
-110.003550515674
 10
208.978359088381
 20
-113.0035505156741
 10
202.9783590883808
 20
-113.0035505156741
 10
202.9783590883808
 20
-110.003550515674
  0
LWPOLYLINE
  5
D3
330
84
100
AcDbEntity
  8
Layer 1
 62
    18
420
    65793
370
    25
100
AcDbPolyline
 90
        4
 70
     1
 43
0.0
 10
208.978359088381
 20
-162.6035505156742
 10
208.978359088381
 20
-165.6035505156741
 10
202.9783590883808
 20
-165.6035505156741
 10
202.9783590883808
 20
-162.6035505156742
  0
LWPOLYLINE
  5
D4
330
84
100
AcDbEntity
  8
Layer 1
 62
    18
420
    65793
370
    25
100
AcDbPolyline
 90
        4
 70
     1
 43
0.0
 10
208.978359088381
 20
-215.2035505156742
 10
208.978359088381
 20
-218.203550515674
 10
202.9783590883808
 20
-218.2035505156747
 10
202.9783590883808
 20
-215.2035505156742
  0
SPLINE
  5
D5
330
84
100
AcDbEntity
  8
Layer 1
 62
    18
420
    65793
370
    25
100
AcDbSpline
210
0.0
220
0.0
230
1.0
 70
    27
 71
     3
 72
    11
 73
     7
 74
     0
 42
0.0000000001
 43
0.0000000001
 40
0.0
 40
0.0
 40
0.0
 40
0.0
 40
1.0
 40
1.0
 40
1.0
 40
2.0
 40
2.0
 40
2.0
 40
2.0
 10
208.978359088381
 20
-267.8035505156745
 30
0.0
 10
208.978359088381
 20
-267.8035505156745
 30
0.0
 10
208.978359088381
 20
-270.8035505156739
 30
0.0
 10
208.978359088381
 20
-270.8035505156739
 30
0.0
 10
208.978359088381
 20
-270.8035505156739
 30
0.0
 10
208.978359088381
 20
-267.8035505156745
 30
0.0
 10
208.978359088381
 20
-267.8035505156745
 30
0.0
  0
LWPOLYLINE
  5
D6
330
84
100
AcDbEntity
  8
Layer 1
 62
    18
420
    65793
370
    25
100
AcDbPolyline
 90
        4
 70
     1
 43
0.0
 10
124.9783590883812
 20
-110.003550515674
 10
124.9783590883812
 20
-113.0035505156741
 10
118.978359088381
 20
-113.0035505156741
 10
118.978359088381
 20
-110.003550515674
  0
LWPOLYLINE
  5
D7
330
84
100
AcDbEntity
  8
Layer 1
 62
    18
420
    65793
370
    25
100
AcDbPolyline
 90
        4
 70
     1
 43
0.0
 10
130.9783590883808
 20
-110.003550515674
 10
130.9783590883808
 20
-113.0035505156741
 10
136.9783590883804
 20
-113.0035505156741
 10
136.978359088381
 20
-110.003550515674
  0
LWPOLYLINE
  5
D8
330
84
100
AcDbEntity
  8
Layer 1
 62
    18
420
    65793
370
    25
100
AcDbPolyline
 90
        4
 70
     1
 43
0.0
 10
142.9783590883806
 20
-110.003550515674
 10
142.9783590883806
 20
-113.0035505156741
 10
148.9783590883808
 20
-113.0035505156741
 10
148.9783590883808
 20
-110.003550515674
  0
LWPOLYLINE
  5
D9
330
84
100
AcDbEntity
  8
Layer 1
 62
    18
420
    65793
370
    25
100
AcDbPolyline
 90
        4
 70
     1
 43
0.0
 10
154.978359088381
 20
-110.003550515674
 10
154.978359088381
 20
-113.0035505156741
 10
160.9783590883812
 20
-113.0035505156741
 10
160.9783590883812
 20
-110.003550515674
  0
LWPOLYLINE
  5
DA
330
84
100
AcDbEntity
  8
Layer 1
 62
    18
420
    65793
370
    25
100
AcDbPolyline
 90
        4
 70
     1
 43
0.0
 10
166.9783590883808
 20
-110.003550515674
 10
166.9783590883808
 20
-113.0035505156741
 10
172.978359088381
 20
-113.0035505156741
 10
172.978359088381
 20
-110.003550515674
  0
LWPOLYLINE
  5
DB
330
84
100
AcDbEntity
  8
Layer 1
 62
    18
420
    65793
370
    25
100
AcDbPolyline
 90
        4
 70
     1
 43
0.0
 10
178.9783590883805
 20
-110.003550515674
 10
178.9783590883805
 20
-113.0035505156741
 10
184.9783590883808
 20
-113.0035505156741
 10
184.9783590883808
 20
-110.003550515674
  0
LWPOLYLINE
  5
DC
330
84
100
AcDbEntity
  8
Layer 1
 62
    18
420
    65793
370
    25
100
AcDbPolyline
 90
        4
 70
     1
 43
0.0
 10
190.978359088381
 20
-110.003550515674
 10
190.978359088381
 20
-113.0035505156741
 10
196.9783590883812
 20
-113.0035505156741
 10
196.9783590883812
 20
-110.003550515674
  0
LWPOLYLINE
  5
DD
330
84
100
AcDbEntity
  8
Layer 1
 62
    18
420
    65793
370
    25
100
AcDbPolyline
 90
        4
 70
     1
 43
0.0
 10
196.9783590883812
 20
-162.6035505156742
 10
196.9783590883812
 20
-165.6035505156741
 10
190.978359088381
 20
-165.6035505156741
 10
190.978359088381
 20
-162.6035505156742
  0
LWPOLYLINE
  5
DE
330
84
100
AcDbEntity
  8
Layer 1
 62
    18
420
    65793
370
    25
100
AcDbPolyline
 90
        4
 70
     1
 43
0.0
 10
184.9783590883808
 20
-162.6035505156742
 10
184.9783590883808
 20
-165.6035505156741
 10
178.9783590883805
 20
-165.6035505156741
 10
178.9783590883805
 20
-162.6035505156742
  0
LWPOLYLINE
  5
DF
330
84
100
AcDbEntity
  8
Layer 1
 62
    18
420
    65793
370
    25
100
AcDbPolyline
 90
        4
 70
     1
 43
0.0
 10
172.978359088381
 20
-162.6035505156742
 10
172.978359088381
 20
-165.6035505156741
 10
166.9783590883808
 20
-165.6035505156741
 10
166.9783590883808
 20
-162.6035505156742
  0
LWPOLYLINE
  5
E0
330
84
100
AcDbEntity
  8
Layer 1
 62
    18
420
    65793
370
    25
100
AcDbPolyline
 90
        4
 70
     1
 43
0.0
 10
160.9783590883812
 20
-162.6035505156742
 10
160.9783590883812
 20
-165.6035505156741
 10
154.978359088381
 20
-165.6035505156741
 10
154.978359088381
 20
-162.6035505156742
  0
LWPOLYLINE
  5
E1
330
84
100
AcDbEntity
  8
Layer 1
 62
    18
420
    65793
370
    25
100
AcDbPolyline
 90
        4
 70
     1
 43
0.0
 10
148.9783590883808
 20
-162.6035505156742
 10
148.9783590883808
 20
-165.6035505156741
 10
142.9783590883806
 20
-165.6035505156741
 10
142.9783590883806
 20
-162.6035505156742
  0
LWPOLYLINE
  5
E2
330
84
100
AcDbEntity
  8
Layer 1
 62
    18
420
    65793
370
    25
100
AcDbPolyline
 90
        4
 70
     1
 43
0.0
 10
136.978359088381
 20
-162.6035505156742
 10
136.978359088381
 20
-165.6035505156741
 10
130.9783590883808
 20
-165.6035505156741
 10
130.9783590883808
 20
-162.6035505156742
  0
LWPOLYLINE
  5
E3
330
84
100
AcDbEntity
  8
Layer 1
 62
    18
420
    65793
370
    25
100
AcDbPolyline
 90
        4
 70
     1
 43
0.0
 10
124.9783590883812
 20
-162.6035505156742
 10
124.9783590883812
 20
-165.6035505156741
 10
118.978359088381
 20
-165.6035505156741
 10
118.978359088381
 20
-162.6035505156742
  0
LWPOLYLINE
  5
E4
330
84
100
AcDbEntity
  8
Layer 1
 62
    18
420
    65793
370
    25
100
AcDbPolyline
 90
        4
 70
     1
 43
0.0
 10
118.978359088381
 20
-215.2035505156742
 10
118.978359088381
 20
-218.203550515674
 10
124.9783590883812
 20
-218.2035505156747
 10
124.9783590883812
 20
-215.2035505156742
  0
LWPOLYLINE
  5
E5
330
84
100
AcDbEntity
  8
Layer 1
 62
    18
420
    65793
370
    25
100
AcDbPolyline
 90
        4
 70
     1
 43
0.0
 10
124.9783590883812
 20
-267.8035505156745
 10
124.9783590883812
 20
-270.8035505156739
 10
119.0543920883804
 20
-270.8035505156739
 10
118.978359088381
 20
-267.8035505156745
  0
LWPOLYLINE
  5
E6
330
84
100
AcDbEntity
  8
Layer 1
 62
    18
420
    65793
370
    25
100
AcDbPolyline
 90
        4
 70
     1
 43
0.0
 10
130.9783590883808
 20
-215.2035505156742
 10
130.9783590883808
 20
-218.203550515674
 10
136.9783590883804
 20
-218.2035505156747
 10
136.978359088381
 20
-215.2035505156742
  0
LWPOLYLINE
  5
E7
330
84
100
AcDbEntity
  8
Layer 1
 62
    18
420
    65793
370
    25
100
AcDbPolyline
 90
        4
 70
     1
 43
0.0
 10
130.9783590883808
 20
-267.8035505156745
 10
130.9783590883808
 20
-270.8035505156739
 10
136.9783590883804
 20
-270.8035505156739
 10
136.978359088381
 20
-267.8035505156745
  0
LWPOLYLINE
  5
E8
330
84
100
AcDbEntity
  8
Layer 1
 62
    18
420
    65793
370
    25
100
AcDbPolyline
 90
        4
 70
     1
 43
0.0
 10
142.9783590883806
 20
-215.2035505156742
 10
142.9783590883806
 20
-218.203550515674
 10
148.9783590883808
 20
-218.2035505156747
 10
148.9783590883808
 20
-215.2035505156742
  0
LWPOLYLINE
  5
E9
330
84
100
AcDbEntity
  8
Layer 1
 62
    18
420
    65793
370
    25
100
AcDbPolyline
 90
        4
 70
     1
 43
0.0
 10
142.9783590883806
 20
-267.8035505156745
 10
142.9783590883806
 20
-270.8035505156739
 10
148.9783590883808
 20
-270.8035505156739
 10
148.9783590883808
 20
-267.8035505156745
  0
LWPOLYLINE
  5
EA
330
84
100
AcDbEntity
  8
Layer 1
 62
    18
420
    65793
370
    25
100
AcDbPolyline
 90
        4
 70
     1
 43
0.0
 10
154.978359088381
 20
-215.2035505156742
 10
154.978359088381
 20
-218.203550515674
 10
160.9783590883812
 20
-218.2035505156747
 10
160.9783590883812
 20
-215.2035505156742
  0
LWPOLYLINE
  5
EB
330
84
100
AcDbEntity
  8
Layer 1
 62
    18
420
    65793
370
    25
100
AcDbPolyline
 90
        4
 70
     1
 43
0.0
 10
154.978359088381
 20
-267.8035505156745
 10
154.978359088381
 20
-270.8035505156739
 10
160.9783590883812
 20
-270.8035505156739
 10
160.9783590883812
 20
-267.8035505156745
  0
LWPOLYLINE
  5
EC
330
84
100
AcDbEntity
  8
Layer 1
 62
    18
420
    65793
370
    25
100
AcDbPolyline
 90
        4
 70
     1
 43
0.0
 10
166.9783590883808
 20
-215.2035505156742
 10
166.9783590883808
 20
-218.203550515674
 10
172.978359088381
 20
-218.2035505156747
 10
172.978359088381
 20
-215.2035505156742
  0
LWPOLYLINE
  5
ED
330
84
100
AcDbEntity
  8
Layer 1
 62
    18
420
    65793
370
    25
100
AcDbPolyline
 90
        4
 70
     1
 43
0.0
 10
166.9783590883808
 20
-267.8035505156745
 10
166.9783590883808
 20
-270.8035505156739
 10
172.978359088381
 20
-270.8035505156739
 10
172.978359088381
 20
-267.8035505156745
  0
LWPOLYLINE
  5
EE
330
84
100
AcDbEntity
  8
Layer 1
 62
    18
420
    65793
370
    25
100
AcDbPolyline
 90
        4
 70
     1
 43
0.0
 10
178.9783590883805
 20
-215.2035505156742
 10
178.9783590883805
 20
-218.203550515674
 10
184.9783590883808
 20
-218.2035505156747
 10
184.9783590883808
 20
-215.2035505156742
  0
LWPOLYLINE
  5
EF
330
84
100
AcDbEntity
  8
Layer 1
 62
    18
420
    65793
370
    25
100
AcDbPolyline
 90
        4
 70
     1
 43
0.0
 10
178.9783590883805
 20
-267.8035505156745
 10
178.9783590883805
 20
-270.8035505156739
 10
184.9783590883808
 20
-270.8035505156739
 10
184.9783590883808
 20
-267.8035505156745
  0
LWPOLYLINE
  5
F0
330
84
100
AcDbEntity
  8
Layer 1
 62
    18
420
    65793
370
    25
100
AcDbPolyline
 90
        4
 70
     1
 43
0.0
 10
190.978359088381
 20
-215.2035505156742
 10
190.978359088381
 20
-218.203550515674
 10
196.9783590883812
 20
-218.2035505156747
 10
196.9783590883812
 20
-215.2035505156742
  0
LWPOLYLINE
  5
F1
330
84
100
AcDbEntity
  8
Layer 1
 62
    18
420
    65793
370
    25
100
AcDbPolyline
 90
        4
 70
     1
 43
0.0
 10
190.978359088381
 20
-267.8035505156745
 10
190.978359088381
 20
-270.8035505156739
 10
196.9783590883812
 20
-270.8035505156739
 10
196.9783590883812
 20
-267.8035505156745
  0
LINE
  5
F2
330
84
100
AcDbEntity
  8
Layer 1
 62
    18
420
    65793
370
    25
100
AcDbLine
 10
202.9783590883808
 20
-267.8035505156745
 30
0.0
 11
202.9783590883808
 21
-270.8035505156739
 31
0.0
  0
LINE
  5
F3
330
84
100
AcDbEntity
  8
Layer 1
 62
    18
420
    65793
370
    25
100
AcDbLine
 10
202.9783590883808
 20
-270.8035505156739
 30
0.0
 11
208.978359088381
 21
-270.8035505156739
 31
0.0
  0
LINE
  5
F4
330
84
100
AcDbEntity
  8
Layer 1
 62
    18
420
    65793
370
    25
100
AcDbLine
 10
208.978359088381
 20
-267.8035505156745
 30
0.0
 11
202.9783590883808
 21
-267.8035505156745
 31
0.0
  0
LWPOLYLINE
  5
F5
330
84
100
AcDbEntity
  8
Layer 1
 62
    18
420
    65793
370
    25
100
AcDbPolyline
 90
        4
 70
     1
 43
0.0
 10
255.9283425883809
 20
-110.003550515674
 10
252.9283425883808
 20
-110.003550515674
 10
252.9283425883808
 20
-113.0035505156741
 10
255.9283425883809
 20
-113.0035505156741
  0
LWPOLYLINE
  5
F6
330
84
100
AcDbEntity
  8
Layer 1
 62
    18
420
    65793
370
    25
100
AcDbPolyline
 90
        4
 70
     1
 43
0.0
 10
255.9283425883809
 20
-162.6035505156742
 10
252.9283425883808
 20
-162.6035505156742
 10
252.9283425883808
 20
-165.6035505156741
 10
255.9283425883809
 20
-165.6035505156741
  0
LWPOLYLINE
  5
F7
330
84
100
AcDbEntity
  8
Layer 1
 62
    18
420
    65793
370
    25
100
AcDbPolyline
 90
        4
 70
     1
 43
0.0
 10
255.9283425883809
 20
-215.2035505156742
 10
252.9283425883808
 20
-215.2035505156742
 10
252.9283425883808
 20
-218.203550515674
 10
255.9283425883809
 20
-218.2035505156747
  0
LWPOLYLINE
  5
F8
330
84
100
AcDbEntity
  8
Layer 1
 62
    18
420
    65793
370
    25
100
AcDbPolyline
 90
        4
 70
     1
 43
0.0
 10
255.9283425883809
 20
-267.8035505156745
 10
252.9283425883808
 20
-267.8035505156745
 10
252.9283425883808
 20
-270.8035505156739
 10
255.9283425883809
 20
-270.8035505156739
  0
LINE
  5
F9
330
84
100
AcDbEntity
  8
Layer 1
 62
    18
420
    65793
370
    25
100
AcDbLine
 10
69.02835908838103
 20
-323.4035505156745
 30
0.0
 11
72.02835908838081
 21
-323.4035505156745
 31
0.0
  0
LWPOLYLINE
  5
FA
330
84
100
AcDbEntity
  8
Layer 1
 62
    18
420
    65793
370
    25
100
AcDbPolyline
 90
        4
 70
     1
 43
0.0
 10
72.02835908838081
 20
-110.003550515674
 10
75.02835908838091
 20
-110.0035505156746
 10
75.02835908838091
 20
-113.0035505156741
 10
72.02835908838081
 20
-113.0035505156741
  0
LWPOLYLINE
  5
FB
330
84
100
AcDbEntity
  8
Layer 1
 62
    18
420
    65793
370
    25
100
AcDbPolyline
 90
        4
 70
     1
 43
0.0
 10
72.02835908838081
 20
-162.6035505156742
 10
75.02835908838091
 20
-162.6035505156742
 10
75.02835908838091
 20
-165.6035505156741
 10
72.02835908838081
 20
-165.6035505156741
  0
LWPOLYLINE
  5
FC
330
84
100
AcDbEntity
  8
Layer 1
 62
    18
420
    65793
370
    25
100
AcDbPolyline
 90
        4
 70
     1
 43
0.0
 10
72.02835908838081
 20
-215.2035505156742
 10
75.02835908838091
 20
-215.2035505156742
 10
75.02835908838091
 20
-218.2035505156747
 10
72.02835908838081
 20
-218.2035505156747
  0
LWPOLYLINE
  5
FD
330
84
100
AcDbEntity
  8
Layer 1
 62
    18
420
    65793
370
    25
100
AcDbPolyline
 90
        4
 70
     1
 43
0.0
 10
72.02835908838081
 20
-267.8035505156745
 10
75.02835908838091
 20
-267.8035505156745
 10
75.02835908838091
 20
-270.8035505156739
 10
72.02835908838081
 20
-270.8035505156739
  0
LINE
  5
FE
330
84
100
AcDbEntity
  8
Layer 1
 62
    18
420
    65793
370
    25
100
AcDbLine
 10
250.084558388381
 20
-323.4035505156745
 30
0.0
 11
250.084558388381
 21
-261.5035505156746
 31
0.0
  0
LINE
  5
FF
330
84
100
AcDbEntity
  8
Layer 1
 62
    18
420
    65793
370
    25
100
AcDbLine
 10
250.084558388381
 20
-221.3535505156743
 30
0.0
 11
250.084558388381
 21
-159.4535505156746
 31
0.0
  0
LINE
  5
100
330
84
100
AcDbEntity
  8
Layer 1
 62
    18
420
    65793
370
    25
100
AcDbLine
 10
250.084558388381
 20
-119.303550515674
 30
0.0
 11
250.084558388381
 21
-57.40355051567409
 31
0.0
  0
LINE
  5
101
330
84
100
AcDbEntity
  8
Layer 1
 62
    18
420
    65793
370
    25
100
AcDbLine
 10
109.6014359883807
 20
-119.303550515674
 30
0.0
 11
109.6014359883807
 21
-57.40355051567409
 31
0.0
  0
LINE
  5
102
330
84
100
AcDbEntity
  8
Layer 1
 62
    18
420
    65793
370
    25
100
AcDbLine
 10
109.6014359883807
 20
-221.3535505156743
 30
0.0
 11
109.6014359883807
 21
-159.4535505156746
 31
0.0
  0
LINE
  5
103
330
84
100
AcDbEntity
  8
Layer 1
 62
    18
420
    65793
370
    25
100
AcDbLine
 10
109.6014359883807
 20
-323.4035505156745
 30
0.0
 11
109.6014359883807
 21
-261.5035505156746
 31
0.0
  0
ENDBLK
  5
87
330
84
100
AcDbEntity
  8
0
100
AcDbBlockEnd
  0
BLOCK
  5
106
330
104
100
AcDbEntity
  8
0
100
AcDbBlockBegin
  2
Block_2
 70
     0
 10
0.0
 20
0.0
 30
0.0
  3
Block_2
  1

  0
LINE
  5
108
330
104
100
AcDbEntity
  8
Layer 1
 62
    18
420
    65793
370
    25
100
AcDbLine
 10
462.3156927158661
 20
-56.25666281850632
 30
0.0
 11
462.3156927158661
 21
-45.25666281850625
 31
0.0
  0
LINE
  5
109
330
104
100
AcDbEntity
  8
Layer 1
 62
    18
420
    65793
370
    25
100
AcDbLine
 10
477.4281544158638
 20
-48.00666281850619
 30
0.0
 11
477.4281544158638
 21
-37.00666281850645
 31
0.0
  0
LINE
  5
10A
330
104
100
AcDbEntity
  8
Layer 1
 62
    18
420
    65793
370
    25
100
AcDbLine
 10
465.3381850158651
 20
-64.50666281850645
 30
0.0
 11
465.3381850158651
 21
-53.50666281850639
 31
0.0
  0
LINE
  5
10B
330
104
100
AcDbEntity
  8
Layer 1
 62
    18
420
    65793
370
    25
100
AcDbLine
 10
462.3156927158661
 20
-81.0066628185064
 30
0.0
 11
462.3156927158661
 21
-78.25666281850645
 31
0.0
  0
LINE
  5
10C
330
104
100
AcDbEntity
  8
Layer 1
 62
    18
420
    65793
370
    25
100
AcDbLine
 10
477.4281544158638
 20
-64.50666281850645
 30
0.0
 11
477.4281544158638
 21
-53.50666281850639
 31
0.0
  0
LINE
  5
10D
330
104
100
AcDbEntity
  8
Layer 1
 62
    18
420
    65793
370
    25
100
AcDbLine
 10
465.3381850158651
 20
-48.00666281850619
 30
0.0
 11
465.3381850158651
 21
-37.00666281850645
 31
0.0
  0
LINE
  5
10E
330
104
100
AcDbEntity
  8
Layer 1
 62
    18
420
    65793
370
    25
100
AcDbLine
 10
459.2932003158654
 20
-48.00666281850619
 30
0.0
 11
459.2932003158654
 21
-37.00666281850645
 31
0.0
  0
LINE
  5
10F
330
104
100
AcDbEntity
  8
Layer 1
 62
    18
420
    65793
370
    25
100
AcDbLine
 10
471.3831697158641
 20
-48.00666281850619
 30
0.0
 11
471.3831697158641
 21
-37.00666281850645
 31
0.0
  0
LINE
  5
110
330
104
100
AcDbEntity
  8
Layer 1
 62
    18
420
    65793
370
    25
100
AcDbLine
 10
474.4056621158649
 20
-39.75666281850639
 30
0.0
 11
474.4056621158649
 21
-37.00666281850645
 31
0.0
  0
LINE
  5
111
330
104
100
AcDbEntity
  8
Layer 1
 62
    18
420
    65793
370
    25
100
AcDbLine
 10
468.3606774158652
 20
-81.0066628185064
 30
0.0
 11
468.3606774158652
 21
-78.25666281850645
 31
0.0
  0
LINE
  5
112
330
104
100
AcDbEntity
  8
Layer 1
 62
    18
420
    65793
370
    25
100
AcDbLine
 10
468.3606774158652
 20
-56.25666281850632
 30
0.0
 11
468.3606774158652
 21
-45.25666281850625
 31
0.0
  0
LINE
  5
113
330
104
100
AcDbEntity
  8
Layer 1
 62
    18
420
    65793
370
    25
100
AcDbLine
 10
471.3831697158641
 20
-81.0066628185064
 30
0.0
 11
471.3831697158641
 21
-70.00666281850633
 31
0.0
  0
LINE
  5
114
330
104
100
AcDbEntity
  8
Layer 1
 62
    18
420
    65793
370
    25
100
AcDbLine
 10
468.3606774158652
 20
-72.75666281850627
 30
0.0
 11
468.3606774158652
 21
-61.7566628185062
 31
0.0
  0
LINE
  5
115
330
104
100
AcDbEntity
  8
Layer 1
 62
    18
420
    65793
370
    25
100
AcDbLine
 10
468.3606774158652
 20
-39.75666281850639
 30
0.0
 11
468.3606774158652
 21
-37.00666281850645
 31
0.0
  0
LINE
  5
116
330
104
100
AcDbEntity
  8
Layer 1
 62
    18
420
    65793
370
    25
100
AcDbLine
 10
477.4281544158638
 20
-81.0066628185064
 30
0.0
 11
477.4281544158638
 21
-70.00666281850633
 31
0.0
  0
LINE
  5
117
330
104
100
AcDbEntity
  8
Layer 1
 62
    18
420
    65793
370
    25
100
AcDbLine
 10
444.180738615864
 20
-56.25666281850632
 30
0.0
 11
444.180738615864
 21
-45.25666281850625
 31
0.0
  0
LINE
  5
118
330
104
100
AcDbEntity
  8
Layer 1
 62
    18
420
    65793
370
    25
100
AcDbLine
 10
450.2257233158636
 20
-72.75666281850627
 30
0.0
 11
450.2257233158636
 21
-61.7566628185062
 31
0.0
  0
LINE
  5
119
330
104
100
AcDbEntity
  8
Layer 1
 62
    18
420
    65793
370
    25
100
AcDbLine
 10
456.2707080158626
 20
-72.75666281850627
 30
0.0
 11
456.2707080158626
 21
-61.7566628185062
 31
0.0
  0
LINE
  5
11A
330
104
100
AcDbEntity
  8
Layer 1
 62
    18
420
    65793
370
    25
100
AcDbLine
 10
450.2257233158636
 20
-56.25666281850632
 30
0.0
 11
450.2257233158636
 21
-45.25666281850625
 31
0.0
  0
LINE
  5
11B
330
104
100
AcDbEntity
  8
Layer 1
 62
    18
420
    65793
370
    25
100
AcDbLine
 10
471.3831697158641
 20
-64.50666281850645
 30
0.0
 11
471.3831697158641
 21
-53.50666281850639
 31
0.0
  0
LINE
  5
11C
330
104
100
AcDbEntity
  8
Layer 1
 62
    18
420
    65793
370
    25
100
AcDbLine
 10
453.2482156158657
 20
-81.0066628185064
 30
0.0
 11
453.2482156158657
 21
-70.00666281850633
 31
0.0
  0
LINE
  5
11D
330
104
100
AcDbEntity
  8
Layer 1
 62
    18
420
    65793
370
    25
100
AcDbLine
 10
456.2707080158626
 20
-81.0066628185064
 30
0.0
 11
456.2707080158626
 21
-78.25666281850645
 31
0.0
  0
LINE
  5
11E
330
104
100
AcDbEntity
  8
Layer 1
 62
    18
420
    65793
370
    25
100
AcDbLine
 10
465.3381850158651
 20
-81.0066628185064
 30
0.0
 11
465.3381850158651
 21
-70.00666281850633
 31
0.0
  0
LINE
  5
11F
330
104
100
AcDbEntity
  8
Layer 1
 62
    18
420
    65793
370
    25
100
AcDbLine
 10
474.4056621158649
 20
-81.0066628185064
 30
0.0
 11
474.4056621158649
 21
-78.25666281850645
 31
0.0
  0
LINE
  5
120
330
104
100
AcDbEntity
  8
Layer 1
 62
    18
420
    65793
370
    25
100
AcDbLine
 10
474.4056621158649
 20
-56.25666281850632
 30
0.0
 11
474.4056621158649
 21
-45.25666281850625
 31
0.0
  0
LINE
  5
121
330
104
100
AcDbEntity
  8
Layer 1
 62
    18
420
    65793
370
    25
100
AcDbLine
 10
474.4056621158649
 20
-72.75666281850627
 30
0.0
 11
474.4056621158649
 21
-61.7566628185062
 31
0.0
  0
LINE
  5
122
330
104
100
AcDbEntity
  8
Layer 1
 62
    18
420
    65793
370
    25
100
AcDbLine
 10
462.3156927158661
 20
-39.75666281850639
 30
0.0
 11
462.3156927158661
 21
-37.00666281850645
 31
0.0
  0
LINE
  5
123
330
104
100
AcDbEntity
  8
Layer 1
 62
    18
420
    65793
370
    25
100
AcDbLine
 10
462.3156927158661
 20
-72.75666281850627
 30
0.0
 11
462.3156927158661
 21
-61.7566628185062
 31
0.0
  0
LINE
  5
124
330
104
100
AcDbEntity
  8
Layer 1
 62
    18
420
    65793
370
    25
100
AcDbLine
 10
456.2707080158626
 20
-39.75666281850639
 30
0.0
 11
456.2707080158626
 21
-37.00666281850645
 31
0.0
  0
LINE
  5
125
330
104
100
AcDbEntity
  8
Layer 1
 62
    18
420
    65793
370
    25
100
AcDbLine
 10
441.1582462158632
 20
-81.0066628185064
 30
0.0
 11
441.1582462158632
 21
-70.00666281850633
 31
0.0
  0
LINE
  5
126
330
104
100
AcDbEntity
  8
Layer 1
 62
    18
420
    65793
370
    25
100
AcDbLine
 10
450.2257233158636
 20
-81.0066628185064
 30
0.0
 11
450.2257233158636
 21
-78.25666281850645
 31
0.0
  0
LINE
  5
127
330
104
100
AcDbEntity
  8
Layer 1
 62
    18
420
    65793
370
    25
100
AcDbLine
 10
447.2032309158628
 20
-81.0066628185064
 30
0.0
 11
447.2032309158628
 21
-70.00666281850633
 31
0.0
  0
LINE
  5
128
330
104
100
AcDbEntity
  8
Layer 1
 62
    18
420
    65793
370
    25
100
AcDbLine
 10
450.2257233158636
 20
-39.75666281850639
 30
0.0
 11
450.2257233158636
 21
-37.00666281850645
 31
0.0
  0
LINE
  5
129
330
104
100
AcDbEntity
  8
Layer 1
 62
    18
420
    65793
370
    25
100
AcDbLine
 10
459.2932003158654
 20
-64.50666281850645
 30
0.0
 11
459.2932003158654
 21
-53.50666281850639
 31
0.0
  0
LINE
  5
12A
330
104
100
AcDbEntity
  8
Layer 1
 62
    18
420
    65793
370
    25
100
AcDbLine
 10
441.1582462158632
 20
-48.00666281850619
 30
0.0
 11
441.1582462158632
 21
-37.00666281850645
 31
0.0
  0
LINE
  5
12B
330
104
100
AcDbEntity
  8
Layer 1
 62
    18
420
    65793
370
    25
100
AcDbLine
 10
456.2707080158626
 20
-56.25666281850632
 30
0.0
 11
456.2707080158626
 21
-45.25666281850625
 31
0.0
  0
LINE
  5
12C
330
104
100
AcDbEntity
  8
Layer 1
 62
    18
420
    65793
370
    25
100
AcDbLine
 10
444.180738615864
 20
-81.0066628185064
 30
0.0
 11
444.180738615864
 21
-78.25666281850645
 31
0.0
  0
LINE
  5
12D
330
104
100
AcDbEntity
  8
Layer 1
 62
    18
420
    65793
370
    25
100
AcDbLine
 10
453.2482156158657
 20
-48.00666281850619
 30
0.0
 11
453.2482156158657
 21
-37.00666281850645
 31
0.0
  0
LINE
  5
12E
330
104
100
AcDbEntity
  8
Layer 1
 62
    18
420
    65793
370
    25
100
AcDbLine
 10
441.1582462158632
 20
-64.50666281850645
 30
0.0
 11
441.1582462158632
 21
-53.50666281850639
 31
0.0
  0
LINE
  5
12F
330
104
100
AcDbEntity
  8
Layer 1
 62
    18
420
    65793
370
    25
100
AcDbLine
 10
444.180738615864
 20
-39.75666281850639
 30
0.0
 11
444.180738615864
 21
-37.00666281850645
 31
0.0
  0
LINE
  5
130
330
104
100
AcDbEntity
  8
Layer 1
 62
    18
420
    65793
370
    25
100
AcDbLine
 10
453.2482156158657
 20
-64.50666281850645
 30
0.0
 11
453.2482156158657
 21
-53.50666281850639
 31
0.0
  0
LINE
  5
131
330
104
100
AcDbEntity
  8
Layer 1
 62
    18
420
    65793
370
    25
100
AcDbLine
 10
459.2932003158654
 20
-81.0066628185064
 30
0.0
 11
459.2932003158654
 21
-70.00666281850633
 31
0.0
  0
LINE
  5
132
330
104
100
AcDbEntity
  8
Layer 1
 62
    18
420
    65793
370
    25
100
AcDbLine
 10
447.2032309158628
 20
-48.00666281850619
 30
0.0
 11
447.2032309158628
 21
-37.00666281850645
 31
0.0
  0
LINE
  5
133
330
104
100
AcDbEntity
  8
Layer 1
 62
    18
420
    65793
370
    25
100
AcDbLine
 10
444.180738615864
 20
-72.75666281850627
 30
0.0
 11
444.180738615864
 21
-61.7566628185062
 31
0.0
  0
LINE
  5
134
330
104
100
AcDbEntity
  8
Layer 1
 62
    18
420
    65793
370
    25
100
AcDbLine
 10
447.2032309158628
 20
-64.50666281850645
 30
0.0
 11
447.2032309158628
 21
-53.50666281850639
 31
0.0
  0
LWPOLYLINE
  5
135
330
104
100
AcDbEntity
  8
Layer 1
 62
    18
420
    65793
370
    25
100
AcDbPolyline
 90
      106
 70
     1
 43
0.0
 10
508.4278313158662
 20
-40.00666281850622
 10
502.4278313158622
 20
-40.00666281850622
 10
502.4278313158622
 20
-37.00666281850645
 10
496.4278313158659
 20
-37.00666281850645
 10
496.4278313158659
 20
-40.00666281850622
 10
490.4278313158663
 20
-40.00666281850622
 10
490.4278313158663
 20
-37.00666281850645
 10
480.4281544158639
 20
-37.00666281850645
 10
441.1582462158632
 20
-37.00666281850645
 10
432.1584176158638
 20
-37.00666281850645
 10
432.1584176158638
 20
-40.00666281850622
 10
426.1584176158637
 20
-40.00666281850622
 10
426.1584176158637
 20
-37.00666281850645
 10
420.158417615864
 20
-37.00666281850645
 10
420.158417615864
 20
-40.00666281850622
 10
417.1584176158639
 20
-40.00666281850622
 10
417.1584176158639
 20
-78.00666281850628
 10
420.158417615864
 20
-78.00666281850628
 10
420.158417615864
 20
-81.0066628185064
 10
426.1584176158637
 20
-81.0066628185064
 10
426.1584176158637
 20
-78.00666281850628
 10
432.1584176158638
 20
-78.00666281850628
 10
432.1584176158638
 20
-81.0066628185064
 10
438.1584176158634
 20
-81.0066628185064
 10
441.1582462158632
 20
-81.0066628185064
 10
480.4281544158639
 20
-81.0066628185064
 10
490.4278313158663
 20
-81.0066628185064
 10
490.4278313158663
 20
-78.00666281850628
 10
496.4278313158659
 20
-78.00666281850628
 10
496.4278313158659
 20
-81.0066628185064
 10
502.4278313158622
 20
-81.0066628185064
 10
502.4278313158622
 20
-78.00666281850628
 10
508.4278313158662
 20
-78.00666281850628
 10
508.4278313158662
 20
-81.0066628185064
 10
514.4278313158658
 20
-81.0066628185064
 10
514.4278313158658
 20
-78.00666281850628
 10
520.4278313158661
 20
-78.00666281850628
 10
520.4278313158661
 20
-81.0066628185064
 10
526.4278313158663
 20
-81.0066628185064
 10
526.4278313158663
 20
-78.00666281850628
 10
532.4278313158658
 20
-78.00666281850628
 10
532.4278313158658
 20
-81.0066628185064
 10
538.4278313158628
 20
-81.0066628185064
 10
538.4278313158628
 20
-78.00666281850628
 10
544.4278313158662
 20
-78.00666281850628
 10
544.4278313158662
 20
-81.0066628185064
 10
550.4278313158659
 20
-81.0066628185064
 10
550.4278313158659
 20
-78.00666281850628
 10
556.4278313158661
 20
-78.00666281850628
 10
556.4278313158661
 20
-81.0066628185064
 10
562.4278313158662
 20
-81.0066628185064
 10
562.4278313158662
 20
-78.00666281850628
 10
568.4278313158626
 20
-78.00666281850628
 10
568.4278313158626
 20
-81.0066628185064
 10
574.4278313158628
 20
-81.0066628185064
 10
574.4278313158628
 20
-78.00666281850628
 10
580.4278313158662
 20
-78.00666281850628
 10
580.4278313158662
 20
-81.0066628185064
 10
586.4278313158658
 20
-81.0066628185064
 10
586.4278313158658
 20
-78.00666281850628
 10
592.427831315866
 20
-78.00666281850628
 10
592.427831315866
 20
-81.0066628185064
 10
598.4278313158662
 20
-81.0066628185064
 10
598.4278313158662
 20
-78.00666281850628
 10
604.4278313158626
 20
-78.00666281850628
 10
604.4278313158626
 20
-81.0066628185064
 10
607.4278313158658
 20
-81.0066628185064
 10
607.4278313158658
 20
-65.00631828566362
 10
610.4278313158628
 20
-65.00631828566362
 10
610.4278313158628
 20
-59.00666281850625
 10
610.4278313158628
 20
-53.0063181068496
 10
607.4278313158658
 20
-53.0063181068496
 10
607.4278313158658
 20
-37.00666281850645
 10
604.4278313158626
 20
-37.00666281850645
 10
604.4278313158626
 20
-40.00666281850622
 10
598.4278313158662
 20
-40.00666281850622
 10
598.4278313158662
 20
-37.00666281850645
 10
592.427831315866
 20
-37.00666281850645
 10
592.427831315866
 20
-40.00666281850622
 10
586.4278313158658
 20
-40.00666281850622
 10
586.4278313158658
 20
-37.00666281850645
 10
580.4278313158662
 20
-37.00666281850645
 10
580.4278313158662
 20
-40.00666281850622
 10
574.4278313158628
 20
-40.00666281850622
 10
574.4278313158628
 20
-37.00666281850645
 10
568.4278313158626
 20
-37.00666281850645
 10
568.4278313158626
 20
-40.00666281850622
 10
562.4278313158662
 20
-40.00666281850622
 10
562.4278313158662
 20
-37.00666281850645
 10
556.4278313158661
 20
-37.00666281850645
 10
556.4278313158661
 20
-40.00666281850622
 10
550.4278313158659
 20
-40.00666281850622
 10
550.4278313158659
 20
-37.00666281850645
 10
544.4278313158662
 20
-37.00666281850645
 10
544.4278313158662
 20
-40.00666281850622
 10
538.4278313158628
 20
-40.00666281850622
 10
538.4278313158628
 20
-37.00666281850645
 10
532.4278313158658
 20
-37.00666281850645
 10
532.4278313158658
 20
-40.00666281850622
 10
526.4278313158663
 20
-40.00666281850622
 10
526.4278313158663
 20
-37.00666281850645
 10
520.4278313158661
 20
-37.00666281850645
 10
520.4278313158661
 20
-40.00666281850622
 10
514.4278313158658
 20
-40.00666281850622
 10
514.4278313158658
 20
-37.00666281850645
 10
508.4278313158662
 20
-37.00666281850645
  0
ENDBLK
  5
107
330
104
100
AcDbEntity
  8
0
100
AcDbBlockEnd
  0
BLOCK
  5
138
330
136
100
AcDbEntity
  8
0
100
AcDbBlockBegin
  2
Block_3
 70
     0
 10
0.0
 20
0.0
 30
0.0
  3
Block_3
  1

  0
LWPOLYLINE
  5
13A
330
136
100
AcDbEntity
  8
Layer 1
 62
    18
420
    65793
370
    25
100
AcDbPolyline
 90
       80
 70
     1
 43
0.0
 10
543.1057886069829
 20
-186.0004382128414
 10
549.1057886069832
 20
-186.0004382128414
 10
549.1057886069832
 20
-189.0004382128415
 10
555.1057886069834
 20
-189.0004382128415
 10
555.1057886069834
 20
-186.0004382128414
 10
561.1057886069829
 20
-186.0004382128414
 10
561.1057886069829
 20
-189.0004382128415
 10
567.1057886069831
 20
-189.0004382128415
 10
567.1057886069831
 20
-186.0004382128414
 10
573.6056270069834
 20
-186.0004382128414
 10
573.6059502069832
 20
-179.0004380638296
 10
573.6059502069832
 20
-173.0004379744228
 10
570.6066033360249
 20
-173.0004379744228
 10
570.6066033360249
 20
-167.000609612841
 10
573.6059502069832
 20
-167.000609612841
 10
573.6059502069832
 20
-161.0006096128418
 10
570.6059502069831
 20
-161.0006096128418
 10
570.6059502069831
 20
-155.0006096128413
 10
573.6059502069832
 20
-155.0006096128413
 10
573.6059502069832
 20
-149.0006096128411
 10
570.6059502069831
 20
-149.0006096128411
 10
570.6059502069831
 20
-143.0006096128418
 10
573.6059502069832
 20
-143.0006096128418
 10
573.6059502069832
 20
-137.0006096128413
 10
418.6059502069829
 20
-137.0006096128413
 10
418.6059502069829
 20
-140.0006096128414
 10
421.605950206983
 20
-140.0006096128414
 10
421.605950206983
 20
-146.000609612841
 10
418.6059502069829
 20
-146.000609612841
 10
418.6059502069829
 20
-152.0006096128412
 10
421.605950206983
 20
-152.0006096128412
 10
421.605950206983
 20
-158.0006096128414
 10
421.605950206983
 20
-161.0004382128412
 10
421.730846006986
 20
-163.496273612841
 10
422.1042857069854
 20
-165.9671715128409
 10
422.722537906983
 20
-168.388443412841
 10
423.5794253069838
 20
-170.7358968128412
 10
424.6663861069837
 20
-172.9860767128412
 10
425.972559806983
 20
-175.1165000128414
 10
427.484895506986
 20
-177.1058804128415
 10
429.1882824069822
 20
-178.9343405128412
 10
431.0657010069835
 20
-180.5836109128415
 10
433.0983925069831
 20
-182.0372128128416
 10
435.2660471069845
 20
-183.2806222128412
 10
437.5470063069826
 20
-184.3014153128416
 10
439.9184794069832
 20
-185.0893928128415
 10
442.356771606985
 20
-185.636681412841
 10
444.8375201069836
 20
-185.9378129128415
 10
446.6059502069832
 20
-186.0004382128414
 10
453.1057886069829
 20
-186.0004382128414
 10
453.1057886069829
 20
-189.0004382128415
 10
459.1057886069831
 20
-189.0004382128415
 10
459.1057886069831
 20
-186.0004382128414
 10
465.1057886069834
 20
-186.0004382128414
 10
465.1057886069834
 20
-189.0004382128415
 10
471.105788606983
 20
-189.0004382128415
 10
471.105788606983
 20
-186.0004382128414
 10
477.1057886069832
 20
-186.0004382128414
 10
477.1057886069832
 20
-189.0004382128415
 10
483.1057886069834
 20
-189.0004382128415
 10
483.1057886069834
 20
-186.0004382128414
 10
489.1057886069829
 20
-186.0004382128414
 10
489.1057886069829
 20
-189.0004382128415
 10
495.1057886069832
 20
-189.0004382128415
 10
495.1057886069832
 20
-186.0004382128414
 10
501.1057886069833
 20
-186.0004382128414
 10
501.1057886069833
 20
-189.0004382128415
 10
507.1057886069829
 20
-189.0004382128415
 10
507.1057886069829
 20
-186.0004382128414
 10
513.1057886069831
 20
-186.0004382128414
 10
513.1057886069831
 20
-189.0004382128415
 10
519.1057886069834
 20
-189.0004382128415
 10
519.1057886069834
 20
-186.0004382128414
 10
525.1057886069829
 20
-186.0004382128414
 10
525.1057886069829
 20
-189.0004382128415
 10
531.1057886069831
 20
-189.0004382128415
 10
531.1057886069831
 20
-186.0004382128414
 10
537.1057886069833
 20
-186.0004382128414
 10
537.1057886069833
 20
-189.0004382128415
 10
543.1057886069829
 20
-189.0004382128415
  0
LINE
  5
13B
330
136
100
AcDbEntity
  8
Layer 1
 62
    18
420
    65793
370
    25
100
AcDbLine
 10
614.6059502069828
 20
-143.0006096128418
 30
0.0
 11
611.6066039469727
 21
-143.0006096128418
 31
0.0
  0
LINE
  5
13C
330
136
100
AcDbEntity
  8
Layer 1
 62
    18
420
    65793
370
    25
100
AcDbLine
 10
611.6066039469727
 20
-143.0006096128418
 30
0.0
 11
611.6066039469727
 21
-137.000437437981
 31
0.0
  0
LINE
  5
13D
330
136
100
AcDbEntity
  8
Layer 1
 62
    18
420
    65793
370
    25
100
AcDbLine
 10
614.6059502069828
 20
-143.0006096128418
 30
0.0
 11
614.6059502069828
 21
-149.0004376167947
 31
0.0
  0
LINE
  5
13E
330
136
100
AcDbEntity
  8
Layer 1
 62
    18
420
    65793
370
    25
100
AcDbLine
 10
614.6059502069828
 20
-149.0004376167947
 30
0.0
 11
611.6066039469727
 21
-149.0004376167947
 31
0.0
  0
LINE
  5
13F
330
136
100
AcDbEntity
  8
Layer 1
 62
    18
420
    65793
370
    25
100
AcDbLine
 10
611.6066039469727
 20
-149.0004376167947
 30
0.0
 11
611.6066039469727
 21
-155.0004377062015
 31
0.0
  0
LINE
  5
140
330
136
100
AcDbEntity
  8
Layer 1
 62
    18
420
    65793
370
    25
100
AcDbLine
 10
611.6066039469727
 20
-155.0004377062015
 30
0.0
 11
614.6059502069828
 21
-155.0004377062015
 31
0.0
  0
LINE
  5
141
330
136
100
AcDbEntity
  8
Layer 1
 62
    18
420
    65793
370
    25
100
AcDbLine
 10
614.6059502069828
 20
-155.0004377062015
 30
0.0
 11
614.6059502069828
 21
-161.0004377956091
 31
0.0
  0
LINE
  5
142
330
136
100
AcDbEntity
  8
Layer 1
 62
    18
420
    65793
370
    25
100
AcDbLine
 10
614.6059502069828
 20
-161.0004377956091
 30
0.0
 11
611.6066039469727
 21
-161.0004377956091
 31
0.0
  0
LINE
  5
143
330
136
100
AcDbEntity
  8
Layer 1
 62
    18
420
    65793
370
    25
100
AcDbLine
 10
611.6066039469727
 20
-161.0004377956091
 30
0.0
 11
611.6066039469727
 21
-167.0004378850159
 31
0.0
  0
LINE
  5
144
330
136
100
AcDbEntity
  8
Layer 1
 62
    18
420
    65793
370
    25
100
AcDbLine
 10
611.6066039469727
 20
-167.0004378850159
 30
0.0
 11
614.6059502069828
 21
-167.0004378850159
 31
0.0
  0
LINE
  5
145
330
136
100
AcDbEntity
  8
Layer 1
 62
    18
420
    65793
370
    25
100
AcDbLine
 10
614.6059502069828
 20
-167.0004378850159
 30
0.0
 11
614.6059502069828
 21
-173.0004379744228
 31
0.0
  0
LINE
  5
146
330
136
100
AcDbEntity
  8
Layer 1
 62
    18
420
    65793
370
    25
100
AcDbLine
 10
614.6059502069828
 20
-173.0004379744228
 30
0.0
 11
611.6066039469727
 21
-173.0004379744228
 31
0.0
  0
LINE
  5
147
330
136
100
AcDbEntity
  8
Layer 1
 62
    18
420
    65793
370
    25
100
AcDbLine
 10
611.6066039469727
 20
-173.0004379744228
 30
0.0
 11
611.6066039469727
 21
-186.0004381681381
 31
0.0
  0
LINE
  5
148
330
136
100
AcDbEntity
  8
Layer 1
 62
    18
420
    65793
370
    25
100
AcDbLine
 10
570.3557078069829
 20
-186.0004382128414
 30
0.0
 11
570.3557078069829
 21
-189.0004382128415
 31
0.0
  0
LINE
  5
149
330
136
100
AcDbEntity
  8
Layer 1
 62
    18
420
    65793
370
    25
100
AcDbLine
 10
611.6066039469727
 20
-186.0004381681381
 30
0.0
 11
614.606603991676
 21
-186.0004381681381
 31
0.0
  0
LINE
  5
14A
330
136
100
AcDbEntity
  8
Layer 1
 62
    18
420
    65793
370
    25
100
AcDbLine
 10
614.606603991676
 20
-186.0004381681381
 30
0.0
 11
614.606603991676
 21
-189.0004382128415
 31
0.0
  0
LINE
  5
14B
330
136
100
AcDbEntity
  8
Layer 1
 62
    18
420
    65793
370
    25
100
AcDbLine
 10
598.48115589933
 20
-189.0004382128415
 30
0.0
 11
598.48115589933
 21
-186.0004381681381
 31
0.0
  0
LINE
  5
14C
330
136
100
AcDbEntity
  8
Layer 1
 62
    18
420
    65793
370
    25
100
AcDbLine
 10
598.48115589933
 20
-186.0004381681381
 30
0.0
 11
586.4811558993296
 21
-186.0004381681381
 31
0.0
  0
LINE
  5
14D
330
136
100
AcDbEntity
  8
Layer 1
 62
    18
420
    65793
370
    25
100
AcDbLine
 10
586.4811558993296
 20
-186.0004381681381
 30
0.0
 11
586.4811558993296
 21
-189.0004382128415
 31
0.0
  0
LINE
  5
14E
330
136
100
AcDbEntity
  8
Layer 1
 62
    18
420
    65793
370
    25
100
AcDbLine
 10
614.606603991676
 20
-189.0004382128415
 30
0.0
 11
598.48115589933
 21
-189.0004382128415
 31
0.0
  0
LINE
  5
14F
330
136
100
AcDbEntity
  8
Layer 1
 62
    18
420
    65793
370
    25
100
AcDbLine
 10
586.4811558993296
 20
-189.0004382128415
 30
0.0
 11
570.3557078069829
 21
-189.0004382128415
 31
0.0
  0
LWPOLYLINE
  5
150
330
136
100
AcDbEntity
  8
Layer 1
 62
    18
420
    65793
370
    25
100
AcDbPolyline
 90
        5
 70
     1
 43
0.0
 10
462.6059502069832
 20
-161.0006096128418
 10
462.6059502069832
 20
-171.0006096128412
 10
459.6059502069831
 20
-171.0006096128412
 10
459.6059502069831
 20
-151.0004376465972
 10
462.6066017266983
 20
-151.0004376465972
  0
LWPOLYLINE
  5
151
330
136
100
AcDbEntity
  8
Layer 1
 62
    18
420
    65793
370
    25
100
AcDbPolyline
 90
        6
 70
     1
 43
0.0
 10
522.6059502069826
 20
-161.0006096128418
 10
522.6059502069826
 20
-151.0004376465972
 10
525.6066026654715
 20
-151.0004376465972
 10
525.6059502069867
 20
-161.0006096128418
 10
525.6059502069867
 20
-171.0006095915567
 10
522.6066026207674
 20
-171.0006095915567
  0
LINE
  5
152
330
136
100
AcDbEntity
  8
Layer 1
 62
    18
420
    65793
370
    25
100
AcDbLine
 10
604.6063314468045
 20
-149.0004691550916
 30
0.0
 11
604.6062770767325
 21
-137.0004691553376
 31
0.0
  0
LINE
  5
153
330
136
100
AcDbEntity
  8
Layer 1
 62
    18
420
    65793
370
    25
100
AcDbLine
 10
580.6063314472984
 20
-149.000577895238
 30
0.0
 11
580.6062770772227
 21
-137.0005778954844
 31
0.0
  0
SPLINE
  5
154
330
136
100
AcDbEntity
  8
Layer 1
 62
    18
420
    65793
370
    25
100
AcDbSpline
210
0.0
220
0.0
230
1.0
 70
     8
 71
     3
 72
    11
 73
     7
 74
     0
 42
0.0000000001
 43
0.0000000001
 40
0.0
 40
0.0
 40
0.0
 40
0.0
 40
1.0
 40
1.0
 40
1.0
 40
2.0
 40
2.0
 40
2.0
 40
2.0
 10
580.6063314472984
 20
-149.0005778951877
 30
0.0
 10
580.6063614750306
 20
-155.6279948930209
 30
0.0
 10
585.9789688192388
 20
-161.000553552653
 30
0.0
 10
592.6063858170742
 20
-161.0005235249185
 30
0.0
 10
599.2338028149072
 20
-161.000493497184
 30
0.0
 10
604.6063614745399
 20
-155.6278861529758
 30
0.0
 10
604.6063314468045
 20
-149.0004691551423
 30
0.0
  0
LINE
  5
155
330
136
100
AcDbEntity
  8
Layer 1
 62
    18
420
    65793
370
    25
100
AcDbLine
 10
611.6066039469727
 20
-137.000437437981
 30
0.0
 11
604.6062770767325
 21
-137.0004691553376
 31
0.0
  0
LINE
  5
156
330
136
100
AcDbEntity
  8
Layer 1
 62
    18
420
    65793
370
    25
100
AcDbLine
 10
580.6062770772227
 20
-137.0005778954844
 30
0.0
 11
573.6059502069832
 21
-137.0006096128413
 31
0.0
  0
ENDBLK
  5
139
330
136
100
AcDbEntity
  8
0
100
AcDbBlockEnd
  0
BLOCK
  5
159
330
157
100
AcDbEntity
  8
0
100
AcDbBlockBegin
  2
Block_4
 70
     0
 10
0.0
 20
0.0
 30
0.0
  3
Block_4
  1

  0
LINE
  5
15B
330
157
100
AcDbEntity
  8
Layer 1
 62
    18
420
    65793
370
    25
100
AcDbLine
 10
221.884049584723
 20
-471.6082192883779
 30
0.0
 11
259.884049584723
 21
-471.6082192883779
 31
0.0
  0
LINE
  5
15C
330
157
100
AcDbEntity
  8
Layer 1
 62
    18
420
    65793
370
    25
100
AcDbLine
 10
259.884049584723
 20
-436.6172225392282
 30
0.0
 11
262.8840495783375
 21
-436.6172225392282
 31
0.0
  0
LINE
  5
15D
330
157
100
AcDbEntity
  8
Layer 1
 62
    18
420
    65793
370
    25
100
AcDbLine
 10
262.8840495783375
 20
-436.6172225392282
 30
0.0
 11
262.8840495783375
 21
-456.6083907117959
 31
0.0
  0
LINE
  5
15E
330
157
100
AcDbEntity
  8
Layer 1
 62
    18
420
    65793
370
    25
100
AcDbLine
 10
221.884049584723
 20
-436.6147432396091
 30
0.0
 11
218.8840508337406
 21
-436.6147432396091
 31
0.0
  0
LINE
  5
15F
330
157
100
AcDbEntity
  8
Layer 1
 62
    18
420
    65793
370
    25
100
AcDbLine
 10
218.8840508337406
 20
-436.6147432396091
 30
0.0
 11
218.8840508337406
 21
-456.6083907117959
 31
0.0
  0
LINE
  5
160
330
157
100
AcDbEntity
  8
Layer 1
 62
    18
420
    65793
370
    25
100
AcDbLine
 10
221.884049584723
 20
-422.6082185582196
 30
0.0
 11
221.884049584723
 21
-436.6147432396091
 31
0.0
  0
LINE
  5
161
330
157
100
AcDbEntity
  8
Layer 1
 62
    18
420
    65793
370
    25
100
AcDbLine
 10
221.884049584723
 20
-456.6083907117959
 30
0.0
 11
221.884049584723
 21
-471.6082192883779
 31
0.0
  0
LINE
  5
162
330
157
100
AcDbEntity
  8
Layer 1
 62
    18
420
    65793
370
    25
100
AcDbLine
 10
259.884049584723
 20
-471.6082192883779
 30
0.0
 11
259.884049584723
 21
-456.6083907117959
 31
0.0
  0
LINE
  5
163
330
157
100
AcDbEntity
  8
Layer 1
 62
    18
420
    65793
370
    25
100
AcDbLine
 10
259.884049584723
 20
-436.6172225392282
 30
0.0
 11
259.884049584723
 21
-422.6082185582196
 31
0.0
  0
LINE
  5
164
330
157
100
AcDbEntity
  8
Layer 1
 62
    18
420
    65793
370
    25
100
AcDbLine
 10
262.8840495783375
 20
-456.6083907117959
 30
0.0
 11
259.884049584723
 21
-456.6083907117959
 31
0.0
  0
LINE
  5
165
330
157
100
AcDbEntity
  8
Layer 1
 62
    18
420
    65793
370
    25
100
AcDbLine
 10
221.884049584723
 20
-456.6083907117959
 30
0.0
 11
218.8840508337406
 21
-456.6083907117959
 31
0.0
  0
LINE
  5
166
330
157
100
AcDbEntity
  8
Layer 1
 62
    18
420
    65793
370
    25
100
AcDbLine
 10
252.884050314881
 20
-434.6082192883772
 30
0.0
 11
252.884050314881
 21
-422.6082185582196
 31
0.0
  0
LINE
  5
167
330
157
100
AcDbEntity
  8
Layer 1
 62
    18
420
    65793
370
    25
100
AcDbLine
 10
228.8840496890323
 20
-434.6082192883772
 30
0.0
 11
228.8840496890323
 21
-422.6082185582196
 31
0.0
  0
SPLINE
  5
168
330
157
100
AcDbEntity
  8
Layer 1
 62
    18
420
    65793
370
    25
100
AcDbSpline
210
0.0
220
0.0
230
1.0
 70
     8
 71
     3
 72
    14
 73
    10
 74
     0
 42
0.0000000001
 43
0.0000000001
 40
0.0
 40
0.0
 40
0.0
 40
0.0
 40
1.0
 40
1.0
 40
1.0
 40
2.0
 40
2.0
 40
2.0
 40
3.0
 40
3.0
 40
3.0
 40
3.0
 10
228.8840496890323
 20
-434.6037441167098
 30
0.0
 10
228.8815781199674
 20
-441.2311610570715
 30
0.0
 10
234.2521574726955
 20
-446.6057476150026
 30
0.0
 10
240.8795744130565
 20
-446.6082191840682
 30
0.0
 10
247.5069913534185
 20
-446.6106907531337
 30
0.0
 10
252.8815779113503
 20
-441.2401114004063
 30
0.0
 10
252.8840494804152
 20
-434.6126944600453
 30
0.0
 10
252.8840500367263
 20
-434.611202736217
 30
0.0
 10
252.884050314881
 20
-434.6097110123045
 30
0.0
 10
252.884050314881
 20
-434.6082192883772
 30
0.0
  0
LINE
  5
169
330
157
100
AcDbEntity
  8
Layer 1
 62
    18
420
    65793
370
    25
100
AcDbLine
 10
228.8840496890323
 20
-422.6082185582196
 30
0.0
 11
221.884049584723
 21
-422.6082185582196
 31
0.0
  0
LINE
  5
16A
330
157
100
AcDbEntity
  8
Layer 1
 62
    18
420
    65793
370
    25
100
AcDbLine
 10
259.884049584723
 20
-422.6082185582196
 30
0.0
 11
252.884050314881
 21
-422.6082185582196
 31
0.0
  0
ENDBLK
  5
15A
330
157
100
AcDbEntity
  8
0
100
AcDbBlockEnd
  0
BLOCK
  5
186
330
184
100
AcDbEntity
  8
0
100
AcDbBlockBegin
  2
Block_5
 70
     0
 10
0.0
 20
0.0
 30
0.0
  3
Block_5
  1

  0
LWPOLYLINE
  5
188
330
184
100
AcDbEntity
  8
Layer 1
 62
    18
420
    65793
370
    25
100
AcDbPolyline
 90
       80
 70
     1
 43
0.0
 10
543.1057886069829
 20
-133.003464815674
 10
549.1057886069832
 20
-133.003464815674
 10
549.1057886069832
 20
-136.0034648156741
 10
555.1057886069834
 20
-136.0034648156741
 10
555.1057886069834
 20
-133.003464815674
 10
561.1057886069829
 20
-133.003464815674
 10
561.1057886069829
 20
-136.0034648156741
 10
567.1057886069831
 20
-136.0034648156741
 10
567.1057886069831
 20
-133.003464815674
 10
573.6056270069834
 20
-133.003464815674
 10
573.6059502069832
 20
-126.0034646666623
 10
573.6059502069832
 20
-120.0034645772554
 10
570.6066033360249
 20
-120.0034645772554
 10
570.6066033360249
 20
-114.0036362156737
 10
573.6059502069832
 20
-114.0036362156737
 10
573.6059502069832
 20
-108.0036362156741
 10
570.6059502069831
 20
-108.0036362156741
 10
570.6059502069831
 20
-102.0036362156739
 10
573.6059502069832
 20
-102.0036362156739
 10
573.6059502069832
 20
-96.00363621567371
 10
570.6059502069831
 20
-96.00363621567371
 10
570.6059502069831
 20
-90.00363621567414
 10
573.6059502069832
 20
-90.00363621567414
 10
573.6059502069832
 20
-84.00363621567391
 10
418.6059502069829
 20
-84.00363621567391
 10
418.6059502069829
 20
-87.00363621567403
 10
421.605950206983
 20
-87.00363621567403
 10
421.605950206983
 20
-93.0036362156736
 10
418.6059502069829
 20
-93.0036362156736
 10
418.6059502069829
 20
-99.00363621567381
 10
421.605950206983
 20
-99.00363621567381
 10
421.605950206983
 20
-105.003636215674
 10
421.605950206983
 20
-108.0034648156738
 10
421.730846006986
 20
-110.4993002156736
 10
422.1042857069854
 20
-112.9701981156736
 10
422.722537906983
 20
-115.3914700156737
 10
423.5794253069838
 20
-117.7389234156738
 10
424.6663861069837
 20
-119.9891033156738
 10
425.972559806983
 20
-122.119526615674
 10
427.484895506986
 20
-124.1089070156741
 10
429.1882824069822
 20
-125.9373671156738
 10
431.0657010069835
 20
-127.5866375156741
 10
433.0983925069831
 20
-129.0402394156742
 10
435.2660471069845
 20
-130.2836488156738
 10
437.5470063069826
 20
-131.3044419156742
 10
439.9184794069832
 20
-132.0924194156741
 10
442.356771606985
 20
-132.6397080156736
 10
444.8375201069836
 20
-132.9408395156742
 10
446.6059502069832
 20
-133.003464815674
 10
453.1057886069829
 20
-133.003464815674
 10
453.1057886069829
 20
-136.0034648156741
 10
459.1057886069831
 20
-136.0034648156741
 10
459.1057886069831
 20
-133.003464815674
 10
465.1057886069834
 20
-133.003464815674
 10
465.1057886069834
 20
-136.0034648156741
 10
471.105788606983
 20
-136.0034648156741
 10
471.105788606983
 20
-133.003464815674
 10
477.1057886069832
 20
-133.003464815674
 10
477.1057886069832
 20
-136.0034648156741
 10
483.1057886069834
 20
-136.0034648156741
 10
483.1057886069834
 20
-133.003464815674
 10
489.1057886069829
 20
-133.003464815674
 10
489.1057886069829
 20
-136.0034648156741
 10
495.1057886069832
 20
-136.0034648156741
 10
495.1057886069832
 20
-133.003464815674
 10
501.1057886069833
 20
-133.003464815674
 10
501.1057886069833
 20
-136.0034648156741
 10
507.1057886069829
 20
-136.0034648156741
 10
507.1057886069829
 20
-133.003464815674
 10
513.1057886069831
 20
-133.003464815674
 10
513.1057886069831
 20
-136.0034648156741
 10
519.1057886069834
 20
-136.0034648156741
 10
519.1057886069834
 20
-133.003464815674
 10
525.1057886069829
 20
-133.003464815674
 10
525.1057886069829
 20
-136.0034648156741
 10
531.1057886069831
 20
-136.0034648156741
 10
531.1057886069831
 20
-133.003464815674
 10
537.1057886069833
 20
-133.003464815674
 10
537.1057886069833
 20
-136.0034648156741
 10
543.1057886069829
 20
-136.0034648156741
  0
LWPOLYLINE
  5
189
330
184
100
AcDbEntity
  8
Layer 1
 62
    18
420
    65793
370
    25
100
AcDbPolyline
 90
        5
 70
     1
 43
0.0
 10
462.6059502069832
 20
-108.0036362156741
 10
462.6059502069832
 20
-118.0036362156738
 10
459.6059502069831
 20
-118.0036362156738
 10
459.6059502069831
 20
-98.00346424942986
 10
462.6066017266983
 20
-98.00346424942986
  0
LWPOLYLINE
  5
18A
330
184
100
AcDbEntity
  8
Layer 1
 62
    18
420
    65793
370
    25
100
AcDbPolyline
 90
        6
 70
     1
 43
0.0
 10
522.6059502069826
 20
-108.0036362156741
 10
522.6059502069826
 20
-98.00346424942986
 10
525.6066026654715
 20
-98.00346424942986
 10
525.6059502069867
 20
-108.0036362156741
 10
525.6059502069867
 20
-118.0036361943893
 10
522.6066026207674
 20
-118.0036361943893
  0
ENDBLK
  5
187
330
184
100
AcDbEntity
  8
0
100
AcDbBlockEnd
  0
BLOCK
  5
19D
330
19B
100
AcDbEntity
  8
0
100
AcDbBlockBegin
  2
Block_6
 70
     0
 10
0.0
 20
0.0
 30
0.0
  3
Block_6
  1

  0
LINE
  5
19F
330
19B
100
AcDbEntity
  8
Layer 1
 62
    18
420
    65793
370
    25
100
AcDbLine
 10
583.6062758282063
 20
-132.9285508807526
 30
0.0
 11
621.6062758282063
 21
-132.9285508807526
 31
0.0
  0
LINE
  5
1A0
330
19B
100
AcDbEntity
  8
Layer 1
 62
    18
420
    65793
370
    25
100
AcDbLine
 10
621.6062758282063
 20
-97.93755413160411
 30
0.0
 11
624.6062758218208
 21
-97.93755413160411
 31
0.0
  0
LINE
  5
1A1
330
19B
100
AcDbEntity
  8
Layer 1
 62
    18
420
    65793
370
    25
100
AcDbLine
 10
624.6062758218208
 20
-97.93755413160411
 30
0.0
 11
624.6062758218208
 21
-117.9287223041712
 31
0.0
  0
LINE
  5
1A2
330
19B
100
AcDbEntity
  8
Layer 1
 62
    18
420
    65793
370
    25
100
AcDbLine
 10
583.6062758282063
 20
-97.93507483198636
 30
0.0
 11
580.6062770772227
 21
-97.93507483198636
 31
0.0
  0
LINE
  5
1A3
330
19B
100
AcDbEntity
  8
Layer 1
 62
    18
420
    65793
370
    25
100
AcDbLine
 10
580.6062770772227
 20
-97.93507483198636
 30
0.0
 11
580.6062770772227
 21
-117.9287223041712
 31
0.0
  0
LINE
  5
1A4
330
19B
100
AcDbEntity
  8
Layer 1
 62
    18
420
    65793
370
    25
100
AcDbLine
 10
583.6062758282063
 20
-83.92855015059552
 30
0.0
 11
583.6062758282063
 21
-97.93507483198636
 31
0.0
  0
LINE
  5
1A5
330
19B
100
AcDbEntity
  8
Layer 1
 62
    18
420
    65793
370
    25
100
AcDbLine
 10
583.6062758282063
 20
-117.9287223041712
 30
0.0
 11
583.6062758282063
 21
-132.9285508807526
 31
0.0
  0
LINE
  5
1A6
330
19B
100
AcDbEntity
  8
Layer 1
 62
    18
420
    65793
370
    25
100
AcDbLine
 10
621.6062758282063
 20
-132.9285508807526
 30
0.0
 11
621.6062758282063
 21
-117.9287223041712
 31
0.0
  0
LINE
  5
1A7
330
19B
100
AcDbEntity
  8
Layer 1
 62
    18
420
    65793
370
    25
100
AcDbLine
 10
621.6062758282063
 20
-97.93755413160411
 30
0.0
 11
621.6062758282063
 21
-83.92855015059552
 31
0.0
  0
LINE
  5
1A8
330
19B
100
AcDbEntity
  8
Layer 1
 62
    18
420
    65793
370
    25
100
AcDbLine
 10
624.6062758218208
 20
-117.9287223041712
 30
0.0
 11
621.6062758282063
 21
-117.9287223041712
 31
0.0
  0
LINE
  5
1A9
330
19B
100
AcDbEntity
  8
Layer 1
 62
    18
420
    65793
370
    25
100
AcDbLine
 10
583.6062758282063
 20
-117.9287223041712
 30
0.0
 11
580.6062770772227
 21
-117.9287223041712
 31
0.0
  0
LINE
  5
1AA
330
19B
100
AcDbEntity
  8
Layer 1
 62
    18
420
    65793
370
    25
100
AcDbLine
 10
614.6062765583645
 20
-95.92855088075257
 30
0.0
 11
614.6062765583645
 21
-83.92855015059552
 31
0.0
  0
LINE
  5
1AB
330
19B
100
AcDbEntity
  8
Layer 1
 62
    18
420
    65793
370
    25
100
AcDbLine
 10
590.6062759325153
 20
-95.92855088075257
 30
0.0
 11
590.6062759325153
 21
-83.92855015059552
 31
0.0
  0
SPLINE
  5
1AC
330
19B
100
AcDbEntity
  8
Layer 1
 62
    18
420
    65793
370
    25
100
AcDbSpline
210
0.0
220
0.0
230
1.0
 70
     8
 71
     3
 72
    14
 73
    10
 74
     0
 42
0.0000000001
 43
0.0000000001
 40
0.0
 40
0.0
 40
0.0
 40
0.0
 40
1.0
 40
1.0
 40
1.0
 40
2.0
 40
2.0
 40
2.0
 40
3.0
 40
3.0
 40
3.0
 40
3.0
 10
590.6062759325153
 20
-95.92407570908576
 30
0.0
 10
590.6038043634497
 20
-102.5514926494474
 30
0.0
 10
595.9743837161773
 20
-107.9260792073798
 30
0.0
 10
602.6018006565382
 20
-107.9285507764441
 30
0.0
 10
609.229217596903
 20
-107.9310223455084
 30
0.0
 10
614.6038041548348
 20
-102.5604429927813
 30
0.0
 10
614.6062757239004
 20
-95.93302605241936
 30
0.0
 10
614.6062762802098
 20
-95.93153432859351
 30
0.0
 10
614.6062765583645
 20
-95.93004260468203
 30
0.0
 10
614.6062765583645
 20
-95.92855088075257
 30
0.0
  0
LINE
  5
1AD
330
19B
100
AcDbEntity
  8
Layer 1
 62
    18
420
    65793
370
    25
100
AcDbLine
 10
590.6062759325153
 20
-83.92855015059552
 30
0.0
 11
583.6062758282063
 21
-83.92855015059552
 31
0.0
  0
LINE
  5
1AE
330
19B
100
AcDbEntity
  8
Layer 1
 62
    18
420
    65793
370
    25
100
AcDbLine
 10
621.6062758282063
 20
-83.92855015059552
 30
0.0
 11
614.6062765583645
 21
-83.92855015059552
 31
0.0
  0
ENDBLK
  5
19E
330
19B
100
AcDbEntity
  8
0
100
AcDbBlockEnd
  0
ENDSEC
  0
SECTION
  2
ENTITIES
  0
LWPOLYLINE
  5
79
330
70
100
AcDbEntity
  8
Layer 1
 62
    18
420
    65793
370
    25
100
AcDbPolyline
 90
       23
 70
     1
 43
0.0
 10
342.5584022641814
 20
-315.453550515675
 10
354.5584022641813
 20
-315.453550515675
 10
354.5584022641813
 20
-318.4535505156745
 10
366.5584022641813
 20
-318.4535505156745
 10
366.5584022641813
 20
-315.453550515675
 10
378.5584022641814
 20
-315.453550515675
 10
378.5584022641814
 20
-318.4535505156745
 10
390.5584022641812
 20
-318.4535505156745
 10
392.0584022641816
 20
-318.4535505156745
 10
392.0584022641816
 20
-310.4535505156755
 10
389.0584022641815
 20
-310.4535505156755
 10
389.0584022641815
 20
-298.4535505156751
 10
392.0584022641816
 20
-298.4535505156751
 10
392.0584022641816
 20
-286.4535505156746
 10
389.0584022641815
 20
-286.4535505156746
 10
389.0584022641815
 20
-274.4535505156755
 10
392.0584022641816
 20
-274.4535505156755
 10
392.0584022641816
 20
-266.4535505156752
 10
329.0584022641813
 20
-266.4535505156752
 10
329.0584022641813
 20
-274.4535505156755
 10
329.0584022641813
 20
-310.4535505156755
 10
329.0584022641813
 20
-318.4535505156745
 10
342.5584022641814
 20
-318.4535505156745
  0
LWPOLYLINE
  5
7A
330
70
100
AcDbEntity
  8
Layer 1
 62
    18
420
    65793
370
    25
100
AcDbPolyline
 90
       68
 70
     1
 43
0.0
 10
143.6876774717292
 20
-51.81102752947017
 10
143.6876774717292
 20
-54.81102752946931
 10
155.6876774717293
 20
-54.81102752946931
 10
155.6876774717293
 20
-51.81102752947017
 10
167.6876774717298
 20
-51.81102752947017
 10
167.6876774717298
 20
-54.81102752946931
 10
179.6876774717295
 20
-54.81102752946931
 10
179.6876774717295
 20
-51.81102752947017
 10
191.6876774717293
 20
-51.81102752947017
 10
191.6876774717293
 20
-54.81102752946931
 10
203.6876774717298
 20
-54.81102752946931
 10
203.6876774717298
 20
-51.81102752947017
 10
215.6876774717296
 20
-51.81102752947017
 10
215.6876774717292
 20
-54.81102752946931
 10
227.68767747173
 20
-54.81102752946931
 10
227.68767747173
 20
-51.81102752947017
 10
239.6876774717291
 20
-51.81102752947017
 10
239.6876774717291
 20
-54.81102752946931
 10
251.6876774717295
 20
-54.81102752946931
 10
251.6876774717295
 20
-51.81102752947017
 10
263.68767747173
 20
-51.81102752947017
 10
263.68767747173
 20
-54.81102752946931
 10
275.6876774717294
 20
-54.81102752946931
 10
275.6876774717294
 20
-51.81102752947017
 10
287.6876774717295
 20
-51.81102752947017
 10
287.6876774717295
 20
-54.81102752946931
 10
299.68767747173
 20
-54.81102752946931
 10
299.68767747173
 20
-51.81102752947017
 10
311.6876774717291
 20
-51.81102752947017
 10
311.6876774717291
 20
-54.81102752946931
 10
323.6876774717296
 20
-54.81102752946931
 10
323.6876774717296
 20
-51.81102752947017
 10
335.68767747173
 20
-51.81102752947017
 10
335.68767747173
 20
-54.81102752946931
 10
347.6876774717291
 20
-54.81102752946931
 10
347.6876774717291
 20
-51.81102752947017
 10
359.6876774717279
 20
-51.81102752947017
 10
359.6876774717279
 20
-54.81102752946931
 10
373.6876774717313
 20
-54.81102752946931
 10
373.6876774717313
 20
-46.81102752947031
 10
376.6876774717279
 20
-46.81102752947031
 10
376.6876774717279
 20
-34.8110275294699
 10
373.6876774717313
 20
-34.8110275294699
 10
373.6876774717313
 20
-22.81102752946947
 10
376.6876774717279
 20
-22.81102752946947
 10
376.6876774717279
 20
-10.81102752947033
 10
373.6876774717313
 20
-10.81102752947033
 10
373.6876774717313
 20
-2.811027529470048
 10
69.68767747172956
 20
-2.811027529470048
 10
69.68767747172956
 20
-10.81102752947033
 10
66.68767747172944
 20
-10.81102752947033
 10
66.68767747172944
 20
-22.81102752946947
 10
69.68767747172956
 20
-22.81102752946947
 10
69.68767747172956
 20
-34.8110275294699
 10
66.68767747172944
 20
-34.8110275294699
 10
66.68767747172944
 20
-46.81102752947031
 10
69.68767747172956
 20
-46.81102752947031
 10
69.68767747172956
 20
-54.81102752946931
 10
83.6876774717294
 20
-54.81102752946931
 10
83.6876774717294
 20
-51.81102752947017
 10
95.68767747172952
 20
-51.81102752947017
 10
95.68767747172952
 20
-54.81102752946931
 10
107.6876774717293
 20
-54.81102752946931
 10
107.6876774717293
 20
-51.81102752947017
 10
119.6876774717294
 20
-51.81102752947017
 10
119.6876774717294
 20
-54.81102752946931
 10
131.6876774717298
 20
-54.81102752946931
 10
131.6876774717298
 20
-51.81102752947017
  0
LWPOLYLINE
  5
7B
330
70
100
AcDbEntity
  8
Layer 1
 62
    18
420
    65793
370
    25
100
AcDbPolyline
 90
       23
 70
     1
 43
0.0
 10
263.0734362382128
 20
-266.4535505156746
 10
263.0734362382128
 20
-274.4535505156749
 10
263.0734362382128
 20
-310.4535505156749
 10
263.0734362382128
 20
-318.4535505156738
 10
276.5734362382129
 20
-318.4535505156738
 10
276.5734362382129
 20
-315.4535505156744
 10
288.573436238212
 20
-315.4535505156744
 10
288.573436238212
 20
-318.4535505156738
 10
300.5734362382125
 20
-318.4535505156738
 10
300.5734362382125
 20
-315.4535505156744
 10
312.5734362382129
 20
-315.4535505156744
 10
312.5734362382129
 20
-318.4535505156738
 10
324.573436238212
 20
-318.4535505156738
 10
326.0734362382124
 20
-318.4535505156738
 10
326.0734362382124
 20
-310.4535505156749
 10
323.0734362382123
 20
-310.4535505156749
 10
323.0734362382123
 20
-298.4535505156744
 10
326.0734362382124
 20
-298.4535505156744
 10
326.0734362382124
 20
-286.453550515674
 10
323.0734362382123
 20
-286.453550515674
 10
323.0734362382123
 20
-274.4535505156749
 10
326.0734362382124
 20
-274.4535505156749
 10
326.0734362382124
 20
-266.4535505156746
  0
LWPOLYLINE
  5
7C
330
70
100
AcDbEntity
  8
Layer 1
 62
    18
420
    65793
370
    25
100
AcDbPolyline
 90
       70
 70
     1
 43
0.0
 10
62.00931493854934
 20
-283.8110275294703
 10
62.00931493854934
 20
-271.8110275294699
 10
65.00931493854881
 20
-271.8110275294699
 10
65.00931493854881
 20
-259.8110275294695
 10
62.00931493854934
 20
-259.8110275294695
 10
62.00931493854934
 20
-247.8110275294703
 10
65.00931493854881
 20
-247.8110275294703
 10
65.00931493854881
 20
-235.8110275294699
 10
62.00931493854934
 20
-235.8110275294699
 10
62.00931493854934
 20
-223.8110275294695
 10
65.00931493854881
 20
-223.8110275294695
 10
65.00931493854881
 20
-211.8110275294704
 10
62.00931493854934
 20
-211.8110275294704
 10
62.00931493854934
 20
-199.8110275294699
 10
65.00931493854881
 20
-199.8110275294699
 10
65.00931493854881
 20
-187.8110275294695
 10
62.00931493854934
 20
-187.8110275294695
 10
62.00931493854934
 20
-175.8110275294703
 10
65.00931493854881
 20
-175.8110275294703
 10
65.00931493854881
 20
-163.8110275294699
 10
62.00931493854934
 20
-163.8110275294699
 10
62.00931493854934
 20
-151.8110275294701
 10
65.00931493854881
 20
-151.8110275294701
 10
65.00931493854881
 20
-139.81102752947
 10
62.00931493854934
 20
-139.81102752947
 10
62.00931493854934
 20
-127.81102752947
 10
65.00931493854881
 20
-127.81102752947
 10
65.00931493854881
 20
-115.8110275294702
 10
62.00931493854934
 20
-115.8110275294702
 10
62.00931493854934
 20
-103.8110275294701
 10
65.00931493854881
 20
-103.8110275294701
 10
65.00931493854881
 20
-91.81102752946998
 10
62.00931493854934
 20
-91.81102752946998
 10
62.00931493854934
 20
-79.81102752946988
 10
65.00931493854881
 20
-79.81102752946988
 10
65.00931493854881
 20
-67.8110275294701
 10
62.00931493854934
 20
-67.8110275294701
 10
62.00931493854934
 20
-55.81102752947
 10
65.00931493854881
 20
-55.81102752947
 10
65.00931493854881
 20
-43.81102752946989
 10
62.00931493854934
 20
-43.81102752946989
 10
62.00931493854934
 20
-31.81102752947011
 10
65.00931493854881
 20
-31.81102752947011
 10
65.00931493854881
 20
-19.81102752947
 10
62.00931493854934
 20
-19.81102752947
 10
62.00931493854934
 20
-5.811027529469833
 10
51.50931493854866
 20
-5.811027529469833
 10
51.50931493854866
 20
-2.811027529470048
 10
39.50931493854952
 20
-2.811027529470048
 10
39.50931493854952
 20
-5.811027529470154
 10
27.50931493854909
 20
-5.811027529469833
 10
27.50931493854909
 20
-2.811027529470048
 10
15.50931493854866
 20
-2.811027529470048
 10
15.50931493854866
 20
-5.811027529470154
 10
5.009314938549257
 20
-5.811027529469833
 10
2.00931493854851
 20
-5.811027529469833
 10
2.00931493854851
 20
-309.81102752947
 10
5.009314938549257
 20
-309.81102752947
 10
15.50931493854866
 20
-309.81102752947
 10
15.50931493854866
 20
-312.8110275294694
 10
27.50931493854909
 20
-312.8110275294694
 10
27.50931493854909
 20
-309.81102752947
 10
39.50931493854952
 20
-309.81102752947
 10
39.50931493854952
 20
-312.8110275294694
 10
51.50931493854866
 20
-312.8110275294694
 10
51.50931493854866
 20
-309.81102752947
 10
62.00931493854934
 20
-309.81102752947
 10
62.00931493854934
 20
-295.8110275294695
 10
65.00931493854881
 20
-295.8110275294695
 10
65.00931493854881
 20
-283.8110275294703
  0
INSERT
  5
7E
330
70
100
AcDbEntity
  8
Layer 1
100
AcDbBlockReference
  2
Block_0
 10
0.0
 20
0.0
 30
0.0
  0
INSERT
  5
85
330
70
100
AcDbEntity
  8
Layer 1
100
AcDbBlockReference
  2
Block_1
 10
0.0
 20
0.0
 30
0.0
  0
INSERT
  5
105
330
70
100
AcDbEntity
  8
Layer 1
100
AcDbBlockReference
  2
Block_2
 10
0.0
 20
0.0
 30
0.0
  0
INSERT
  5
137
330
70
100
AcDbEntity
  8
Layer 1
100
AcDbBlockReference
  2
Block_3
 10
0.0
 20
0.0
 30
0.0
  0
INSERT
  5
158
330
70
100
AcDbEntity
  8
Layer 1
100
AcDbBlockReference
  2
Block_4
 10
0.0
 20
0.0
 30
0.0
  0
LWPOLYLINE
  5
16B
330
70
100
AcDbEntity
  8
Layer 1
 62
    18
420
    65793
370
    25
100
AcDbPolyline
 90
       21
 70
     1
 43
0.0
 10
43.94476118838177
 20
-370.1104554047635
 10
52.94476118838113
 20
-370.1104554047635
 10
56.94476118838127
 20
-370.1104554047635
 10
56.94476118838127
 20
-364.6104554047629
 10
53.94476118838117
 20
-364.6104554047629
 10
53.94476118838117
 20
-355.6104554047633
 10
56.94476118838127
 20
-355.6104554047633
 10
56.94476118838127
 20
-350.110455404764
 10
3.944761188381328
 20
-350.110455404764
 10
3.944761188381328
 20
-355.6104554047633
 10
6.944761188381113
 20
-355.6104554047633
 10
6.944761188381113
 20
-364.6104554047629
 10
3.944761188381328
 20
-364.6104554047629
 10
3.944761188381328
 20
-370.1104554047635
 10
16.94476118838114
 20
-370.1104554047635
 10
16.94476118838114
 20
-367.1104554047634
 10
25.94476118838082
 20
-367.1104554047634
 10
25.94476118838082
 20
-370.1104554047635
 10
34.94476118838114
 20
-370.1104554047635
 10
34.94476118838114
 20
-367.1104554047634
 10
43.94476118838177
 20
-367.1104554047634
  0
LWPOLYLINE
  5
16C
330
70
100
AcDbEntity
  8
Layer 1
 62
    18
420
    65793
370
    25
100
AcDbPolyline
 90
       44
 70
     1
 43
0.0
 10
78.94476118838141
 20
-370.1104554047635
 10
87.94476118838076
 20
-370.1104554047635
 10
87.94476118838076
 20
-367.1104554047634
 10
96.9447611883814
 20
-367.1104554047634
 10
96.9447611883814
 20
-370.1104554047635
 10
105.9447611883807
 20
-370.1104554047635
 10
105.9447611883807
 20
-367.1104554047634
 10
114.9447611883814
 20
-367.1104554047634
 10
114.9447611883814
 20
-370.1104554047635
 10
123.9447611883807
 20
-370.1104554047635
 10
123.9447611883807
 20
-367.1104554047634
 10
132.9447611883814
 20
-367.1104554047634
 10
132.9447611883814
 20
-370.1104554047635
 10
141.9447611883811
 20
-370.1104554047635
 10
141.9447611883811
 20
-367.1104554047634
 10
150.9447611883814
 20
-367.1104554047634
 10
150.9447611883814
 20
-370.1104554047635
 10
159.944761188381
 20
-370.1104554047635
 10
159.944761188381
 20
-367.1104554047634
 10
168.9447611883814
 20
-367.1104554047634
 10
168.9447611883814
 20
-370.1104554047635
 10
177.944761188381
 20
-370.1104554047635
 10
177.944761188381
 20
-367.1104554047634
 10
186.9447611883813
 20
-367.1104554047634
 10
186.9447611883813
 20
-370.1104554047635
 10
195.944761188381
 20
-370.1104554047635
 10
195.944761188381
 20
-367.1104554047634
 10
204.9447611883814
 20
-367.1104554047634
 10
204.9447611883814
 20
-370.1104554047635
 10
211.9447611883809
 20
-370.1104554047635
 10
211.9447611883816
 20
-364.6104554047629
 10
214.9447611883814
 20
-364.6104554047629
 10
214.9447611883814
 20
-355.6104554047633
 10
211.9447611883809
 20
-355.6104554047633
 10
211.9447611883816
 20
-350.110455404764
 10
62.94476118838148
 20
-350.110455404764
 10
62.94476118838148
 20
-355.6104554047633
 10
59.94476118838138
 20
-355.6104554047633
 10
59.94476118838138
 20
-364.6104554047629
 10
62.94476118838148
 20
-364.6104554047629
 10
62.94476118838148
 20
-370.1104554047635
 10
69.9447611883814
 20
-370.1104554047635
 10
69.9447611883814
 20
-367.1104554047634
 10
78.94476118838141
 20
-367.1104554047634
  0
LWPOLYLINE
  5
16D
330
70
100
AcDbEntity
  8
Layer 1
 62
    18
420
    65793
370
    25
100
AcDbPolyline
 90
       21
 70
     1
 43
0.0
 10
6.944761188381113
 20
-341.6104554047641
 10
3.944761188381328
 20
-341.6104554047641
 10
3.944761188381328
 20
-347.110455404764
 10
16.94476118838114
 20
-347.110455404764
 10
16.94476118838114
 20
-344.1104554047645
 10
25.94476118838082
 20
-344.1104554047645
 10
25.94476118838082
 20
-347.110455404764
 10
34.94476118838114
 20
-347.110455404764
 10
34.94476118838114
 20
-344.1104554047645
 10
43.94476118838177
 20
-344.1104554047645
 10
43.94476118838177
 20
-347.110455404764
 10
52.94476118838113
 20
-347.110455404764
 10
56.94476118838127
 20
-347.110455404764
 10
56.94476118838127
 20
-341.6104554047641
 10
53.94476118838117
 20
-341.6104554047641
 10
53.94476118838117
 20
-332.6104554047644
 10
56.94476118838127
 20
-332.6104554047644
 10
56.94476118838127
 20
-327.1104554047645
 10
3.944761188381328
 20
-327.1104554047645
 10
3.944761188381328
 20
-332.6104554047644
 10
6.944761188381113
 20
-332.6104554047644
  0
LWPOLYLINE
  5
16E
330
70
100
AcDbEntity
  8
Layer 1
 62
    18
420
    65793
370
    25
100
AcDbPolyline
 90
       44
 70
     1
 43
0.0
 10
141.9447611883811
 20
-344.1104554047645
 10
150.9447611883814
 20
-344.1104554047645
 10
150.9447611883814
 20
-347.110455404764
 10
159.944761188381
 20
-347.110455404764
 10
159.944761188381
 20
-344.1104554047645
 10
168.9447611883814
 20
-344.1104554047645
 10
168.9447611883814
 20
-347.110455404764
 10
177.944761188381
 20
-347.110455404764
 10
177.944761188381
 20
-344.1104554047645
 10
186.9447611883813
 20
-344.1104554047645
 10
186.9447611883813
 20
-347.110455404764
 10
195.944761188381
 20
-347.110455404764
 10
195.944761188381
 20
-344.1104554047645
 10
204.9447611883814
 20
-344.1104554047645
 10
204.9447611883814
 20
-347.110455404764
 10
211.9447611883809
 20
-347.110455404764
 10
211.9447611883816
 20
-341.6104554047641
 10
214.9447611883814
 20
-341.6104554047641
 10
214.9447611883814
 20
-332.6104554047644
 10
211.9447611883809
 20
-332.6104554047644
 10
211.9447611883816
 20
-327.1104554047645
 10
62.94476118838148
 20
-327.1104554047645
 10
62.94476118838148
 20
-332.6104554047644
 10
59.94476118838138
 20
-332.6104554047644
 10
59.94476118838138
 20
-341.6104554047641
 10
62.94476118838148
 20
-341.6104554047641
 10
62.94476118838148
 20
-347.110455404764
 10
69.9447611883814
 20
-347.110455404764
 10
69.9447611883814
 20
-344.1104554047645
 10
78.94476118838141
 20
-344.1104554047645
 10
78.94476118838141
 20
-347.110455404764
 10
87.94476118838076
 20
-347.110455404764
 10
87.94476118838076
 20
-344.1104554047645
 10
96.9447611883814
 20
-344.1104554047645
 10
96.9447611883814
 20
-347.110455404764
 10
105.9447611883807
 20
-347.110455404764
 10
105.9447611883807
 20
-344.1104554047645
 10
114.9447611883814
 20
-344.1104554047645
 10
114.9447611883814
 20
-347.110455404764
 10
123.9447611883807
 20
-347.110455404764
 10
123.9447611883807
 20
-344.1104554047645
 10
132.9447611883814
 20
-344.1104554047645
 10
132.9447611883814
 20
-347.110455404764
 10
141.9447611883811
 20
-347.110455404764
  0
LWPOLYLINE
  5
16F
330
70
100
AcDbEntity
  8
Layer 1
 62
    18
420
    65793
370
    25
100
AcDbPolyline
 90
       86
 70
     1
 43
0.0
 10
429.7707080158627
 20
-327.803550515674
 10
429.7707080158627
 20
-336.8035505156743
 10
432.7707080158666
 20
-336.8035505156743
 10
432.7707080158666
 20
-343.8035505156739
 10
442.7707080158663
 20
-343.8035505156739
 10
442.7707080158663
 20
-346.803550515674
 10
451.7707080158666
 20
-346.803550515674
 10
451.7707080158666
 20
-343.8035505156739
 10
460.7707080158631
 20
-343.8035505156739
 10
460.7707080158631
 20
-346.803550515674
 10
469.7707080158666
 20
-346.803550515674
 10
469.7707080158666
 20
-343.8035505156739
 10
478.7707080158662
 20
-343.8035505156739
 10
479.7707080158631
 20
-343.8035505156739
 10
479.7707080158631
 20
-336.8035505156743
 10
482.7707080158626
 20
-336.8035505156743
 10
482.7707080158626
 20
-327.803550515674
 10
479.7707080158631
 20
-327.803550515674
 10
479.7707080158631
 20
-318.8035505156743
 10
482.7707080158626
 20
-318.8035505156743
 10
482.7707080158626
 20
-309.803550515674
 10
479.7707080158631
 20
-309.803550515674
 10
479.7707080158631
 20
-300.8035505156744
 10
482.7707080158626
 20
-300.8035505156744
 10
482.7707080158626
 20
-291.8035505156741
 10
479.7707080158631
 20
-291.8035505156741
 10
479.7707080158631
 20
-282.8035505156744
 10
482.7707080158626
 20
-282.8035505156744
 10
482.7707080158626
 20
-273.803550515674
 10
479.7707080158631
 20
-273.803550515674
 10
479.7707080158631
 20
-264.8035505156744
 10
482.7707080158626
 20
-264.8035505156744
 10
482.7707080158626
 20
-255.803550515674
 10
479.7707080158631
 20
-255.803550515674
 10
479.7707080158631
 20
-246.8035505156744
 10
482.7707080158626
 20
-246.8035505156744
 10
482.7707080158626
 20
-237.8035505156741
 10
479.7707080158631
 20
-237.8035505156741
 10
479.7707080158631
 20
-228.8035505156744
 10
482.7707080158626
 20
-228.8035505156744
 10
482.7707080158626
 20
-219.8035505156741
 10
479.7707080158631
 20
-219.8035505156741
 10
479.7707080158631
 20
-210.8035505156744
 10
482.7707080158626
 20
-210.8035505156744
 10
482.7707080158626
 20
-201.8035505156741
 10
479.7707080158631
 20
-201.8035505156741
 10
479.7707080158631
 20
-194.8035505156738
 10
469.7707080158666
 20
-194.8035505156738
 10
469.7707080158666
 20
-191.8035505156743
 10
460.7707080158631
 20
-191.8035505156743
 10
460.7707080158631
 20
-194.8035505156738
 10
451.7707080158666
 20
-194.8035505156738
 10
451.7707080158666
 20
-191.8035505156743
 10
442.7707080158663
 20
-191.8035505156743
 10
442.7707080158663
 20
-194.8035505156738
 10
433.7707080158666
 20
-194.8035505156738
 10
432.7707080158666
 20
-194.8035505156738
 10
432.7707080158666
 20
-201.8035505156741
 10
429.7707080158627
 20
-201.8035505156741
 10
429.7707080158627
 20
-210.8035505156744
 10
432.7707080158666
 20
-210.8035505156744
 10
432.7707080158666
 20
-219.8035505156741
 10
429.7707080158627
 20
-219.8035505156741
 10
429.7707080158627
 20
-228.8035505156744
 10
432.7707080158666
 20
-228.8035505156744
 10
432.7707080158666
 20
-237.8035505156741
 10
429.7707080158627
 20
-237.8035505156741
 10
429.7707080158627
 20
-246.8035505156744
 10
432.7707080158666
 20
-246.8035505156744
 10
432.7707080158666
 20
-255.803550515674
 10
429.7707080158627
 20
-255.803550515674
 10
429.7707080158627
 20
-264.8035505156744
 10
432.7707080158666
 20
-264.8035505156744
 10
432.7707080158666
 20
-273.803550515674
 10
429.7707080158627
 20
-273.803550515674
 10
429.7707080158627
 20
-282.8035505156744
 10
432.7707080158666
 20
-282.8035505156744
 10
432.7707080158666
 20
-291.8035505156741
 10
429.7707080158627
 20
-291.8035505156741
 10
429.7707080158627
 20
-300.8035505156744
 10
432.7707080158666
 20
-300.8035505156744
 10
432.7707080158666
 20
-309.803550515674
 10
429.7707080158627
 20
-309.803550515674
 10
429.7707080158627
 20
-318.8035505156743
 10
432.7707080158666
 20
-318.8035505156743
 10
432.7707080158666
 20
-327.803550515674
  0
LWPOLYLINE
  5
170
330
70
100
AcDbEntity
  8
Layer 1
 62
    18
420
    65793
370
    25
100
AcDbPolyline
 90
       21
 70
     1
 43
0.0
 10
43.94476118838177
 20
-416.1104554047631
 10
52.94476118838145
 20
-416.1104554047631
 10
56.94476118838159
 20
-416.1104554047631
 10
56.94476118838159
 20
-410.6104554047632
 10
53.94476118838085
 20
-410.6104554047632
 10
53.94476118838085
 20
-401.610455404763
 10
56.94476118838159
 20
-401.610455404763
 10
56.94476118838159
 20
-396.1104554047631
 10
3.944761188381328
 20
-396.1104554047631
 10
3.944761188381328
 20
-401.610455404763
 10
6.944761188381113
 20
-401.610455404763
 10
6.944761188381113
 20
-410.6104554047632
 10
3.944761188381328
 20
-410.6104554047632
 10
3.944761188381328
 20
-416.1104554047631
 10
16.94476118838114
 20
-416.1104554047631
 10
16.94476118838114
 20
-413.110455404763
 10
25.94476118838082
 20
-413.110455404763
 10
25.94476118838082
 20
-416.1104554047631
 10
34.94476118838114
 20
-416.1104554047631
 10
34.94476118838114
 20
-413.110455404763
 10
43.94476118838177
 20
-413.110455404763
  0
LWPOLYLINE
  5
171
330
70
100
AcDbEntity
  8
Layer 1
 62
    18
420
    65793
370
    25
100
AcDbPolyline
 90
       44
 70
     1
 43
0.0
 10
78.94476118838141
 20
-416.1104554047631
 10
87.94476118838076
 20
-416.1104554047631
 10
87.94476118838076
 20
-413.110455404763
 10
96.94476118838172
 20
-413.110455404763
 10
96.94476118838172
 20
-416.1104554047631
 10
105.9447611883814
 20
-416.1104554047631
 10
105.9447611883814
 20
-413.110455404763
 10
114.9447611883811
 20
-413.110455404763
 10
114.9447611883811
 20
-416.1104554047631
 10
123.9447611883807
 20
-416.1104554047631
 10
123.9447611883807
 20
-413.110455404763
 10
132.9447611883817
 20
-413.110455404763
 10
132.9447611883817
 20
-416.1104554047631
 10
141.9447611883814
 20
-416.1104554047631
 10
141.9447611883814
 20
-413.110455404763
 10
150.944761188381
 20
-413.110455404763
 10
150.944761188381
 20
-416.1104554047631
 10
159.944761188381
 20
-416.1104554047631
 10
159.944761188381
 20
-413.110455404763
 10
168.9447611883817
 20
-413.110455404763
 10
168.9447611883817
 20
-416.1104554047631
 10
177.9447611883813
 20
-416.1104554047631
 10
177.9447611883813
 20
-413.110455404763
 10
186.944761188381
 20
-413.110455404763
 10
186.944761188381
 20
-416.1104554047631
 10
195.9447611883807
 20
-416.1104554047631
 10
195.9447611883807
 20
-413.110455404763
 10
204.9447611883817
 20
-413.110455404763
 10
204.9447611883817
 20
-416.1104554047631
 10
211.9447611883813
 20
-416.1104554047631
 10
211.9447611883813
 20
-410.6104554047632
 10
214.9447611883807
 20
-410.6104554047632
 10
214.9447611883807
 20
-401.610455404763
 10
211.9447611883813
 20
-401.610455404763
 10
211.9447611883813
 20
-396.1104554047631
 10
62.9447611883818
 20
-396.1104554047631
 10
62.9447611883818
 20
-401.610455404763
 10
59.94476118838106
 20
-401.610455404763
 10
59.94476118838106
 20
-410.6104554047632
 10
62.9447611883818
 20
-410.6104554047632
 10
62.9447611883818
 20
-416.1104554047631
 10
69.9447611883814
 20
-416.1104554047631
 10
69.9447611883814
 20
-413.110455404763
 10
78.94476118838141
 20
-413.110455404763
  0
LWPOLYLINE
  5
172
330
70
100
AcDbEntity
  8
Layer 1
 62
    18
420
    65793
370
    25
100
AcDbPolyline
 90
       21
 70
     1
 43
0.0
 10
6.944761188381113
 20
-387.6104554047631
 10
3.944761188381328
 20
-387.6104554047631
 10
3.944761188381328
 20
-393.110455404763
 10
16.94476118838114
 20
-393.110455404763
 10
16.94476118838114
 20
-390.1104554047629
 10
25.94476118838082
 20
-390.1104554047629
 10
25.94476118838082
 20
-393.110455404763
 10
34.94476118838114
 20
-393.110455404763
 10
34.94476118838114
 20
-390.1104554047629
 10
43.94476118838177
 20
-390.1104554047629
 10
43.94476118838177
 20
-393.110455404763
 10
52.94476118838145
 20
-393.110455404763
 10
56.94476118838159
 20
-393.110455404763
 10
56.94476118838159
 20
-387.6104554047631
 10
53.94476118838085
 20
-387.6104554047631
 10
53.94476118838085
 20
-378.6104554047635
 10
56.94476118838159
 20
-378.6104554047635
 10
56.94476118838159
 20
-373.1104554047629
 10
3.944761188381328
 20
-373.1104554047629
 10
3.944761188381328
 20
-378.6104554047635
 10
6.944761188381113
 20
-378.6104554047635
  0
LWPOLYLINE
  5
173
330
70
100
AcDbEntity
  8
Layer 1
 62
    18
420
    65793
370
    25
100
AcDbPolyline
 90
       44
 70
     1
 43
0.0
 10
141.9447611883814
 20
-390.1104554047629
 10
150.944761188381
 20
-390.1104554047629
 10
150.944761188381
 20
-393.110455404763
 10
159.944761188381
 20
-393.110455404763
 10
159.944761188381
 20
-390.1104554047629
 10
168.9447611883817
 20
-390.1104554047629
 10
168.9447611883817
 20
-393.110455404763
 10
177.9447611883813
 20
-393.110455404763
 10
177.9447611883813
 20
-390.1104554047629
 10
186.944761188381
 20
-390.1104554047629
 10
186.944761188381
 20
-393.110455404763
 10
195.9447611883807
 20
-393.110455404763
 10
195.9447611883807
 20
-390.1104554047629
 10
204.9447611883817
 20
-390.1104554047629
 10
204.9447611883817
 20
-393.110455404763
 10
211.9447611883813
 20
-393.110455404763
 10
211.9447611883813
 20
-387.6104554047631
 10
214.9447611883807
 20
-387.6104554047631
 10
214.9447611883807
 20
-378.6104554047635
 10
211.9447611883813
 20
-378.6104554047635
 10
211.9447611883813
 20
-373.1104554047629
 10
62.9447611883818
 20
-373.1104554047629
 10
62.9447611883818
 20
-378.6104554047635
 10
59.94476118838106
 20
-378.6104554047635
 10
59.94476118838106
 20
-387.6104554047631
 10
62.9447611883818
 20
-387.6104554047631
 10
62.9447611883818
 20
-393.110455404763
 10
69.9447611883814
 20
-393.110455404763
 10
69.9447611883814
 20
-390.1104554047629
 10
78.94476118838141
 20
-390.1104554047629
 10
78.94476118838141
 20
-393.110455404763
 10
87.94476118838076
 20
-393.110455404763
 10
87.94476118838076
 20
-390.1104554047629
 10
96.94476118838172
 20
-390.1104554047629
 10
96.94476118838172
 20
-393.110455404763
 10
105.9447611883814
 20
-393.110455404763
 10
105.9447611883814
 20
-390.1104554047629
 10
114.9447611883811
 20
-390.1104554047629
 10
114.9447611883811
 20
-393.110455404763
 10
123.9447611883807
 20
-393.110455404763
 10
123.9447611883807
 20
-390.1104554047629
 10
132.9447611883817
 20
-390.1104554047629
 10
132.9447611883817
 20
-393.110455404763
 10
141.9447611883814
 20
-393.110455404763
  0
LWPOLYLINE
  5
174
330
70
100
AcDbEntity
  8
Layer 1
 62
    18
420
    65793
370
    25
100
AcDbPolyline
 90
       21
 70
     1
 43
0.0
 10
43.94476118838177
 20
-462.1104554047628
 10
52.94476118838145
 20
-462.1104554047628
 10
56.94476118838159
 20
-462.1104554047628
 10
56.94476118838159
 20
-456.610455404763
 10
53.94476118838085
 20
-456.610455404763
 10
53.94476118838085
 20
-447.6104554047633
 10
56.94476118838159
 20
-447.6104554047633
 10
56.94476118838159
 20
-442.1104554047635
 10
3.944761188381328
 20
-442.1104554047635
 10
3.944761188381328
 20
-447.6104554047633
 10
6.944761188381113
 20
-447.6104554047633
 10
6.944761188381113
 20
-456.610455404763
 10
3.944761188381328
 20
-456.610455404763
 10
3.944761188381328
 20
-462.1104554047628
 10
16.94476118838114
 20
-462.1104554047628
 10
16.94476118838114
 20
-459.1104554047634
 10
25.94476118838082
 20
-459.1104554047634
 10
25.94476118838082
 20
-462.1104554047628
 10
34.94476118838114
 20
-462.1104554047628
 10
34.94476118838114
 20
-459.1104554047634
 10
43.94476118838177
 20
-459.1104554047634
  0
LWPOLYLINE
  5
175
330
70
100
AcDbEntity
  8
Layer 1
 62
    18
420
    65793
370
    25
100
AcDbPolyline
 90
       44
 70
     1
 43
0.0
 10
78.94476118838141
 20
-462.1104554047628
 10
87.94476118838076
 20
-462.1104554047628
 10
87.94476118838076
 20
-459.1104554047634
 10
96.94476118838172
 20
-459.1104554047634
 10
96.94476118838172
 20
-462.1104554047628
 10
105.9447611883814
 20
-462.1104554047628
 10
105.9447611883814
 20
-459.1104554047634
 10
114.9447611883811
 20
-459.1104554047634
 10
114.9447611883811
 20
-462.1104554047628
 10
123.9447611883807
 20
-462.1104554047628
 10
123.9447611883807
 20
-459.1104554047634
 10
132.9447611883817
 20
-459.1104554047634
 10
132.9447611883817
 20
-462.1104554047628
 10
141.9447611883814
 20
-462.1104554047628
 10
141.9447611883814
 20
-459.1104554047634
 10
150.944761188381
 20
-459.1104554047634
 10
150.944761188381
 20
-462.1104554047628
 10
159.944761188381
 20
-462.1104554047628
 10
159.944761188381
 20
-459.1104554047634
 10
168.9447611883817
 20
-459.1104554047634
 10
168.9447611883817
 20
-462.1104554047628
 10
177.9447611883813
 20
-462.1104554047628
 10
177.9447611883813
 20
-459.1104554047634
 10
186.944761188381
 20
-459.1104554047634
 10
186.944761188381
 20
-462.1104554047628
 10
195.9447611883807
 20
-462.1104554047628
 10
195.9447611883807
 20
-459.1104554047634
 10
204.9447611883817
 20
-459.1104554047634
 10
204.9447611883817
 20
-462.1104554047628
 10
211.9447611883813
 20
-462.1104554047628
 10
211.9447611883813
 20
-456.610455404763
 10
214.9447611883807
 20
-456.610455404763
 10
214.9447611883807
 20
-447.6104554047633
 10
211.9447611883813
 20
-447.6104554047633
 10
211.9447611883813
 20
-442.1104554047635
 10
62.9447611883818
 20
-442.1104554047635
 10
62.9447611883818
 20
-447.6104554047633
 10
59.94476118838106
 20
-447.6104554047633
 10
59.94476118838106
 20
-456.610455404763
 10
62.9447611883818
 20
-456.610455404763
 10
62.9447611883818
 20
-462.1104554047628
 10
69.9447611883814
 20
-462.1104554047628
 10
69.9447611883814
 20
-459.1104554047634
 10
78.94476118838141
 20
-459.1104554047634
  0
LWPOLYLINE
  5
176
330
70
100
AcDbEntity
  8
Layer 1
 62
    18
420
    65793
370
    25
100
AcDbPolyline
 90
       21
 70
     1
 43
0.0
 10
6.944761188381113
 20
-433.6104554047628
 10
3.944761188381328
 20
-433.6104554047628
 10
3.944761188381328
 20
-439.1104554047633
 10
16.94476118838114
 20
-439.1104554047633
 10
16.94476118838114
 20
-436.1104554047632
 10
25.94476118838082
 20
-436.1104554047632
 10
25.94476118838082
 20
-439.1104554047633
 10
34.94476118838114
 20
-439.1104554047633
 10
34.94476118838114
 20
-436.1104554047632
 10
43.94476118838177
 20
-436.1104554047632
 10
43.94476118838177
 20
-439.1104554047633
 10
52.94476118838145
 20
-439.1104554047633
 10
56.94476118838159
 20
-439.1104554047633
 10
56.94476118838159
 20
-433.6104554047628
 10
53.94476118838085
 20
-433.6104554047628
 10
53.94476118838085
 20
-424.6104554047631
 10
56.94476118838159
 20
-424.6104554047631
 10
56.94476118838159
 20
-419.1104554047632
 10
3.944761188381328
 20
-419.1104554047632
 10
3.944761188381328
 20
-424.6104554047631
 10
6.944761188381113
 20
-424.6104554047631
  0
LWPOLYLINE
  5
177
330
70
100
AcDbEntity
  8
Layer 1
 62
    18
420
    65793
370
    25
100
AcDbPolyline
 90
       44
 70
     1
 43
0.0
 10
141.9447611883814
 20
-436.1104554047632
 10
150.944761188381
 20
-436.1104554047632
 10
150.944761188381
 20
-439.1104554047633
 10
159.944761188381
 20
-439.1104554047633
 10
159.944761188381
 20
-436.1104554047632
 10
168.9447611883817
 20
-436.1104554047632
 10
168.9447611883817
 20
-439.1104554047633
 10
177.9447611883813
 20
-439.1104554047633
 10
177.9447611883813
 20
-436.1104554047632
 10
186.944761188381
 20
-436.1104554047632
 10
186.944761188381
 20
-439.1104554047633
 10
195.9447611883807
 20
-439.1104554047633
 10
195.9447611883807
 20
-436.1104554047632
 10
204.9447611883817
 20
-436.1104554047632
 10
204.9447611883817
 20
-439.1104554047633
 10
211.9447611883813
 20
-439.1104554047633
 10
211.9447611883813
 20
-433.6104554047628
 10
214.9447611883807
 20
-433.6104554047628
 10
214.9447611883807
 20
-424.6104554047631
 10
211.9447611883813
 20
-424.6104554047631
 10
211.9447611883813
 20
-419.1104554047632
 10
62.9447611883818
 20
-419.1104554047632
 10
62.9447611883818
 20
-424.6104554047631
 10
59.94476118838106
 20
-424.6104554047631
 10
59.94476118838106
 20
-433.6104554047628
 10
62.9447611883818
 20
-433.6104554047628
 10
62.9447611883818
 20
-439.1104554047633
 10
69.9447611883814
 20
-439.1104554047633
 10
69.9447611883814
 20
-436.1104554047632
 10
78.94476118838141
 20
-436.1104554047632
 10
78.94476118838141
 20
-439.1104554047633
 10
87.94476118838076
 20
-439.1104554047633
 10
87.94476118838076
 20
-436.1104554047632
 10
96.94476118838172
 20
-436.1104554047632
 10
96.94476118838172
 20
-439.1104554047633
 10
105.9447611883814
 20
-439.1104554047633
 10
105.9447611883814
 20
-436.1104554047632
 10
114.9447611883811
 20
-436.1104554047632
 10
114.9447611883811
 20
-439.1104554047633
 10
123.9447611883807
 20
-439.1104554047633
 10
123.9447611883807
 20
-436.1104554047632
 10
132.9447611883817
 20
-436.1104554047632
 10
132.9447611883817
 20
-439.1104554047633
 10
141.9447611883814
 20
-439.1104554047633
  0
LWPOLYLINE
  5
178
330
70
100
AcDbEntity
  8
Layer 1
 62
    18
420
    65793
370
    25
100
AcDbPolyline
 90
       21
 70
     1
 43
0.0
 10
257.9447611883813
 20
-371.6104554047632
 10
266.9447611883813
 20
-371.6104554047632
 10
270.9447611883815
 20
-371.6104554047632
 10
270.9447611883815
 20
-366.1104554047633
 10
267.9447611883807
 20
-366.1104554047633
 10
267.9447611883807
 20
-357.110455404763
 10
270.9447611883815
 20
-357.110455404763
 10
270.9447611883815
 20
-351.6104554047638
 10
217.9447611883812
 20
-351.6104554047638
 10
217.9447611883812
 20
-357.110455404763
 10
220.944761188381
 20
-357.110455404763
 10
220.944761188381
 20
-366.1104554047633
 10
217.9447611883812
 20
-366.1104554047633
 10
217.9447611883812
 20
-371.6104554047632
 10
230.944761188381
 20
-371.6104554047632
 10
230.944761188381
 20
-368.6104554047631
 10
239.9447611883807
 20
-368.6104554047631
 10
239.9447611883807
 20
-371.6104554047632
 10
248.944761188381
 20
-371.6104554047632
 10
248.944761188381
 20
-368.6104554047631
 10
257.9447611883813
 20
-368.6104554047631
  0
LWPOLYLINE
  5
179
330
70
100
AcDbEntity
  8
Layer 1
 62
    18
420
    65793
370
    25
100
AcDbPolyline
 90
       44
 70
     1
 43
0.0
 10
292.9447611883809
 20
-371.6104554047632
 10
301.9447611883806
 20
-371.6104554047632
 10
301.9447611883806
 20
-368.6104554047631
 10
310.9447611883816
 20
-368.6104554047631
 10
310.9447611883816
 20
-371.6104554047632
 10
319.9447611883813
 20
-371.6104554047632
 10
319.9447611883813
 20
-368.6104554047631
 10
328.9447611883809
 20
-368.6104554047631
 10
328.9447611883809
 20
-371.6104554047632
 10
337.9447611883806
 20
-371.6104554047632
 10
337.9447611883806
 20
-368.6104554047631
 10
346.9447611883816
 20
-368.6104554047631
 10
346.9447611883816
 20
-371.6104554047632
 10
355.9447611883816
 20
-371.6104554047632
 10
355.9447611883816
 20
-368.6104554047631
 10
364.9447611883815
 20
-368.6104554047631
 10
364.9447611883815
 20
-371.6104554047632
 10
373.9447611883816
 20
-371.6104554047632
 10
373.9447611883816
 20
-368.6104554047631
 10
382.9447611883816
 20
-368.6104554047631
 10
382.9447611883816
 20
-371.6104554047632
 10
391.9447611883816
 20
-371.6104554047632
 10
391.9447611883816
 20
-368.6104554047631
 10
400.9447611883815
 20
-368.6104554047631
 10
400.9447611883815
 20
-371.6104554047632
 10
409.9447611883818
 20
-371.6104554047632
 10
409.9447611883818
 20
-368.6104554047631
 10
418.9447611883815
 20
-368.6104554047631
 10
418.9447611883815
 20
-371.6104554047632
 10
425.9447611883818
 20
-371.6104554047632
 10
425.9447611883818
 20
-366.1104554047633
 10
428.9447611883819
 20
-366.1104554047633
 10
428.9447611883819
 20
-357.110455404763
 10
425.9447611883818
 20
-357.110455404763
 10
425.9447611883818
 20
-351.6104554047638
 10
276.9447611883817
 20
-351.6104554047638
 10
276.9447611883817
 20
-357.110455404763
 10
273.944761188381
 20
-357.110455404763
 10
273.944761188381
 20
-366.1104554047633
 10
276.9447611883817
 20
-366.1104554047633
 10
276.9447611883817
 20
-371.6104554047632
 10
283.9447611883813
 20
-371.6104554047632
 10
283.9447611883813
 20
-368.6104554047631
 10
292.9447611883809
 20
-368.6104554047631
  0
LWPOLYLINE
  5
17A
330
70
100
AcDbEntity
  8
Layer 1
 62
    18
420
    65793
370
    25
100
AcDbPolyline
 90
       21
 70
     1
 43
0.0
 10
220.944761188381
 20
-343.1104554047638
 10
217.9447611883812
 20
-343.1104554047638
 10
217.9447611883812
 20
-348.6104554047637
 10
230.944761188381
 20
-348.6104554047637
 10
230.944761188381
 20
-345.6104554047642
 10
239.9447611883807
 20
-345.6104554047642
 10
239.9447611883807
 20
-348.6104554047637
 10
248.944761188381
 20
-348.6104554047637
 10
248.944761188381
 20
-345.6104554047642
 10
257.9447611883813
 20
-345.6104554047642
 10
257.9447611883813
 20
-348.6104554047637
 10
266.9447611883813
 20
-348.6104554047637
 10
270.9447611883815
 20
-348.6104554047637
 10
270.9447611883815
 20
-343.1104554047638
 10
267.9447611883807
 20
-343.1104554047638
 10
267.9447611883807
 20
-334.1104554047642
 10
270.9447611883815
 20
-334.1104554047642
 10
270.9447611883815
 20
-328.6104554047643
 10
217.9447611883812
 20
-328.6104554047643
 10
217.9447611883812
 20
-334.1104554047642
 10
220.944761188381
 20
-334.1104554047642
  0
LWPOLYLINE
  5
17B
330
70
100
AcDbEntity
  8
Layer 1
 62
    18
420
    65793
370
    25
100
AcDbPolyline
 90
       44
 70
     1
 43
0.0
 10
355.9447611883816
 20
-345.6104554047642
 10
364.9447611883815
 20
-345.6104554047642
 10
364.9447611883815
 20
-348.6104554047637
 10
373.9447611883816
 20
-348.6104554047637
 10
373.9447611883816
 20
-345.6104554047642
 10
382.9447611883816
 20
-345.6104554047642
 10
382.9447611883816
 20
-348.6104554047637
 10
391.9447611883816
 20
-348.6104554047637
 10
391.9447611883816
 20
-345.6104554047642
 10
400.9447611883815
 20
-345.6104554047642
 10
400.9447611883815
 20
-348.6104554047637
 10
409.9447611883818
 20
-348.6104554047637
 10
409.9447611883818
 20
-345.6104554047642
 10
418.9447611883815
 20
-345.6104554047642
 10
418.9447611883815
 20
-348.6104554047637
 10
425.9447611883818
 20
-348.6104554047637
 10
425.9447611883818
 20
-343.1104554047638
 10
428.9447611883819
 20
-343.1104554047638
 10
428.9447611883819
 20
-334.1104554047642
 10
425.9447611883818
 20
-334.1104554047642
 10
425.9447611883818
 20
-328.6104554047643
 10
276.9447611883817
 20
-328.6104554047643
 10
276.9447611883817
 20
-334.1104554047642
 10
273.944761188381
 20
-334.1104554047642
 10
273.944761188381
 20
-343.1104554047638
 10
276.9447611883817
 20
-343.1104554047638
 10
276.9447611883817
 20
-348.6104554047637
 10
283.9447611883813
 20
-348.6104554047637
 10
283.9447611883813
 20
-345.6104554047642
 10
292.9447611883809
 20
-345.6104554047642
 10
292.9447611883809
 20
-348.6104554047637
 10
301.9447611883806
 20
-348.6104554047637
 10
301.9447611883806
 20
-345.6104554047642
 10
310.9447611883816
 20
-345.6104554047642
 10
310.9447611883816
 20
-348.6104554047637
 10
319.9447611883813
 20
-348.6104554047637
 10
319.9447611883813
 20
-345.6104554047642
 10
328.9447611883809
 20
-345.6104554047642
 10
328.9447611883809
 20
-348.6104554047637
 10
337.9447611883806
 20
-348.6104554047637
 10
337.9447611883806
 20
-345.6104554047642
 10
346.9447611883816
 20
-345.6104554047642
 10
346.9447611883816
 20
-348.6104554047637
 10
355.9447611883816
 20
-348.6104554047637
  0
LWPOLYLINE
  5
17C
330
70
100
AcDbEntity
  8
Layer 1
 62
    18
420
    65793
370
    25
100
AcDbPolyline
 90
       21
 70
     1
 43
0.0
 10
257.9447611883804
 20
-417.6104554047628
 10
266.9447611883803
 20
-417.6104554047628
 10
270.9447611883805
 20
-417.6104554047628
 10
270.9447611883805
 20
-412.1104554047629
 10
267.9447611883797
 20
-412.1104554047629
 10
267.9447611883797
 20
-403.1104554047633
 10
270.9447611883805
 20
-403.1104554047633
 10
270.9447611883805
 20
-397.6104554047628
 10
217.9447611883802
 20
-397.6104554047628
 10
217.9447611883802
 20
-403.1104554047633
 10
220.9447611883797
 20
-403.1104554047633
 10
220.9447611883797
 20
-412.1104554047629
 10
217.9447611883802
 20
-412.1104554047629
 10
217.9447611883802
 20
-417.6104554047628
 10
230.94476118838
 20
-417.6104554047628
 10
230.94476118838
 20
-414.6104554047634
 10
239.9447611883797
 20
-414.6104554047634
 10
239.9447611883797
 20
-417.6104554047628
 10
248.9447611883803
 20
-417.6104554047628
 10
248.9447611883803
 20
-414.6104554047634
 10
257.9447611883804
 20
-414.6104554047634
  0
LWPOLYLINE
  5
17D
330
70
100
AcDbEntity
  8
Layer 1
 62
    18
420
    65793
370
    25
100
AcDbPolyline
 90
       44
 70
     1
 43
0.0
 10
292.94476118838
 20
-417.6104554047628
 10
301.9447611883793
 20
-417.6104554047628
 10
301.9447611883793
 20
-414.6104554047634
 10
310.9447611883806
 20
-414.6104554047634
 10
310.9447611883806
 20
-417.6104554047628
 10
319.9447611883803
 20
-417.6104554047628
 10
319.9447611883803
 20
-414.6104554047634
 10
328.94476118838
 20
-414.6104554047634
 10
328.94476118838
 20
-417.6104554047628
 10
337.9447611883796
 20
-417.6104554047628
 10
337.9447611883796
 20
-414.6104554047634
 10
346.9447611883806
 20
-414.6104554047634
 10
346.9447611883806
 20
-417.6104554047628
 10
355.9447611883816
 20
-417.6104554047628
 10
355.9447611883816
 20
-414.6104554047634
 10
364.9447611883815
 20
-414.6104554047634
 10
364.9447611883815
 20
-417.6104554047628
 10
373.944761188378
 20
-417.6104554047628
 10
373.944761188378
 20
-414.6104554047634
 10
382.9447611883816
 20
-414.6104554047634
 10
382.9447611883816
 20
-417.6104554047628
 10
391.9447611883816
 20
-417.6104554047628
 10
391.9447611883816
 20
-414.6104554047634
 10
400.9447611883783
 20
-414.6104554047634
 10
400.9447611883783
 20
-417.6104554047628
 10
409.944761188378
 20
-417.6104554047628
 10
409.944761188378
 20
-414.6104554047634
 10
418.9447611883815
 20
-414.6104554047634
 10
418.9447611883815
 20
-417.6104554047628
 10
425.9447611883818
 20
-417.6104554047628
 10
425.9447611883818
 20
-412.1104554047629
 10
428.944761188378
 20
-412.1104554047629
 10
428.944761188378
 20
-403.1104554047633
 10
425.9447611883818
 20
-403.1104554047633
 10
425.9447611883818
 20
-397.6104554047628
 10
276.9447611883807
 20
-397.6104554047628
 10
276.9447611883807
 20
-403.1104554047633
 10
273.94476118838
 20
-403.1104554047633
 10
273.94476118838
 20
-412.1104554047629
 10
276.9447611883807
 20
-412.1104554047629
 10
276.9447611883807
 20
-417.6104554047628
 10
283.9447611883803
 20
-417.6104554047628
 10
283.9447611883803
 20
-414.6104554047634
 10
292.94476118838
 20
-414.6104554047634
  0
LWPOLYLINE
  5
17E
330
70
100
AcDbEntity
  8
Layer 1
 62
    18
420
    65793
370
    25
100
AcDbPolyline
 90
       21
 70
     1
 43
0.0
 10
220.9447611883797
 20
-389.1104554047635
 10
217.9447611883802
 20
-389.1104554047635
 10
217.9447611883802
 20
-394.6104554047634
 10
230.94476118838
 20
-394.6104554047634
 10
230.94476118838
 20
-391.6104554047633
 10
239.9447611883797
 20
-391.6104554047633
 10
239.9447611883797
 20
-394.6104554047634
 10
248.9447611883803
 20
-394.6104554047634
 10
248.9447611883803
 20
-391.6104554047633
 10
257.9447611883804
 20
-391.6104554047633
 10
257.9447611883804
 20
-394.6104554047634
 10
266.9447611883803
 20
-394.6104554047634
 10
270.9447611883805
 20
-394.6104554047634
 10
270.9447611883805
 20
-389.1104554047635
 10
267.9447611883797
 20
-389.1104554047635
 10
267.9447611883797
 20
-380.1104554047632
 10
270.9447611883805
 20
-380.1104554047632
 10
270.9447611883805
 20
-374.6104554047633
 10
217.9447611883802
 20
-374.6104554047633
 10
217.9447611883802
 20
-380.1104554047632
 10
220.9447611883797
 20
-380.1104554047632
  0
LWPOLYLINE
  5
17F
330
70
100
AcDbEntity
  8
Layer 1
 62
    18
420
    65793
370
    25
100
AcDbPolyline
 90
       44
 70
     1
 43
0.0
 10
355.9447611883816
 20
-391.6104554047633
 10
364.9447611883815
 20
-391.6104554047633
 10
364.9447611883815
 20
-394.6104554047634
 10
373.944761188378
 20
-394.6104554047634
 10
373.944761188378
 20
-391.6104554047633
 10
382.9447611883816
 20
-391.6104554047633
 10
382.9447611883816
 20
-394.6104554047634
 10
391.9447611883816
 20
-394.6104554047634
 10
391.9447611883816
 20
-391.6104554047633
 10
400.9447611883783
 20
-391.6104554047633
 10
400.9447611883783
 20
-394.6104554047634
 10
409.944761188378
 20
-394.6104554047634
 10
409.944761188378
 20
-391.6104554047633
 10
418.9447611883815
 20
-391.6104554047633
 10
418.9447611883815
 20
-394.6104554047634
 10
425.9447611883818
 20
-394.6104554047634
 10
425.9447611883818
 20
-389.1104554047635
 10
428.944761188378
 20
-389.1104554047635
 10
428.944761188378
 20
-380.1104554047632
 10
425.9447611883818
 20
-380.1104554047632
 10
425.9447611883818
 20
-374.6104554047633
 10
276.9447611883807
 20
-374.6104554047633
 10
276.9447611883807
 20
-380.1104554047632
 10
273.94476118838
 20
-380.1104554047632
 10
273.94476118838
 20
-389.1104554047635
 10
276.9447611883807
 20
-389.1104554047635
 10
276.9447611883807
 20
-394.6104554047634
 10
283.9447611883803
 20
-394.6104554047634
 10
283.9447611883803
 20
-391.6104554047633
 10
292.94476118838
 20
-391.6104554047633
 10
292.94476118838
 20
-394.6104554047634
 10
301.9447611883793
 20
-394.6104554047634
 10
301.9447611883793
 20
-391.6104554047633
 10
310.9447611883806
 20
-391.6104554047633
 10
310.9447611883806
 20
-394.6104554047634
 10
319.9447611883803
 20
-394.6104554047634
 10
319.9447611883803
 20
-391.6104554047633
 10
328.94476118838
 20
-391.6104554047633
 10
328.94476118838
 20
-394.6104554047634
 10
337.9447611883796
 20
-394.6104554047634
 10
337.9447611883796
 20
-391.6104554047633
 10
346.9447611883806
 20
-391.6104554047633
 10
346.9447611883806
 20
-394.6104554047634
 10
355.9447611883816
 20
-394.6104554047634
  0
LWPOLYLINE
  5
180
330
70
100
AcDbEntity
  8
Layer 1
 62
    18
420
    65793
370
    25
100
AcDbPolyline
 90
       86
 70
     1
 43
0.0
 10
487.2931244658631
 20
-327.803550515674
 10
487.2931244658631
 20
-336.8035505156743
 10
490.2931244658632
 20
-336.8035505156743
 10
490.2931244658632
 20
-343.8035505156739
 10
500.2931244658667
 20
-343.8035505156739
 10
500.2931244658667
 20
-346.803550515674
 10
509.2931244658633
 20
-346.803550515674
 10
509.2931244658633
 20
-343.8035505156739
 10
518.2931244658629
 20
-343.8035505156739
 10
518.2931244658629
 20
-346.803550515674
 10
527.2931244658632
 20
-346.803550515674
 10
527.2931244658632
 20
-343.8035505156739
 10
536.2931244658629
 20
-343.8035505156739
 10
537.2931244658629
 20
-343.8035505156739
 10
537.2931244658629
 20
-336.8035505156743
 10
540.293124465863
 20
-336.8035505156743
 10
540.293124465863
 20
-327.803550515674
 10
537.2931244658629
 20
-327.803550515674
 10
537.2931244658629
 20
-318.8035505156743
 10
540.293124465863
 20
-318.8035505156743
 10
540.293124465863
 20
-309.803550515674
 10
537.2931244658629
 20
-309.803550515674
 10
537.2931244658629
 20
-300.8035505156744
 10
540.293124465863
 20
-300.8035505156744
 10
540.293124465863
 20
-291.8035505156741
 10
537.2931244658629
 20
-291.8035505156741
 10
537.2931244658629
 20
-282.8035505156744
 10
540.293124465863
 20
-282.8035505156744
 10
540.293124465863
 20
-273.803550515674
 10
537.2931244658629
 20
-273.803550515674
 10
537.2931244658629
 20
-264.8035505156744
 10
540.293124465863
 20
-264.8035505156744
 10
540.293124465863
 20
-255.803550515674
 10
537.2931244658629
 20
-255.803550515674
 10
537.2931244658629
 20
-246.8035505156744
 10
540.293124465863
 20
-246.8035505156744
 10
540.293124465863
 20
-237.8035505156741
 10
537.2931244658629
 20
-237.8035505156741
 10
537.2931244658629
 20
-228.8035505156744
 10
540.293124465863
 20
-228.8035505156744
 10
540.293124465863
 20
-219.8035505156741
 10
537.2931244658629
 20
-219.8035505156741
 10
537.2931244658629
 20
-210.8035505156744
 10
540.293124465863
 20
-210.8035505156744
 10
540.293124465863
 20
-201.8035505156741
 10
537.2931244658629
 20
-201.8035505156741
 10
537.2931244658629
 20
-194.8035505156738
 10
527.2931244658632
 20
-194.8035505156738
 10
527.2931244658632
 20
-191.8035505156743
 10
518.2931244658629
 20
-191.8035505156743
 10
518.2931244658629
 20
-194.8035505156738
 10
509.2931244658633
 20
-194.8035505156738
 10
509.2931244658633
 20
-191.8035505156743
 10
500.2931244658667
 20
-191.8035505156743
 10
500.2931244658667
 20
-194.8035505156738
 10
491.2931244658633
 20
-194.8035505156738
 10
490.2931244658632
 20
-194.8035505156738
 10
490.2931244658632
 20
-201.8035505156741
 10
487.2931244658631
 20
-201.8035505156741
 10
487.2931244658631
 20
-210.8035505156744
 10
490.2931244658632
 20
-210.8035505156744
 10
490.2931244658632
 20
-219.8035505156741
 10
487.2931244658631
 20
-219.8035505156741
 10
487.2931244658631
 20
-228.8035505156744
 10
490.2931244658632
 20
-228.8035505156744
 10
490.2931244658632
 20
-237.8035505156741
 10
487.2931244658631
 20
-237.8035505156741
 10
487.2931244658631
 20
-246.8035505156744
 10
490.2931244658632
 20
-246.8035505156744
 10
490.2931244658632
 20
-255.803550515674
 10
487.2931244658631
 20
-255.803550515674
 10
487.2931244658631
 20
-264.8035505156744
 10
490.2931244658632
 20
-264.8035505156744
 10
490.2931244658632
 20
-273.803550515674
 10
487.2931244658631
 20
-273.803550515674
 10
487.2931244658631
 20
-282.8035505156744
 10
490.2931244658632
 20
-282.8035505156744
 10
490.2931244658632
 20
-291.8035505156741
 10
487.2931244658631
 20
-291.8035505156741
 10
487.2931244658631
 20
-300.8035505156744
 10
490.2931244658632
 20
-300.8035505156744
 10
490.2931244658632
 20
-309.803550515674
 10
487.2931244658631
 20
-309.803550515674
 10
487.2931244658631
 20
-318.8035505156743
 10
490.2931244658632
 20
-318.8035505156743
 10
490.2931244658632
 20
-327.803550515674
  0
LWPOLYLINE
  5
181
330
70
100
AcDbEntity
  8
Layer 1
 62
    18
420
    65793
370
    25
100
AcDbPolyline
 90
       86
 70
     1
 43
0.0
 10
542.5242407076328
 20
-329.3035505156737
 10
542.5242407076328
 20
-338.3035505156741
 10
545.524240707633
 20
-338.3035505156741
 10
545.524240707633
 20
-345.3035505156737
 10
555.5242407076333
 20
-345.3035505156737
 10
555.5242407076333
 20
-348.3035505156738
 10
564.524240707633
 20
-348.3035505156738
 10
564.524240707633
 20
-345.3035505156737
 10
573.5242407076333
 20
-345.3035505156737
 10
573.5242407076333
 20
-348.3035505156738
 10
582.524240707633
 20
-348.3035505156738
 10
582.524240707633
 20
-345.3035505156737
 10
591.5242407076333
 20
-345.3035505156737
 10
592.5242407076333
 20
-345.3035505156737
 10
592.5242407076333
 20
-338.3035505156741
 10
595.5242407076334
 20
-338.3035505156741
 10
595.5242407076334
 20
-329.3035505156737
 10
592.5242407076333
 20
-329.3035505156737
 10
592.5242407076333
 20
-320.3035505156741
 10
595.5242407076334
 20
-320.3035505156741
 10
595.5242407076334
 20
-311.3035505156738
 10
592.5242407076333
 20
-311.3035505156738
 10
592.5242407076333
 20
-302.3035505156741
 10
595.5242407076334
 20
-302.3035505156741
 10
595.5242407076334
 20
-293.3035505156738
 10
592.5242407076333
 20
-293.3035505156738
 10
592.5242407076333
 20
-284.3035505156741
 10
595.5242407076334
 20
-284.3035505156741
 10
595.5242407076334
 20
-275.3035505156737
 10
592.5242407076333
 20
-275.3035505156737
 10
592.5242407076333
 20
-266.3035505156741
 10
595.5242407076334
 20
-266.3035505156741
 10
595.5242407076334
 20
-257.3035505156738
 10
592.5242407076333
 20
-257.3035505156738
 10
592.5242407076333
 20
-248.3035505156741
 10
595.5242407076334
 20
-248.3035505156741
 10
595.5242407076334
 20
-239.3035505156738
 10
592.5242407076333
 20
-239.3035505156738
 10
592.5242407076333
 20
-230.3035505156741
 10
595.5242407076334
 20
-230.3035505156741
 10
595.5242407076334
 20
-221.3035505156738
 10
592.5242407076333
 20
-221.3035505156738
 10
592.5242407076333
 20
-212.3035505156741
 10
595.5242407076334
 20
-212.3035505156741
 10
595.5242407076334
 20
-203.3035505156738
 10
592.5242407076333
 20
-203.3035505156738
 10
592.5242407076333
 20
-196.3035505156735
 10
582.524240707633
 20
-196.3035505156735
 10
582.524240707633
 20
-193.3035505156741
 10
573.5242407076333
 20
-193.3035505156741
 10
573.5242407076333
 20
-196.3035505156735
 10
564.524240707633
 20
-196.3035505156735
 10
564.524240707633
 20
-193.3035505156741
 10
555.5242407076333
 20
-193.3035505156741
 10
555.5242407076333
 20
-196.3035505156735
 10
546.5242407076329
 20
-196.3035505156735
 10
545.524240707633
 20
-196.3035505156735
 10
545.524240707633
 20
-203.3035505156738
 10
542.5242407076328
 20
-203.3035505156738
 10
542.5242407076328
 20
-212.3035505156741
 10
545.524240707633
 20
-212.3035505156741
 10
545.524240707633
 20
-221.3035505156738
 10
542.5242407076328
 20
-221.3035505156738
 10
542.5242407076328
 20
-230.3035505156741
 10
545.524240707633
 20
-230.3035505156741
 10
545.524240707633
 20
-239.3035505156738
 10
542.5242407076328
 20
-239.3035505156738
 10
542.5242407076328
 20
-248.3035505156741
 10
545.524240707633
 20
-248.3035505156741
 10
545.524240707633
 20
-257.3035505156738
 10
542.5242407076328
 20
-257.3035505156738
 10
542.5242407076328
 20
-266.3035505156741
 10
545.524240707633
 20
-266.3035505156741
 10
545.524240707633
 20
-275.3035505156737
 10
542.5242407076328
 20
-275.3035505156737
 10
542.5242407076328
 20
-284.3035505156741
 10
545.524240707633
 20
-284.3035505156741
 10
545.524240707633
 20
-293.3035505156738
 10
542.5242407076328
 20
-293.3035505156738
 10
542.5242407076328
 20
-302.3035505156741
 10
545.524240707633
 20
-302.3035505156741
 10
545.524240707633
 20
-311.3035505156738
 10
542.5242407076328
 20
-311.3035505156738
 10
542.5242407076328
 20
-320.3035505156741
 10
545.524240707633
 20
-320.3035505156741
 10
545.524240707633
 20
-329.3035505156737
  0
LWPOLYLINE
  5
182
330
70
100
AcDbEntity
  8
Layer 1
 62
    18
420
    65793
370
    25
100
AcDbPolyline
 90
       86
 70
     1
 43
0.0
 10
285.7758653340503
 20
-422.4557629730353
 10
276.7759250277015
 20
-422.488542267454
 10
276.7868514591748
 20
-425.48852236957
 10
269.7868978875702
 20
-425.5140173763413
 10
269.8233193258148
 20
-435.5139510500652
 10
266.8233392236975
 20
-435.5248774815373
 10
266.856118518118
 20
-444.5248177878862
 10
269.8560986202354
 20
-444.5138913564141
 10
269.888877914656
 20
-453.513831662763
 10
266.8888978125386
 20
-453.524758094235
 10
266.9216771069592
 20
-462.5246984005872
 10
269.9216572090766
 20
-462.5137719691119
 10
269.9544365034971
 20
-471.5137122754639
 10
269.9580786473218
 20
-472.5137056428358
 10
276.9580322189264
 20
-472.4882106360612
 10
276.9689586503997
 20
-475.4881907381812
 10
285.9688989567493
 20
-475.4554114437588
 10
285.9579725252759
 20
-472.4554313416426
 10
294.9579128316248
 20
-472.4226520472201
 10
294.9688392630988
 20
-475.42263214934
 10
303.968779569449
 20
-475.3898528549175
 10
303.9578531379756
 20
-472.3898727528014
 10
312.9577934443251
 20
-472.3570934583789
 10
312.9687198757985
 20
-475.3570735604989
 10
321.968660182148
 20
-475.3242942660763
 10
321.957733750674
 20
-472.3243141639603
 10
330.9576740570236
 20
-472.2915348695377
 10
330.9686004884972
 20
-475.2915149716577
 10
339.9685407948477
 20
-475.2587356772352
 10
339.9576143633744
 20
-472.2587555751191
 10
348.9575546697239
 20
-472.2259762807005
 10
348.9684811011972
 20
-475.2259563828165
 10
357.9684214075477
 20
-475.193177088394
 10
357.9574949760721
 20
-472.1931969862779
 10
366.957435282421
 20
-472.1604176918592
 10
366.9683617138962
 20
-475.1603977939754
 10
375.9683020202451
 20
-475.1276184995528
 10
375.9573755887734
 20
-472.1276383974368
 10
384.957315895122
 20
-472.0948591030181
 10
384.9682423265975
 20
-475.0948392051341
 10
393.9681826329461
 20
-475.0620599107117
 10
393.9572562014708
 20
-472.0620798085956
 10
402.9571965078197
 20
-472.0293005141769
 10
402.968122939295
 20
-475.029280616293
 10
411.9680632456438
 20
-474.9965013218704
 10
411.9571368141718
 20
-471.9965212197544
 10
418.9570903857764
 20
-471.9710262129837
 10
418.9206689475299
 20
-461.9710925392624
 10
421.9206490496466
 20
-461.9601661077871
 10
421.8878697552272
 20
-452.9602258014383
 10
418.8878896531112
 20
-452.9711522329136
 10
418.8551103586886
 20
-443.9712119265614
 10
421.8550904608054
 20
-443.9602854950894
 10
421.8223111663861
 20
-434.9603451887412
 10
418.82233106427
 20
-434.9712716202126
 10
418.7895517698475
 20
-425.9713313138637
 10
418.7859096260241
 20
-424.9713379464919
 10
411.7859560544195
 20
-424.9968329532632
 10
411.7750296229475
 20
-421.9968528511464
 10
402.7750893165954
 20
-422.0296321455657
 10
402.7860157480707
 20
-425.0296122476818
 10
393.7860754417183
 20
-425.0623915421043
 10
393.7751490102465
 20
-422.0624114399877
 10
384.7752087038977
 20
-422.0951907344069
 10
384.7861351353694
 20
-425.095170836523
 10
375.7861948290208
 20
-425.1279501309455
 10
375.7752683975488
 20
-422.1279700288288
 10
366.7753280911967
 20
-422.1607493232481
 10
366.786254522672
 20
-425.1607294253641
 10
357.7863142163196
 20
-425.1935087197867
 10
357.7753877848479
 20
-422.19352861767
 10
348.7754474784984
 20
-422.2263079120892
 10
348.7863739099723
 20
-425.2262880142054
 10
339.7864336036227
 20
-425.2590673086278
 10
339.7755071721495
 20
-422.2590872065111
 10
330.7755668657986
 20
-422.2918665009305
 10
330.7864932972719
 20
-425.2918466030465
 10
321.7865529909224
 20
-425.324625897469
 10
321.7756265594491
 20
-422.3246457953529
 10
312.7756862530996
 20
-422.3574250897716
 10
312.7866126845739
 20
-425.3574051918877
 10
303.786672378224
 20
-425.3901844863102
 10
303.7757459467507
 20
-422.3902043841942
 10
294.7758056404
 20
-422.4229836786127
 10
294.7867320718732
 20
-425.4229637807289
 10
285.7867917655243
 20
-425.4557430751514
  0
LWPOLYLINE
  5
183
330
70
100
AcDbEntity
  8
Layer 1
 62
    18
420
    65793
370
    25
100
AcDbPolyline
 90
       86
 70
     1
 43
0.0
 10
450.8836743344152
 20
-352.0733423361585
 10
441.8837730205869
 20
-352.1154890014185
 10
441.897821909008
 20
-355.1154561060251
 10
434.897898664922
 20
-355.1482368456726
 10
434.944728292986
 20
-365.1481271943698
 10
431.9447611883813
 20
-365.1621760827908
 10
431.9869078536401
 20
-374.1620773966152
 10
434.9868749582486
 20
-374.1480285081948
 10
435.0290216235105
 20
-383.1479298220224
 10
432.0290545188988
 20
-383.1619787104434
 10
432.0712011841608
 20
-392.1618800242678
 10
435.0711682887686
 20
-392.1478311358474
 10
435.1133149540274
 20
-401.147732449675
 10
435.1179979168366
 20
-402.1477214845445
 10
442.1179211609225
 20
-402.1149407448977
 10
442.1319700493429
 20
-405.1149078495056
 10
451.1318713631673
 20
-405.0727611842436
 10
451.1178224747508
 20
-402.072794079635
 10
460.1177237885751
 20
-402.030647414377
 10
460.1317726769956
 20
-405.0306145189849
 10
469.13167399082
 20
-404.9884678537268
 10
469.1176251023995
 20
-401.9885007491151
 10
478.1175264162278
 20
-401.9463540838563
 10
478.1315753046444
 20
-404.9463211884642
 10
487.1314766184727
 20
-404.9041745232061
 10
487.1174277300521
 20
-401.9042074185944
 10
496.1173290438804
 20
-401.8620607533356
 10
496.131377932297
 20
-404.8620278579441
 10
505.1312792461253
 20
-404.8198811926854
 10
505.1172303577048
 20
-401.8199140880737
 10
514.1171316715293
 20
-401.7777674228149
 10
514.1311805599497
 20
-404.7777345274235
 10
523.1310818737779
 20
-404.7355878621648
 10
523.1170329853575
 20
-401.7356207575568
 10
532.1169342991818
 20
-401.6934740922943
 10
532.1309831876022
 20
-404.6934411969028
 10
541.1308845014266
 20
-404.6512945316441
 10
541.1168356130101
 20
-401.6513274270362
 10
550.1167369268345
 20
-401.6091807617742
 10
550.1307858152549
 20
-404.6091478663822
 10
559.1306871290793
 20
-404.5670012011234
 10
559.1166382406627
 20
-401.5670340965155
 10
568.116539554487
 20
-401.5248874312535
 10
568.1305884429075
 20
-404.5248545358615
 10
577.1304897567318
 20
-404.4827078706028
 10
577.1164408683115
 20
-401.4827407659948
 10
584.1163641124007
 20
-401.449960026348
 10
584.0695344843328
 20
-391.4500696776542
 10
587.0695015889414
 20
-391.4360207892331
 10
587.0273549236826
 20
-382.4361194754055
 10
584.0273878190747
 20
-382.450168363826
 10
583.9852411538121
 20
-373.4502670500015
 10
586.9852082584206
 20
-373.4362181615804
 10
586.9430615931618
 20
-364.4363168477529
 10
583.943094488554
 20
-364.4503657361733
 10
583.900947823292
 20
-355.4504644223489
 10
583.896264860486
 20
-354.4504753874794
 10
576.8963416164001
 20
-354.4832561271262
 10
576.8822927279797
 20
-351.4832890225164
 10
567.8823914141514
 20
-351.5254356877763
 10
567.8964403025726
 20
-354.5254027923849
 10
558.8965389887476
 20
-354.5675494576469
 10
558.882490100327
 20
-351.5675823530364
 10
549.8825887864988
 20
-351.6097290182971
 10
549.8966376749199
 20
-354.6096961229056
 10
540.8967363610956
 20
-354.6518427881644
 10
540.8826874726744
 20
-351.6518756835571
 10
531.88278615885
 20
-351.6940223488171
 10
531.8968350472673
 20
-354.6939894534262
 10
522.8969337334429
 20
-354.7361361186844
 10
522.8828848450218
 20
-351.736169014077
 10
513.8829835311973
 20
-351.7783156793371
 10
513.8970324196146
 20
-354.778282783947
 10
504.8971311057902
 20
-354.820429449205
 10
504.8830822173692
 20
-351.8204623445978
 10
495.8831809035448
 20
-351.8626090098578
 10
495.8972297919652
 20
-354.8625761144669
 10
486.8973284781376
 20
-354.9047227797257
 10
486.8832795897204
 20
-351.9047556751178
 10
477.8833782758922
 20
-351.9469023403778
 10
477.8974271643132
 20
-354.9468694449877
 10
468.897525850485
 20
-354.9890161102464
 10
468.8834769620678
 20
-351.9890490056378
 10
459.8835756482396
 20
-352.0311956708978
 10
459.8976245366606
 20
-355.0311627755083
 10
450.8977232228356
 20
-355.0733094407671
  0
INSERT
  5
185
330
70
100
AcDbEntity
  8
Layer 1
100
AcDbBlockReference
  2
Block_5
 10
0.0
 20
0.0
 30
0.0
  0
LWPOLYLINE
  5
18B
330
70
100
AcDbEntity
  8
Layer 1
 62
    18
420
    65793
370
    25
100
AcDbPolyline
 90
       78
 70
     1
 43
0.0
 10
310.4467416850698
 20
-87.71658107313886
 10
316.44674168507
 20
-87.71658107313886
 10
316.44674168507
 20
-90.71658107313895
 10
322.4467416850695
 20
-90.71658107313895
 10
322.4467416850695
 20
-87.71658107313886
 10
328.4467416850691
 20
-87.71658107313886
 10
328.4467416850691
 20
-90.71658107313895
 10
334.4467416850693
 20
-90.71658107313895
 10
334.4467416850693
 20
-87.71658107313886
 10
337.4465405850692
 20
-87.71658107313886
 10
340.4463395850696
 20
-87.71658107313886
 10
340.4463395850696
 20
-90.71658107313895
 10
346.4463395850692
 20
-90.71658107313895
 10
346.4463395850692
 20
-87.71658107313886
 10
352.4463395850688
 20
-87.71658107313886
 10
352.4463395850688
 20
-90.71658107313895
 10
358.4463395850706
 20
-90.71658107313895
 10
358.4463395850706
 20
-87.71658107313886
 10
364.4463395850705
 20
-87.71658107313886
 10
364.4463395850705
 20
-90.71658107313895
 10
370.4463395850706
 20
-90.71658107313895
 10
370.4463395850706
 20
-87.71658107313886
 10
376.4463395850706
 20
-87.71658107313886
 10
376.4463395850706
 20
-90.71658107313895
 10
382.4463395850672
 20
-90.71658107313895
 10
382.4463395850672
 20
-87.71658107313886
 10
388.7131384850686
 20
-87.71658107313886
 10
391.2066331850675
 20
-87.56053437313871
 10
393.6612176850696
 20
-87.09482947313885
 10
396.0385890850692
 20
-86.32673347313906
 10
398.3016492850691
 20
-85.2682322731391
 10
400.4150839850678
 20
-83.93584347313918
 10
402.3459136850676
 20
-82.35035847313893
 10
404.0640085850693
 20
-80.53651827313897
 10
405.5425581850693
 20
-78.52262717313867
 10
406.7584903850679
 20
-76.34011137313923
 10
407.6928308850678
 20
-74.02302827313871
 10
408.330999685068
 20
-71.60753527313866
 10
408.663038285067
 20
-69.13132507313919
 10
408.7131384850683
 20
-67.71658107313879
 10
408.7131384850683
 20
-64.71658107313901
 10
411.7131384850684
 20
-64.71658107313901
 10
411.7131384850684
 20
-61.71658107313922
 10
408.7131384850683
 20
-61.71658107313922
 10
408.7131384850683
 20
-58.71658107313911
 10
340.4463395850696
 20
-58.71658107313911
 10
338.9465405850689
 20
-58.71658107313911
 10
338.9465405850689
 20
-73.21658107313834
 10
335.9465405850698
 20
-73.21658107313834
 10
335.9465405850698
 20
-58.71658107313911
 10
266.1799426850695
 20
-58.71658107313911
 10
266.1799426850695
 20
-59.70412197313933
 10
266.1799426850695
 20
-61.71658107313922
 10
263.1799426850701
 20
-61.71658107313922
 10
263.1799426850701
 20
-64.71658107313901
 10
266.1799426850695
 20
-64.71658107313901
 10
266.1799426850695
 20
-65.70412197313891
 10
266.1799426850695
 20
-67.71658107313879
 10
266.3359893850703
 20
-70.21007577313897
 10
266.8016942850695
 20
-72.66466027313889
 10
267.5697902850699
 20
-75.04203167313939
 10
268.6282914850699
 20
-77.30509187313869
 10
269.9606802850701
 20
-79.41852657313908
 10
271.54616528507
 20
-81.34935627313881
 10
273.3600055850698
 20
-83.06745107313883
 10
275.3738965850697
 20
-84.54600077313919
 10
277.5564123850697
 20
-85.76193297313913
 10
279.8734954850697
 20
-86.69627347313911
 10
282.2889885850695
 20
-87.33444217313877
 10
284.7651986850701
 20
-87.66648077313908
 10
286.1799426850695
 20
-87.71658107313886
 10
292.4467416850691
 20
-87.71658107313886
 10
292.4467416850691
 20
-90.71658107313895
 10
298.4467416850693
 20
-90.71658107313895
 10
298.4467416850693
 20
-87.71658107313886
 10
304.4467416850695
 20
-87.71658107313886
 10
304.4467416850695
 20
-90.71658107313895
 10
310.4467416850698
 20
-90.71658107313895
  0
LINE
  5
18C
330
70
100
AcDbEntity
  8
Layer 1
 62
    18
420
    65793
370
    25
100
AcDbLine
 10
266.1799426850695
 20
-59.70412197313933
 30
0.0
 11
266.1799426850695
 21
-61.71658107313922
 31
0.0
  0
LINE
  5
18D
330
70
100
AcDbEntity
  8
Layer 1
 62
    18
420
    65793
370
    25
100
AcDbLine
 10
263.1799426850701
 20
-64.71658107313901
 30
0.0
 11
263.1799426850701
 21
-61.71658107313922
 31
0.0
  0
LINE
  5
18E
330
70
100
AcDbEntity
  8
Layer 1
 62
    18
420
    65793
370
    25
100
AcDbLine
 10
411.7131384850684
 20
-64.71658107313901
 30
0.0
 11
411.7131384850684
 21
-61.71658107313922
 31
0.0
  0
LWPOLYLINE
  5
18F
330
70
100
AcDbEntity
  8
Layer 1
 62
    18
420
    65793
370
    25
100
AcDbPolyline
 90
       78
 70
     1
 43
0.0
 10
310.7069017136429
 20
-121.5373847876875
 10
316.7069017136431
 20
-121.5373847876875
 10
316.7069017136431
 20
-124.5373847876876
 10
322.7069017136427
 20
-124.5373847876876
 10
322.7069017136427
 20
-121.5373847876875
 10
328.7069017136429
 20
-121.5373847876875
 10
328.7069017136429
 20
-124.5373847876876
 10
334.7069017136425
 20
-124.5373847876876
 10
334.7069017136425
 20
-121.5373847876875
 10
337.7067006136424
 20
-121.5373847876875
 10
340.7064996136427
 20
-121.5373847876875
 10
340.7064996136427
 20
-124.5373847876876
 10
346.7064996136429
 20
-124.5373847876876
 10
346.7064996136429
 20
-121.5373847876875
 10
352.7064996136425
 20
-121.5373847876875
 10
352.7064996136425
 20
-124.5373847876876
 10
358.7064996136431
 20
-124.5373847876876
 10
358.7064996136431
 20
-121.5373847876875
 10
364.706499613643
 20
-121.5373847876875
 10
364.706499613643
 20
-124.5373847876876
 10
370.7064996136432
 20
-124.5373847876876
 10
370.7064996136432
 20
-121.5373847876875
 10
376.7064996136431
 20
-121.5373847876875
 10
376.7064996136431
 20
-124.5373847876876
 10
382.706499613643
 20
-124.5373847876876
 10
382.706499613643
 20
-121.5373847876875
 10
388.9732985136411
 20
-121.5373847876875
 10
391.4667932136435
 20
-121.3813380876874
 10
393.9213777136421
 20
-120.9156331876876
 10
396.2987491136414
 20
-120.1475371876878
 10
398.5618093136416
 20
-119.0890359876875
 10
400.675244013641
 20
-117.7566471876879
 10
402.6060737136433
 20
-116.171162187688
 10
404.3241686136418
 20
-114.3573219876877
 10
405.8027182136417
 20
-112.343430887688
 10
407.0186504136443
 20
-110.1609150876879
 10
407.9529909136404
 20
-107.8438319876877
 10
408.5911597136405
 20
-105.428338987688
 10
408.9231983136434
 20
-102.9521287876876
 10
408.9732985136408
 20
-101.5373847876881
 10
408.9732985136408
 20
-98.5373847876874
 10
411.9732985136409
 20
-98.5373847876874
 10
411.9732985136409
 20
-95.53738478768762
 10
408.9732985136408
 20
-95.53738478768762
 10
408.9732985136408
 20
-92.53738478768783
 10
340.7064996136427
 20
-92.53738478768783
 10
339.2067006136427
 20
-92.53738478768783
 10
339.2067006136427
 20
-107.037384787688
 10
336.2067006136426
 20
-107.037384787688
 10
336.2067006136426
 20
-92.53738478768783
 10
266.4401027136433
 20
-92.53738478768783
 10
266.4401027136433
 20
-93.52492568768806
 10
266.4401027136433
 20
-95.53738478768762
 10
263.4401027136432
 20
-95.53738478768762
 10
263.4401027136432
 20
-98.5373847876874
 10
266.4401027136433
 20
-98.5373847876874
 10
266.4401027136433
 20
-99.52492568768795
 10
266.4401027136433
 20
-101.5373847876881
 10
266.5961494136435
 20
-104.0308794876876
 10
267.0618543136433
 20
-106.4854639876876
 10
267.8299503136434
 20
-108.8628353876877
 10
268.888451513643
 20
-111.125895587688
 10
270.220840313643
 20
-113.2393302876878
 10
271.8063253136432
 20
-115.1701599876875
 10
273.620165613643
 20
-116.8882547876875
 10
275.6340566136432
 20
-118.3668044876879
 10
277.8165724136435
 20
-119.5827366876881
 10
280.1336555136434
 20
-120.5170771876878
 10
282.5491486136426
 20
-121.1552458876875
 10
285.0253587136432
 20
-121.4872844876878
 10
286.4401027136434
 20
-121.5373847876875
 10
292.7069017136428
 20
-121.5373847876875
 10
292.7069017136428
 20
-124.5373847876876
 10
298.7069017136425
 20
-124.5373847876876
 10
298.7069017136425
 20
-121.5373847876875
 10
304.7069017136426
 20
-121.5373847876875
 10
304.7069017136426
 20
-124.5373847876876
 10
310.7069017136429
 20
-124.5373847876876
  0
LINE
  5
190
330
70
100
AcDbEntity
  8
Layer 1
 62
    18
420
    65793
370
    25
100
AcDbLine
 10
266.4401027136433
 20
-93.52492568768806
 30
0.0
 11
266.4401027136433
 21
-95.53738478768762
 31
0.0
  0
LINE
  5
191
330
70
100
AcDbEntity
  8
Layer 1
 62
    18
420
    65793
370
    25
100
AcDbLine
 10
263.4401027136432
 20
-98.5373847876874
 30
0.0
 11
263.4401027136432
 21
-95.53738478768762
 31
0.0
  0
LINE
  5
192
330
70
100
AcDbEntity
  8
Layer 1
 62
    18
420
    65793
370
    25
100
AcDbLine
 10
411.9732985136409
 20
-98.5373847876874
 30
0.0
 11
411.9732985136409
 21
-95.53738478768762
 31
0.0
  0
LWPOLYLINE
  5
193
330
70
100
AcDbEntity
  8
Layer 1
 62
    18
420
    65793
370
    25
100
AcDbPolyline
 90
       76
 70
     1
 43
0.0
 10
268.8406592008456
 20
-199.4189137661999
 10
268.8406592008456
 20
-197.4064546661994
 10
268.8406592008456
 20
-196.4189137661991
 10
338.6072571008455
 20
-196.4189137661991
 10
341.6072571008456
 20
-196.4189137661991
 10
343.1070561008456
 20
-196.4189137661991
 10
411.3738550008437
 20
-196.4189137661991
 10
411.3738550008437
 20
-199.4189137661999
 10
414.3738550008438
 20
-199.4189137661999
 10
414.3738550008438
 20
-202.4189137661994
 10
411.3738550008437
 20
-202.4189137661994
 10
411.3738550008437
 20
-205.4189137661988
 10
411.3237548008463
 20
-206.8336577661992
 10
410.9917162008434
 20
-209.3098679661993
 10
410.3535474008433
 20
-211.7253609661987
 10
409.4192069008472
 20
-214.0424440661999
 10
408.2032747008446
 20
-216.2249598661993
 10
406.7247251008447
 20
-218.2388509661997
 10
405.006630200843
 20
-220.052691166199
 10
403.0758005008433
 20
-221.6381761661992
 10
400.9623658008441
 20
-222.9705649661991
 10
398.6993056008442
 20
-224.0290661661991
 10
396.321934200845
 20
-224.7971621661995
 10
393.8673497008429
 20
-225.2628670661987
 10
391.373855000844
 20
-225.4189137661995
 10
385.1070561008459
 20
-225.4189137661995
 10
385.1070561008459
 20
-228.418913766199
 10
379.107056100846
 20
-228.418913766199
 10
379.107056100846
 20
-225.4189137661995
 10
373.1070561008461
 20
-225.4189137661995
 10
373.1070561008461
 20
-228.418913766199
 10
367.1070561008459
 20
-228.418913766199
 10
367.1070561008459
 20
-225.4189137661995
 10
361.107056100846
 20
-225.4189137661995
 10
361.107056100846
 20
-228.418913766199
 10
355.1070561008461
 20
-228.418913766199
 10
355.1070561008461
 20
-225.4189137661995
 10
349.1070561008452
 20
-225.4189137661995
 10
349.1070561008452
 20
-228.418913766199
 10
343.1070561008456
 20
-228.418913766199
 10
343.1070561008456
 20
-225.4189137661995
 10
340.1072571008453
 20
-225.4189137661995
 10
337.1074582008454
 20
-225.4189137661995
 10
337.1074582008454
 20
-228.418913766199
 10
331.1074582008452
 20
-228.418913766199
 10
331.1074582008452
 20
-225.4189137661995
 10
325.1074582008449
 20
-225.4189137661995
 10
325.1074582008449
 20
-228.418913766199
 10
319.107458200846
 20
-228.418913766199
 10
319.107458200846
 20
-225.4189137661995
 10
313.1074582008461
 20
-225.4189137661995
 10
313.1074582008461
 20
-228.418913766199
 10
307.1074582008456
 20
-228.418913766199
 10
307.1074582008456
 20
-225.4189137661995
 10
301.1074582008454
 20
-225.4189137661995
 10
301.1074582008454
 20
-228.418913766199
 10
295.1074582008451
 20
-228.418913766199
 10
295.1074582008451
 20
-225.4189137661995
 10
288.8406592008456
 20
-225.4189137661995
 10
287.4259152008462
 20
-225.3688134661997
 10
284.9497051008455
 20
-225.0367748661988
 10
282.5342120008457
 20
-224.3986061662001
 10
280.2171289008458
 20
-223.4642656661992
 10
278.0346131008457
 20
-222.2483334662002
 10
276.0207221008453
 20
-220.7697837661989
 10
274.2068818008461
 20
-219.0516889661995
 10
272.6213968008458
 20
-217.1208592661991
 10
271.2890080008459
 20
-215.0074245661994
 10
270.230506800846
 20
-212.7443643661994
 10
269.4624108008455
 20
-210.3669929661996
 10
268.9967059008463
 20
-207.9124084661997
 10
268.8406592008456
 20
-205.4189137661988
 10
268.8406592008456
 20
-203.4064546661996
 10
268.8406592008456
 20
-202.4189137661994
 10
265.8406592008461
 20
-202.4189137661994
 10
265.8406592008461
 20
-199.4189137661999
  0
LINE
  5
194
330
70
100
AcDbEntity
  8
Layer 1
 62
    18
420
    65793
370
    25
100
AcDbLine
 10
268.8406592008456
 20
-197.4064546661994
 30
0.0
 11
268.8406592008456
 21
-199.4189137661999
 31
0.0
  0
LINE
  5
195
330
70
100
AcDbEntity
  8
Layer 1
 62
    18
420
    65793
370
    25
100
AcDbLine
 10
414.3738550008438
 20
-199.4189137661999
 30
0.0
 11
414.3738550008438
 21
-202.4189137661994
 31
0.0
  0
LINE
  5
196
330
70
100
AcDbEntity
  8
Layer 1
 62
    18
420
    65793
370
    25
100
AcDbLine
 10
265.8406592008461
 20
-202.4189137661994
 30
0.0
 11
265.8406592008461
 21
-199.4189137661999
 31
0.0
  0
LWPOLYLINE
  5
197
330
70
100
AcDbEntity
  8
Layer 1
 62
    18
420
    65793
370
    25
100
AcDbPolyline
 90
       76
 70
     1
 43
0.0
 10
271.1466783363733
 20
-233.5479969720057
 10
271.1466783363733
 20
-231.5355378720048
 10
271.1466783363733
 20
-230.547996972005
 10
340.9132762363727
 20
-230.547996972005
 10
343.9132762363728
 20
-230.547996972005
 10
345.4130752363728
 20
-230.547996972005
 10
413.6798741363715
 20
-230.547996972005
 10
413.6798741363715
 20
-233.5479969720057
 10
416.6798741363716
 20
-233.5479969720057
 10
416.6798741363716
 20
-236.5479969720055
 10
413.6798741363715
 20
-236.5479969720055
 10
413.6798741363715
 20
-239.5479969720062
 10
413.6297739363734
 20
-240.962740972006
 10
413.2977353363711
 20
-243.4389511720051
 10
412.6595665363704
 20
-245.8544441720058
 10
411.7252260363711
 20
-248.1715272720057
 10
410.5092938363724
 20
-250.3540430720051
 10
409.0307442363725
 20
-252.3679341720051
 10
407.3126493363734
 20
-254.1817743720045
 10
405.381819636371
 20
-255.7672593720047
 10
403.2683849363719
 20
-257.0996481720046
 10
401.0053247363717
 20
-258.1581493720046
 10
398.6279533363725
 20
-258.926245372005
 10
396.1733688363739
 20
-259.3919502720055
 10
393.6798741363714
 20
-259.547996972005
 10
387.4130752363733
 20
-259.547996972005
 10
387.4130752363733
 20
-262.5479969720045
 10
381.4130752363734
 20
-262.5479969720045
 10
381.4130752363734
 20
-259.547996972005
 10
375.4130752363735
 20
-259.547996972005
 10
375.4130752363735
 20
-262.5479969720045
 10
369.4130752363733
 20
-262.5479969720045
 10
369.4130752363733
 20
-259.547996972005
 10
363.4130752363734
 20
-259.547996972005
 10
363.4130752363734
 20
-262.5479969720045
 10
357.4130752363735
 20
-262.5479969720045
 10
357.4130752363735
 20
-259.547996972005
 10
351.4130752363723
 20
-259.547996972005
 10
351.4130752363723
 20
-262.5479969720045
 10
345.4130752363728
 20
-262.5479969720045
 10
345.4130752363728
 20
-259.547996972005
 10
342.4132762363724
 20
-259.547996972005
 10
339.4134773363731
 20
-259.547996972005
 10
339.4134773363731
 20
-262.5479969720045
 10
333.4134773363729
 20
-262.5479969720045
 10
333.4134773363729
 20
-259.547996972005
 10
327.4134773363727
 20
-259.547996972005
 10
327.4134773363727
 20
-262.5479969720045
 10
321.4134773363725
 20
-262.5479969720045
 10
321.4134773363725
 20
-259.547996972005
 10
315.4134773363729
 20
-259.547996972005
 10
315.4134773363729
 20
-262.5479969720045
 10
309.4134773363733
 20
-262.5479969720045
 10
309.4134773363733
 20
-259.547996972005
 10
303.4134773363732
 20
-259.547996972005
 10
303.4134773363732
 20
-262.5479969720045
 10
297.4134773363729
 20
-262.5479969720045
 10
297.4134773363729
 20
-259.547996972005
 10
291.1466783363727
 20
-259.547996972005
 10
289.7319343363727
 20
-259.4978966720053
 10
287.2557242363733
 20
-259.1658580720056
 10
284.8402311363728
 20
-258.5276893720052
 10
282.5231480363732
 20
-257.5933488720046
 10
280.3406322363735
 20
-256.3774166720053
 10
278.326741236373
 20
-254.8988669720056
 10
276.5129009363732
 20
-253.180772172005
 10
274.9274159363736
 20
-251.2499424720046
 10
273.595027136373
 20
-249.1365077720052
 10
272.5365259363731
 20
-246.8734475720049
 10
271.7684299363733
 20
-244.4960761720054
 10
271.3027250363734
 20
-242.0414916720055
 10
271.1466783363733
 20
-239.5479969720062
 10
271.1466783363733
 20
-237.5355378720054
 10
271.1466783363733
 20
-236.5479969720055
 10
268.1466783363732
 20
-236.5479969720055
 10
268.1466783363732
 20
-233.5479969720057
  0
LINE
  5
198
330
70
100
AcDbEntity
  8
Layer 1
 62
    18
420
    65793
370
    25
100
AcDbLine
 10
271.1466783363733
 20
-231.5355378720048
 30
0.0
 11
271.1466783363733
 21
-233.5479969720057
 31
0.0
  0
LINE
  5
199
330
70
100
AcDbEntity
  8
Layer 1
 62
    18
420
    65793
370
    25
100
AcDbLine
 10
416.6798741363716
 20
-233.5479969720057
 30
0.0
 11
416.6798741363716
 21
-236.5479969720055
 31
0.0
  0
LINE
  5
19A
330
70
100
AcDbEntity
  8
Layer 1
 62
    18
420
    65793
370
    25
100
AcDbLine
 10
268.1466783363732
 20
-236.5479969720055
 30
0.0
 11
268.1466783363732
 21
-233.5479969720057
 31
0.0
  0
INSERT
  5
19C
330
70
100
AcDbEntity
  8
Layer 1
100
AcDbBlockReference
  2
Block_6
 10
0.0
 20
0.0
 30
0.0
  0
LWPOLYLINE
  5
1AF
330
70
100
AcDbEntity
  8
Layer 1
 62
    18
420
    65793
370
    25
100
AcDbPolyline
 90
       78
 70
     1
 43
0.0
 10
308.6508485815303
 20
-156.0006096128413
 10
314.6508485815306
 20
-156.0006096128413
 10
314.6508485815306
 20
-159.0006096128414
 10
320.6508485815295
 20
-159.0006096128414
 10
320.6508485815295
 20
-156.0006096128413
 10
326.6508485815297
 20
-156.0006096128413
 10
326.6508485815297
 20
-159.0006096128414
 10
332.6508485815299
 20
-159.0006096128414
 10
332.6508485815299
 20
-156.0006096128413
 10
335.6506474815298
 20
-156.0006096128413
 10
338.6504464815296
 20
-156.0006096128413
 10
338.6504464815296
 20
-159.0006096128414
 10
344.6504464815297
 20
-159.0006096128414
 10
344.6504464815297
 20
-156.0006096128413
 10
350.65044648153
 20
-156.0006096128413
 10
350.65044648153
 20
-159.0006096128414
 10
356.6504464815279
 20
-159.0006096128414
 10
356.6504464815279
 20
-156.0006096128413
 10
362.6504464815278
 20
-156.0006096128413
 10
362.6504464815278
 20
-159.0006096128414
 10
368.650446481528
 20
-159.0006096128414
 10
368.650446481528
 20
-156.0006096128413
 10
374.6504464815279
 20
-156.0006096128413
 10
374.6504464815279
 20
-159.0006096128414
 10
380.6504464815317
 20
-159.0006096128414
 10
380.6504464815317
 20
-156.0006096128413
 10
386.9172453815295
 20
-156.0006096128413
 10
389.4107400815284
 20
-155.8445629128412
 10
391.8653245815306
 20
-155.378858012841
 10
394.2426959815298
 20
-154.6107620128415
 10
396.50575618153
 20
-153.5522608128416
 10
398.6191908815291
 20
-152.2198720128416
 10
400.5500205815281
 20
-150.6343870128414
 10
402.2681154815306
 20
-148.8205468128414
 10
403.7466650815304
 20
-146.8066557128417
 10
404.9625972815292
 20
-144.6241399128417
 10
405.8969377815285
 20
-142.3070568128418
 10
406.5351065815293
 20
-139.8915638128418
 10
406.8671451815283
 20
-137.4153536128416
 10
406.9172453815295
 20
-136.0006096128419
 10
406.9172453815295
 20
-133.0006096128415
 10
409.9172453815296
 20
-133.0006096128415
 10
409.9172453815296
 20
-130.0006096128416
 10
406.9172453815295
 20
-130.0006096128416
 10
406.9172453815295
 20
-127.0006096128416
 10
338.6504464815296
 20
-127.0006096128416
 10
337.1506474815296
 20
-127.0006096128416
 10
337.1506474815296
 20
-141.5006096128417
 10
334.1506474815301
 20
-141.5006096128417
 10
334.1506474815301
 20
-127.0006096128416
 10
264.3840495815307
 20
-127.0006096128416
 10
264.3840495815307
 20
-127.9881505128418
 10
264.3840495815307
 20
-130.0006096128416
 10
261.3840495815303
 20
-130.0006096128416
 10
261.3840495815303
 20
-133.0006096128415
 10
264.3840495815307
 20
-133.0006096128415
 10
264.3840495815307
 20
-133.9881505128413
 10
264.3840495815307
 20
-136.0006096128419
 10
264.5400962815306
 20
-138.4941043128414
 10
265.0058011815304
 20
-140.9486888128413
 10
265.7738971815302
 20
-143.3260602128418
 10
266.8323983815299
 20
-145.5891204128418
 10
268.1647871815301
 20
-147.7025551128415
 10
269.7502721815303
 20
-149.6333848128413
 10
271.5641124815301
 20
-151.3514796128413
 10
273.57800348153
 20
-152.8300293128417
 10
275.760519281531
 20
-154.0459615128416
 10
278.0776023815309
 20
-154.9803020128416
 10
280.4930954815301
 20
-155.6184707128412
 10
282.9693055815307
 20
-155.9505093128415
 10
284.3840495815308
 20
-156.0006096128413
 10
290.6508485815297
 20
-156.0006096128413
 10
290.6508485815297
 20
-159.0006096128414
 10
296.6508485815299
 20
-159.0006096128414
 10
296.6508485815299
 20
-156.0006096128413
 10
302.6508485815301
 20
-156.0006096128413
 10
302.6508485815301
 20
-159.0006096128414
 10
308.6508485815303
 20
-159.0006096128414
  0
LINE
  5
1B0
330
70
100
AcDbEntity
  8
Layer 1
 62
    18
420
    65793
370
    25
100
AcDbLine
 10
264.3840495815307
 20
-127.9881505128418
 30
0.0
 11
264.3840495815307
 21
-130.0006096128416
 31
0.0
  0
LINE
  5
1B1
330
70
100
AcDbEntity
  8
Layer 1
 62
    18
420
    65793
370
    25
100
AcDbLine
 10
261.3840495815303
 20
-133.0006096128415
 30
0.0
 11
261.3840495815303
 21
-130.0006096128416
 31
0.0
  0
LINE
  5
1B2
330
70
100
AcDbEntity
  8
Layer 1
 62
    18
420
    65793
370
    25
100
AcDbLine
 10
409.9172453815296
 20
-133.0006096128415
 30
0.0
 11
409.9172453815296
 21
-130.0006096128416
 31
0.0
  0
LWPOLYLINE
  5
1B3
330
70
100
AcDbEntity
  8
Layer 1
 62
    18
420
    65793
370
    25
100
AcDbPolyline
 90
       78
 70
     1
 43
0.0
 10
310.3402352382128
 20
-190.7097616895201
 10
316.340235238213
 20
-190.7097616895201
 10
316.340235238213
 20
-193.7097616895202
 10
322.3402352382119
 20
-193.7097616895202
 10
322.3402352382119
 20
-190.7097616895201
 10
328.3402352382119
 20
-190.7097616895201
 10
328.3402352382119
 20
-193.7097616895202
 10
334.3402352382124
 20
-193.7097616895202
 10
334.3402352382124
 20
-190.7097616895201
 10
337.3400341382126
 20
-190.7097616895201
 10
340.339833138212
 20
-190.7097616895201
 10
340.339833138212
 20
-193.7097616895202
 10
346.3398331382122
 20
-193.7097616895202
 10
346.3398331382122
 20
-190.7097616895201
 10
352.3398331382125
 20
-190.7097616895201
 10
352.3398331382125
 20
-193.7097616895202
 10
358.3398331382101
 20
-193.7097616895202
 10
358.3398331382101
 20
-190.7097616895201
 10
364.3398331382103
 20
-190.7097616895201
 10
364.3398331382103
 20
-193.7097616895202
 10
370.3398331382102
 20
-193.7097616895202
 10
370.3398331382102
 20
-190.7097616895201
 10
376.3398331382136
 20
-190.7097616895201
 10
376.3398331382136
 20
-193.7097616895202
 10
382.3398331382138
 20
-193.7097616895202
 10
382.3398331382138
 20
-190.7097616895201
 10
388.6066320382116
 20
-190.7097616895201
 10
391.1001267382105
 20
-190.5537149895199
 10
393.5547112382127
 20
-190.0880100895198
 10
395.9320826382119
 20
-189.3199140895203
 10
398.1951428382122
 20
-188.2614128895203
 10
400.3085775382112
 20
-186.9290240895204
 10
402.2394072382142
 20
-185.3435390895202
 10
403.9575021382127
 20
-183.5296988895202
 10
405.4360517382126
 20
-181.5158077895205
 10
406.6519839382113
 20
-179.3332919895205
 10
407.5863244382112
 20
-177.0162088895206
 10
408.2244932382114
 20
-174.6007158895205
 10
408.5565318382104
 20
-172.1245056895204
 10
408.6066320382117
 20
-170.7097616895207
 10
408.6066320382117
 20
-167.7097616895203
 10
411.6066320382118
 20
-167.7097616895203
 10
411.6066320382118
 20
-164.7097616895204
 10
408.6066320382117
 20
-164.7097616895204
 10
408.6066320382117
 20
-161.7097616895204
 10
340.339833138212
 20
-161.7097616895204
 10
338.840034138212
 20
-161.7097616895204
 10
338.840034138212
 20
-176.2097616895205
 10
335.8400341382126
 20
-176.2097616895205
 10
335.8400341382126
 20
-161.7097616895204
 10
266.0734362382129
 20
-161.7097616895204
 10
266.0734362382129
 20
-162.6973025895206
 10
266.0734362382129
 20
-164.7097616895204
 10
263.0734362382128
 20
-164.7097616895204
 10
263.0734362382128
 20
-167.7097616895203
 10
266.0734362382129
 20
-167.7097616895203
 10
266.0734362382129
 20
-168.6973025895201
 10
266.0734362382129
 20
-170.7097616895207
 10
266.229482938213
 20
-173.2032563895202
 10
266.6951878382128
 20
-175.6578408895201
 10
267.463283838213
 20
-178.0352122895206
 10
268.5217850382126
 20
-180.2982724895205
 10
269.8541738382125
 20
-182.4117071895203
 10
271.4396588382128
 20
-184.34253688952
 10
273.2534991382126
 20
-186.06063168952
 10
275.2673901382127
 20
-187.5391813895204
 10
277.4499059382134
 20
-188.7551135895204
 10
279.7669890382134
 20
-189.6894540895203
 10
282.1824821382129
 20
-190.32762278952
 10
284.6586922382135
 20
-190.6596613895203
 10
286.0734362382133
 20
-190.7097616895201
 10
292.3402352382125
 20
-190.7097616895201
 10
292.3402352382125
 20
-193.7097616895202
 10
298.3402352382124
 20
-193.7097616895202
 10
298.3402352382124
 20
-190.7097616895201
 10
304.3402352382126
 20
-190.7097616895201
 10
304.3402352382126
 20
-193.7097616895202
 10
310.3402352382128
 20
-193.7097616895202
  0
LINE
  5
1B4
330
70
100
AcDbEntity
  8
Layer 1
 62
    18
420
    65793
370
    25
100
AcDbLine
 10
266.0734362382129
 20
-162.6973025895206
 30
0.0
 11
266.0734362382129
 21
-164.7097616895204
 31
0.0
  0
LINE
  5
1B5
330
70
100
AcDbEntity
  8
Layer 1
 62
    18
420
    65793
370
    25
100
AcDbLine
 10
263.0734362382128
 20
-167.7097616895203
 30
0.0
 11
263.0734362382128
 21
-164.7097616895204
 31
0.0
  0
LINE
  5
1B6
330
70
100
AcDbEntity
  8
Layer 1
 62
    18
420
    65793
370
    25
100
AcDbLine
 10
411.6066320382118
 20
-167.7097616895203
 30
0.0
 11
411.6066320382118
 21
-164.7097616895204
 31
0.0
  0
ENDSEC
  0
SECTION
  2
OBJECTS
  0
DICTIONARY
  5
C
330
0
100
AcDbDictionary
281
     1
  3
ACAD_COLOR
350
63
  3
ACAD_DETAILVIEWSTYLE
350
6A
  3
ACAD_GROUP
350
D
  3
ACAD_LAYOUT
350
62
  3
ACAD_MATERIAL
350
10
  3
ACAD_MLEADERSTYLE
350
66
  3
ACAD_MLINESTYLE
350
5F
  3
ACAD_PLOTSETTINGS
350
61
  3
ACAD_PLOTSTYLENAME
350
E
  3
ACAD_SCALELIST
350
42
  3
ACAD_SECTIONVIEWSTYLE
350
68
  3
ACAD_TABLESTYLE
350
64
  3
ACAD_VISUALSTYLE
350
29
  3
ACDB_RECOMPOSE_DATA
350
1BF
  3
AcDbVariableDictionary
350
1B7
  0
DICTIONARY
  5
63
102
{ACAD_REACTORS
330
C
102
}
330
C
100
AcDbDictionary
281
     1
  0
DICTIONARY
  5
6A
102
{ACAD_REACTORS
330
C
102
}
330
C
100
AcDbDictionary
281
     1
  3
Imperial24
350
6B
  0
DICTIONARY
  5
D
102
{ACAD_REACTORS
330
C
102
}
330
C
100
AcDbDictionary
281
     1
  0
DICTIONARY
  5
62
102
{ACAD_REACTORS
330
C
102
}
330
C
100
AcDbDictionary
281
     1
  3
Layout1
350
6F
  3
Layout2
350
77
  3
Model
350
73
  0
DICTIONARY
  5
10
102
{ACAD_REACTORS
330
C
102
}
330
C
100
AcDbDictionary
281
     1
  3
ByBlock
350
19
  3
ByLayer
350
11
  3
Global
350
21
  0
DICTIONARY
  5
66
102
{ACAD_REACTORS
330
C
102
}
330
C
100
AcDbDictionary
281
     1
  3
Standard
350
67
  0
DICTIONARY
  5
5F
102
{ACAD_REACTORS
330
C
102
}
330
C
100
AcDbDictionary
281
     1
  3
Standard
350
60
  0
DICTIONARY
  5
61
102
{ACAD_REACTORS
330
C
102
}
330
C
100
AcDbDictionary
281
     1
  0
ACDBDICTIONARYWDFLT
  5
E
102
{ACAD_REACTORS
330
C
102
}
330
C
100
AcDbDictionary
281
     1
  3
Normal
350
F
100
AcDbDictionaryWithDefault
340
F
  0
DICTIONARY
  5
42
102
{ACAD_REACTORS
330
C
102
}
330
C
100
AcDbDictionary
281
     1
  3
A0
350
43
  3
A1
350
44
  3
A2
350
45
  3
A3
350
46
  3
A4
350
47
  3
A5
350
48
  3
A6
350
49
  3
A7
350
4A
  3
A8
350
4B
  3
A9
350
4C
  3
B0
350
4D
  3
B1
350
4E
  3
B2
350
4F
  3
B3
350
50
  3
B4
350
51
  3
B5
350
52
  3
B6
350
53
  0
DICTIONARY
  5
68
102
{ACAD_REACTORS
330
C
102
}
330
C
100
AcDbDictionary
281
     1
  3
Imperial24
350
69
  0
DICTIONARY
  5
64
102
{ACAD_REACTORS
330
C
102
}
330
C
100
AcDbDictionary
281
     1
  3
Standard
350
65
  0
DICTIONARY
  5
29
102
{ACAD_REACTORS
330
C
102
}
330
C
100
AcDbDictionary
281
     1
  3
2dWireframe
350
2F
  3
Basic
350
2E
  3
Brighten
350
35
  3
ColorChange
350
39
  3
Conceptual
350
32
  3
Dim
350
34
  3
EdgeColorOff
350
41
  3
Facepattern
350
38
  3
Flat
350
2A
  3
FlatWithEdges
350
2B
  3
Gouraud
350
2C
  3
GouraudWithEdges
350
2D
  3
Hidden
350
31
  3
JitterOff
350
3F
  3
Linepattern
350
37
  3
OverhangOff
350
40
  3
Realistic
350
33
  3
Shaded
350
3E
  3
Shaded with edges
350
3D
  3
Shades of Gray
350
3A
  3
Sketchy
350
3B
  3
Thicken
350
36
  3
Wireframe
350
30
  3
X-Ray
350
3C
  0
XRECORD
  5
1BF
102
{ACAD_REACTORS
330
C
102
}
330
C
100
AcDbXrecord
280
     1
 90
        1
330
65
  0
DICTIONARY
  5
1B7
102
{ACAD_REACTORS
330
C
102
}
330
C
100
AcDbDictionary
281
     1
  3
CANNOSCALE
350
1BC
  3
CMLEADERSTYLE
350
1B9
  3
CTABLESTYLE
350
1B8
  3
CVIEWDETAILSTYLE
350
1BA
  3
CVIEWSECTIONSTYLE
350
1BB
  0
ACDBDETAILVIEWSTYLE
  5
6B
102
{ACAD_REACTORS
330
6A
102
}
330
6A
100
AcDbModelDocViewStyle
 70
     0
  3
Imperial24
290
     1
300
Imperial24
 90
        0
100
AcDbDetailViewStyle
 70
     0
 71
     0
 90
        3
 71
     1
340
55
 62
   256
 40
0.24
340
0
 62
   256
 40
0.24
300

 40
0.36
280
     3
 71
     2
340
5D
 90
       25
 62
   256
 71
     3
340
55
 62
   256
 40
0.24
 90
        1
 40
0.75
 90
        1
300
%<\AcVar ViewType \f "%tc1">% %<\AcVar ViewDetailId>%\PSCALE %<\AcVar ViewScale \f "%sn">%
 71
     4
340
5D
 90
       25
 62
   256
340
5D
 90
       25
 62
   256
280
     0
  0
LAYOUT
  5
6F
102
{ACAD_REACTORS
330
62
102
}
330
62
100
AcDbPlotSettings
  1

  2

  4

  6

 40
0.0
 41
0.0
 42
0.0
 43
0.0
 44
0.0
 45
0.0
 46
0.0
 47
0.0
 48
0.0
 49
0.0
140
0.0
141
0.0
142
1.0
143
1.0
 70
   688
 72
     0
 73
     0
 74
     5
  7

 75
    16
147
1.0
 76
     0
 77
     2
 78
   300
148
0.0
149
0.0
100
AcDbLayout
  1
Layout1
 70
     1
 71
     1
 10
0.0
 20
0.0
 11
12.0
 21
9.0
 12
0.0
 22
0.0
 32
0.0
 14
0.0
 24
0.0
 34
0.0
 15
0.0
 25
0.0
 35
0.0
146
0.0
 13
0.0
 23
0.0
 33
0.0
 16
1.0
 26
0.0
 36
0.0
 17
0.0
 27
1.0
 37
0.0
 76
     0
330
6C
  0
LAYOUT
  5
77
102
{ACAD_REACTORS
330
62
102
}
330
62
100
AcDbPlotSettings
  1

  2

  4

  6

 40
0.0
 41
0.0
 42
0.0
 43
0.0
 44
0.0
 45
0.0
 46
0.0
 47
0.0
 48
0.0
 49
0.0
140
0.0
141
0.0
142
1.0
143
1.0
 70
   688
 72
     0
 73
     0
 74
     5
  7

 75
    16
147
1.0
 76
     0
 77
     2
 78
   300
148
0.0
149
0.0
100
AcDbLayout
  1
Layout2
 70
     1
 71
     2
 10
0.0
 20
0.0
 11
12.0
 21
9.0
 12
0.0
 22
0.0
 32
0.0
 14
0.0
 24
0.0
 34
0.0
 15
0.0
 25
0.0
 35
0.0
146
0.0
 13
0.0
 23
0.0
 33
0.0
 16
1.0
 26
0.0
 36
0.0
 17
0.0
 27
1.0
 37
0.0
 76
     0
330
74
  0
LAYOUT
  5
73
102
{ACAD_REACTORS
330
62
102
}
330
62
100
AcDbPlotSettings
  1

  2

  4

  6

 40
0.0
 41
0.0
 42
0.0
 43
0.0
 44
0.0
 45
0.0
 46
0.0
 47
0.0
 48
0.0
 49
0.0
140
0.0
141
0.0
142
1.0
143
1.0
 70
  1712
 72
     0
 73
     0
 74
     0
  7

 75
     0
147
1.0
 76
     0
 77
     2
 78
   300
148
0.0
149
0.0
100
AcDbLayout
  1
Model
 70
     1
 71
     0
 10
0.0
 20
0.0
 11
12.0
 21
9.0
 12
0.0
 22
0.0
 32
0.0
 14
0.0
 24
0.0
 34
0.0
 15
0.0
 25
0.0
 35
0.0
146
0.0
 13
0.0
 23
0.0
 33
0.0
 16
1.0
 26
0.0
 36
0.0
 17
0.0
 27
1.0
 37
0.0
 76
     0
330
70
  0
MATERIAL
  5
19
102
{ACAD_XDICTIONARY
360
1A
102
}
102
{ACAD_REACTORS
330
10
102
}
330
10
100
AcDbMaterial
  1
ByBlock
 72
     0
 43
0.0208333333333333
 43
0.0
 43
0.0
 43
0.0
 43
0.0
 43
0.0208333333333333
 43
0.0
 43
0.0
 43
0.0
 43
0.0
 43
1.0
 43
0.0
 43
0.0
 43
0.0
 43
0.0
 43
1.0
 77
     0
 47
0.0208333333333333
 47
0.0
 47
0.0
 47
0.0
 47
0.0
 47
0.0208333333333333
 47
0.0
 47
0.0
 47
0.0
 47
0.0
 47
1.0
 47
0.0
 47
0.0
 47
0.0
 47
0.0
 47
1.0
171
     0
 49
0.0208333333333333
 49
0.0
 49
0.0
 49
0.0
 49
0.0
 49
0.0208333333333333
 49
0.0
 49
0.0
 49
0.0
 49
0.0
 49
1.0
 49
0.0
 49
0.0
 49
0.0
 49
0.0
 49
1.0
175
     0
142
0.0208333333333333
142
0.0
142
0.0
142
0.0
142
0.0
142
0.0208333333333333
142
0.0
142
0.0
142
0.0
142
0.0
142
1.0
142
0.0
142
0.0
142
0.0
142
0.0
142
1.0
179
     0
144
0.0208333333333333
144
0.0
144
0.0
144
0.0
144
0.0
144
0.0208333333333333
144
0.0
144
0.0
144
0.0
144
0.0
144
1.0
144
0.0
144
0.0
144
0.0
144
0.0
144
1.0
147
0.0208333333333333
147
0.0
147
0.0
147
0.0
147
0.0
147
0.0208333333333333
147
0.0
147
0.0
147
0.0
147
0.0
147
1.0
147
0.0
147
0.0
147
0.0
147
0.0
147
1.0
  0
MATERIAL
  5
11
102
{ACAD_XDICTIONARY
360
12
102
}
102
{ACAD_REACTORS
330
10
102
}
330
10
100
AcDbMaterial
  1
ByLayer
 72
     0
 43
0.0208333333333333
 43
0.0
 43
0.0
 43
0.0
 43
0.0
 43
0.0208333333333333
 43
0.0
 43
0.0
 43
0.0
 43
0.0
 43
1.0
 43
0.0
 43
0.0
 43
0.0
 43
0.0
 43
1.0
 77
     0
 47
0.0208333333333333
 47
0.0
 47
0.0
 47
0.0
 47
0.0
 47
0.0208333333333333
 47
0.0
 47
0.0
 47
0.0
 47
0.0
 47
1.0
 47
0.0
 47
0.0
 47
0.0
 47
0.0
 47
1.0
171
     0
 49
0.0208333333333333
 49
0.0
 49
0.0
 49
0.0
 49
0.0
 49
0.0208333333333333
 49
0.0
 49
0.0
 49
0.0
 49
0.0
 49
1.0
 49
0.0
 49
0.0
 49
0.0
 49
0.0
 49
1.0
175
     0
142
0.0208333333333333
142
0.0
142
0.0
142
0.0
142
0.0
142
0.0208333333333333
142
0.0
142
0.0
142
0.0
142
0.0
142
1.0
142
0.0
142
0.0
142
0.0
142
0.0
142
1.0
179
     0
144
0.0208333333333333
144
0.0
144
0.0
144
0.0
144
0.0
144
0.0208333333333333
144
0.0
144
0.0
144
0.0
144
0.0
144
1.0
144
0.0
144
0.0
144
0.0
144
0.0
144
1.0
147
0.0208333333333333
147
0.0
147
0.0
147
0.0
147
0.0
147
0.0208333333333333
147
0.0
147
0.0
147
0.0
147
0.0
147
1.0
147
0.0
147
0.0
147
0.0
147
0.0
147
1.0
  0
MATERIAL
  5
21
102
{ACAD_XDICTIONARY
360
22
102
}
102
{ACAD_REACTORS
330
10
102
}
330
10
100
AcDbMaterial
  1
Global
 72
     0
 43
0.0208333333333333
 43
0.0
 43
0.0
 43
0.0
 43
0.0
 43
0.0208333333333333
 43
0.0
 43
0.0
 43
0.0
 43
0.0
 43
1.0
 43
0.0
 43
0.0
 43
0.0
 43
0.0
 43
1.0
 77
     0
 47
0.0208333333333333
 47
0.0
 47
0.0
 47
0.0
 47
0.0
 47
0.0208333333333333
 47
0.0
 47
0.0
 47
0.0
 47
0.0
 47
1.0
 47
0.0
 47
0.0
 47
0.0
 47
0.0
 47
1.0
171
     0
 49
0.0208333333333333
 49
0.0
 49
0.0
 49
0.0
 49
0.0
 49
0.0208333333333333
 49
0.0
 49
0.0
 49
0.0
 49
0.0
 49
1.0
 49
0.0
 49
0.0
 49
0.0
 49
0.0
 49
1.0
175
     0
142
0.0208333333333333
142
0.0
142
0.0
142
0.0
142
0.0
142
0.0208333333333333
142
0.0
142
0.0
142
0.0
142
0.0
142
1.0
142
0.0
142
0.0
142
0.0
142
0.0
142
1.0
179
     0
144
0.0208333333333333
144
0.0
144
0.0
144
0.0
144
0.0
144
0.0208333333333333
144
0.0
144
0.0
144
0.0
144
0.0
144
1.0
144
0.0
144
0.0
144
0.0
144
0.0
144
1.0
147
0.0208333333333333
147
0.0
147
0.0
147
0.0
147
0.0
147
0.0208333333333333
147
0.0
147
0.0
147
0.0
147
0.0
147
1.0
147
0.0
147
0.0
147
0.0
147
0.0
147
1.0
  0
MLEADERSTYLE
  5
67
102
{ACAD_REACTORS
330
66
102
}
330
66
100
AcDbMLeaderStyle
179
     2
170
     2
171
     1
172
     0
 90
        2
 40
0.0
 41
0.0
173
     1
 91
-1056964608
340
5B
 92
       -2
290
     1
 42
0.09
291
     1
 43
0.36
  3
Standard
 44
0.18
300

342
55
174
     1
178
     6
175
     1
176
     0
 93
-1056964608
 45
0.18
292
     0
297
     0
 46
0.18
 94
-1056964608
 47
1.0
 49
1.0
140
1.0
293
     1
141
0.0
294
     1
177
     0
142
1.0
295
     1
296
     0
143
0.125
271
     0
272
     9
273
     9
298
     1
  0
MLINESTYLE
  5
60
102
{ACAD_REACTORS
330
5F
102
}
330
5F
100
AcDbMlineStyle
  2
STANDARD
 70
     0
  3

 62
   256
 51
90.0
 52
90.0
 71
     2
 49
0.5
 62
   256
  6
BYLAYER
 49
-0.5
 62
   256
  6
BYLAYER
  0
ACDBPLACEHOLDER
  5
F
102
{ACAD_REACTORS
330
E
102
}
330
E
  0
SCALE
  5
43
102
{ACAD_REACTORS
330
42
102
}
330
42
100
AcDbScale
 70
     0
300
1:1
140
1.0
141
1.0
290
     1
  0
SCALE
  5
44
102
{ACAD_REACTORS
330
42
102
}
330
42
100
AcDbScale
 70
     0
300
1/128" = 1'-0"
140
0.0078125
141
12.0
290
     0
  0
SCALE
  5
45
102
{ACAD_REACTORS
330
42
102
}
330
42
100
AcDbScale
 70
     0
300
1/64" = 1'-0"
140
0.015625
141
12.0
290
     0
  0
SCALE
  5
46
102
{ACAD_REACTORS
330
42
102
}
330
42
100
AcDbScale
 70
     0
300
1/32" = 1'-0"
140
0.03125
141
12.0
290
     0
  0
SCALE
  5
47
102
{ACAD_REACTORS
330
42
102
}
330
42
100
AcDbScale
 70
     0
300
1/16" = 1'-0"
140
0.0625
141
12.0
290
     0
  0
SCALE
  5
48
102
{ACAD_REACTORS
330
42
102
}
330
42
100
AcDbScale
 70
     0
300
3/32" = 1'-0"
140
0.09375
141
12.0
290
     0
  0
SCALE
  5
49
102
{ACAD_REACTORS
330
42
102
}
330
42
100
AcDbScale
 70
     0
300
1/8" = 1'-0"
140
0.125
141
12.0
290
     0
  0
SCALE
  5
4A
102
{ACAD_REACTORS
330
42
102
}
330
42
100
AcDbScale
 70
     0
300
3/16" = 1'-0"
140
0.1875
141
12.0
290
     0
  0
SCALE
  5
4B
102
{ACAD_REACTORS
330
42
102
}
330
42
100
AcDbScale
 70
     0
300
1/4" = 1'-0"
140
0.25
141
12.0
290
     0
  0
SCALE
  5
4C
102
{ACAD_REACTORS
330
42
102
}
330
42
100
AcDbScale
 70
     0
300
3/8" = 1'-0"
140
0.375
141
12.0
290
     0
  0
SCALE
  5
4D
102
{ACAD_REACTORS
330
42
102
}
330
42
100
AcDbScale
 70
     0
300
1/2" = 1'-0"
140
0.5
141
12.0
290
     0
  0
SCALE
  5
4E
102
{ACAD_REACTORS
330
42
102
}
330
42
100
AcDbScale
 70
     0
300
3/4" = 1'-0"
140
0.75
141
12.0
290
     0
  0
SCALE
  5
4F
102
{ACAD_REACTORS
330
42
102
}
330
42
100
AcDbScale
 70
     0
300
1" = 1'-0"
140
1.0
141
12.0
290
     0
  0
SCALE
  5
50
102
{ACAD_REACTORS
330
42
102
}
330
42
100
AcDbScale
 70
     0
300
1-1/2" = 1'-0"
140
1.5
141
12.0
290
     0
  0
SCALE
  5
51
102
{ACAD_REACTORS
330
42
102
}
330
42
100
AcDbScale
 70
     0
300
3" = 1'-0"
140
3.0
141
12.0
290
     0
  0
SCALE
  5
52
102
{ACAD_REACTORS
330
42
102
}
330
42
100
AcDbScale
 70
     0
300
6" = 1'-0"
140
6.0
141
12.0
290
     0
  0
SCALE
  5
53
102
{ACAD_REACTORS
330
42
102
}
330
42
100
AcDbScale
 70
     0
300
1'-0" = 1'-0"
140
12.0
141
12.0
290
     0
  0
ACDBSECTIONVIEWSTYLE
  5
69
102
{ACAD_REACTORS
330
68
102
}
330
68
100
AcDbModelDocViewStyle
 70
     0
  3
Imperial24
290
     1
300
Imperial24
 90
        0
100
AcDbSectionViewStyle
 70
     0
 71
     0
 90
       78
 71
     1
340
55
 62
   256
 40
0.24
340
0
340
0
 62
   256
 40
0.24
300
I, O, Q, S, X, Z
 40
0.48
 90
        3
 40
0.18
 90
        1
 71
     2
340
5D
 90
       25
 62
   256
340
5D
 90
       50
 62
   256
 40
0.24
 40
0.0
 40
0.24
 71
     3
340
55
 62
   256
 40
0.24
 90
        1
 40
0.75
 90
        1
300
%<\AcVar ViewType \f "%tc1">% %<\AcVar ViewSectionStartId>%-%<\AcVar ViewSectionEndId>%\PSCALE %<\AcVar ViewScale \f "%sn">%
 71
     4
 62
   256
 62
   257
300
ANSI31
 40
1.0
 90
        0
290
     0
290
     0
 90
        6
 40
0.0
 40
1.570796326794896
 40
0.2617993877991494
 40
1.308996938995747
 40
-0.2617993877991494
 40
1.832595714594046
  0
TABLESTYLE
  5
65
102
{ACAD_XDICTIONARY
360
1BD
102
}
102
{ACAD_REACTORS
330
64
102
}
330
64
100
AcDbTableStyle
280
     0
  3
Standard
 70
     0
 71
     0
 40
0.06
 41
0.06
280
     0
281
     0
  7
Standard
140
0.18
170
     2
 62
     0
 63
     7
283
     0
 90
      512
 91
        0
  1

274
    -2
284
     1
 64
     0
275
    -2
285
     1
 65
     0
276
    -2
286
     1
 66
     0
277
    -2
287
     1
 67
     0
278
    -2
288
     1
 68
     0
279
    -2
289
     1
 69
     0
  7
Standard
140
0.25
170
     5
 62
     0
 63
     7
283
     0
 90
      512
 91
        0
  1

274
    -2
284
     1
 64
     0
275
    -2
285
     1
 65
     0
276
    -2
286
     1
 66
     0
277
    -2
287
     1
 67
     0
278
    -2
288
     1
 68
     0
279
    -2
289
     1
 69
     0
  7
Standard
140
0.18
170
     5
 62
     0
 63
     7
283
     0
 90
      512
 91
        0
  1

274
    -2
284
     1
 64
     0
275
    -2
285
     1
 65
     0
276
    -2
286
     1
 66
     0
277
    -2
287
     1
 67
     0
278
    -2
288
     1
 68
     0
279
    -2
289
     1
 69
     0
  0
VISUALSTYLE
  5
2F
102
{ACAD_REACTORS
330
29
102
}
330
29
100
AcDbVisualStyle
  2
2dWireframe
 70
     4
177
     3
291
     0
 70
    58
 90
        0
176
     1
 90
        2
176
     1
 90
        0
176
     1
 90
        0
176
     1
 40
0.6
176
     1
 40
30.0
176
     1
 62
     7
420
 16777215
176
     1
 90
        1
176
     1
 90
        4
176
     1
 62
     7
176
     1
 62
   257
176
     1
 90
        1
176
     1
 90
        1
176
     1
 40
1.0
176
     1
 90
        0
176
     1
 62
   257
176
     1
 40
1.0
176
     1
 90
        1
176
     1
 90
        6
176
     1
 90
        2
176
     1
 62
     7
176
     1
 90
        5
176
     1
 90
        0
176
     1
 90
        0
176
     1
290
     0
176
     1
 90
        1
176
     1
 40
0.0
176
     1
 90
        0
176
     1
290
     1
176
     1
290
     1
176
     1
290
     0
176
     1
290
     0
176
     1
290
     0
176
     1
290
     0
176
     1
290
     0
176
     1
290
     0
176
     1
290
     0
176
     1
 90
       50
176
     1
 40
0.0
176
     1
 40
1.0
176
     1
 90
        0
176
     1
 62
    18
420
        0
176
     1
 90
       50
176
     1
 90
        3
176
     1
 62
     5
420
      255
176
     1
290
     0
176
     1
 90
       50
176
     1
 90
       50
176
     1
 90
       50
176
     1
290
     0
176
     1
 90
       50
176
     1
 62
   256
176
     0
 40
1.0
176
     0
 90
        2
176
     1
  1
strokes_ogs.tif
176
     1
290
     0
176
     1
 40
1.0
176
     1
 40
1.0
176
     1
  0
VISUALSTYLE
  5
2E
102
{ACAD_REACTORS
330
29
102
}
330
29
100
AcDbVisualStyle
  2
Basic
 70
     7
177
     3
291
     1
 70
    58
 90
        1
176
     1
 90
        0
176
     1
 90
        1
176
     1
 90
        0
176
     1
 40
0.6
176
     1
 40
30.0
176
     1
 62
     7
420
 16777215
176
     1
 90
        0
176
     1
 90
        4
176
     1
 62
     7
176
     1
 62
   257
176
     1
 90
        1
176
     1
 90
        1
176
     1
 40
1.0
176
     1
 90
        8
176
     1
 62
     7
176
     1
 40
1.0
176
     1
 90
        1
176
     1
 90
        6
176
     1
 90
        2
176
     1
 62
     7
176
     1
 90
        5
176
     1
 90
        0
176
     1
 90
        0
176
     1
290
     0
176
     1
 90
        1
176
     1
 40
0.0
176
     1
 90
        0
176
     1
290
     0
176
     1
290
     1
176
     1
290
     1
176
     1
290
     0
176
     1
290
     0
176
     1
290
     0
176
     1
290
     0
176
     1
290
     0
176
     1
290
     0
176
     1
 90
       50
176
     1
 40
0.0
176
     1
 40
1.0
176
     1
 90
        0
176
     1
 62
    18
420
        0
176
     1
 90
       50
176
     1
 90
        3
176
     1
 62
     5
420
      255
176
     1
290
     0
176
     1
 90
       50
176
     1
 90
       50
176
     1
 90
       50
176
     1
290
     0
176
     1
 90
       50
176
     1
 62
   256
176
     0
 40
1.0
176
     0
 90
        2
176
     1
  1
strokes_ogs.tif
176
     1
290
     0
176
     1
 40
1.0
176
     1
 40
1.0
176
     1
  0
VISUALSTYLE
  5
35
102
{ACAD_REACTORS
330
29
102
}
330
29
100
AcDbVisualStyle
  2
Brighten
 70
    12
177
     3
291
     1
 70
    58
 90
        2
176
     1
 90
        2
176
     1
 90
        0
176
     1
 90
        0
176
     1
 40
0.6
176
     1
 40
30.0
176
     1
 62
     7
420
 16777215
176
     1
 90
        1
176
     1
 90
        4
176
     1
 62
     7
176
     1
 62
   257
176
     1
 90
        1
176
     1
 90
        1
176
     1
 40
1.0
176
     1
 90
        8
176
     1
 62
     7
176
     1
 40
1.0
176
     1
 90
        1
176
     1
 90
        6
176
     1
 90
        2
176
     1
 62
     7
176
     1
 90
        5
176
     1
 90
        0
176
     1
 90
        0
176
     1
290
     0
176
     1
 90
        1
176
     1
 40
50.0
176
     1
 90
        0
176
     1
290
     0
176
     1
290
     1
176
     1
290
     1
176
     1
290
     0
176
     1
290
     0
176
     1
290
     0
176
     1
290
     0
176
     1
290
     0
176
     1
290
     0
176
     1
 90
       50
176
     1
 40
0.0
176
     1
 40
1.0
176
     1
 90
        0
176
     1
 62
    18
420
        0
176
     1
 90
       50
176
     1
 90
        3
176
     1
 62
     5
420
      255
176
     1
290
     0
176
     1
 90
       50
176
     1
 90
       50
176
     1
 90
       50
176
     1
290
     0
176
     1
 90
       50
176
     1
 62
   256
176
     0
 40
1.0
176
     0
 90
        2
176
     1
  1
strokes_ogs.tif
176
     1
290
     0
176
     1
 40
1.0
176
     1
 40
1.0
176
     1
  0
VISUALSTYLE
  5
39
102
{ACAD_REACTORS
330
29
102
}
330
29
100
AcDbVisualStyle
  2
ColorChange
 70
    16
177
     3
291
     1
 70
    58
 90
        2
176
     1
 90
        2
176
     1
 90
        3
176
     1
 90
        0
176
     1
 40
0.6
176
     1
 40
30.0
176
     1
 62
     8
420
  8421504
176
     1
 90
        1
176
     1
 90
        4
176
     1
 62
     7
176
     1
 62
   257
176
     1
 90
        1
176
     1
 90
        1
176
     1
 40
1.0
176
     1
 90
        8
176
     1
 62
     8
420
  8421504
176
     1
 40
1.0
176
     1
 90
        1
176
     1
 90
        6
176
     1
 90
        2
176
     1
 62
     7
176
     1
 90
        5
176
     1
 90
        0
176
     1
 90
        0
176
     1
290
     0
176
     1
 90
        1
176
     1
 40
0.0
176
     1
 90
        0
176
     1
290
     0
176
     1
290
     1
176
     1
290
     1
176
     1
290
     0
176
     1
290
     0
176
     1
290
     0
176
     1
290
     0
176
     1
290
     0
176
     1
290
     0
176
     1
 90
       50
176
     1
 40
0.0
176
     1
 40
1.0
176
     1
 90
        0
176
     1
 62
    18
420
        0
176
     1
 90
       50
176
     1
 90
        3
176
     1
 62
     5
420
      255
176
     1
290
     0
176
     1
 90
       50
176
     1
 90
       50
176
     1
 90
       50
176
     1
290
     0
176
     1
 90
       50
176
     1
 62
   256
176
     0
 40
1.0
176
     0
 90
        2
176
     1
  1
strokes_ogs.tif
176
     1
290
     0
176
     1
 40
1.0
176
     1
 40
1.0
176
     1
  0
VISUALSTYLE
  5
32
102
{ACAD_REACTORS
330
29
102
}
330
29
100
AcDbVisualStyle
  2
Conceptual
 70
     9
177
     3
291
     0
 70
    58
 90
        3
176
     1
 90
        2
176
     1
 90
        0
176
     1
 90
        0
176
     1
 40
0.6
176
     1
 40
30.0
176
     1
 62
     7
420
 16777215
176
     1
 90
        2
176
     1
 90
        2
176
     1
 62
     7
176
     1
 62
   257
176
     1
 90
        1
176
     1
 90
        1
176
     1
 40
179.0
176
     1
 90
        8
176
     1
 62
     7
176
     1
 40
1.0
176
     1
 90
        1
176
     1
 90
        6
176
     1
 90
        2
176
     1
 62
     7
176
     1
 90
        3
176
     1
 90
        0
176
     1
 90
        0
176
     1
290
     0
176
     1
 90
        1
176
     1
 40
0.0
176
     1
 90
        0
176
     1
290
     0
176
     1
290
     1
176
     1
290
     1
176
     1
290
     0
176
     1
290
     0
176
     1
290
     0
176
     1
290
     0
176
     1
290
     0
176
     1
290
     0
176
     1
 90
       50
176
     1
 40
0.0
176
     1
 40
1.0
176
     1
 90
        0
176
     1
 62
    18
420
        0
176
     1
 90
       50
176
     1
 90
        3
176
     1
 62
     5
420
      255
176
     1
290
     0
176
     1
 90
       50
176
     1
 90
       50
176
     1
 90
       50
176
     1
290
     0
176
     1
 90
       50
176
     1
 62
   256
176
     0
 40
1.0
176
     0
 90
        2
176
     1
  1
strokes_ogs.tif
176
     1
290
     0
176
     1
 40
1.0
176
     1
 40
1.0
176
     1
  0
VISUALSTYLE
  5
34
102
{ACAD_REACTORS
330
29
102
}
330
29
100
AcDbVisualStyle
  2
Dim
 70
    11
177
     3
291
     1
 70
    58
 90
        2
176
     1
 90
        2
176
     1
 90
        0
176
     1
 90
        0
176
     1
 40
0.6
176
     1
 40
30.0
176
     1
 62
     7
420
 16777215
176
     1
 90
        1
176
     1
 90
        4
176
     1
 62
     7
176
     1
 62
   257
176
     1
 90
        1
176
     1
 90
        1
176
     1
 40
1.0
176
     1
 90
        8
176
     1
 62
     7
176
     1
 40
1.0
176
     1
 90
        1
176
     1
 90
        6
176
     1
 90
        2
176
     1
 62
     7
176
     1
 90
        5
176
     1
 90
        0
176
     1
 90
        0
176
     1
290
     0
176
     1
 90
        1
176
     1
 40
-50.0
176
     1
 90
        0
176
     1
290
     0
176
     1
290
     1
176
     1
290
     1
176
     1
290
     0
176
     1
290
     0
176
     1
290
     0
176
     1
290
     0
176
     1
290
     0
176
     1
290
     0
176
     1
 90
       50
176
     1
 40
0.0
176
     1
 40
1.0
176
     1
 90
        0
176
     1
 62
    18
420
        0
176
     1
 90
       50
176
     1
 90
        3
176
     1
 62
     5
420
      255
176
     1
290
     0
176
     1
 90
       50
176
     1
 90
       50
176
     1
 90
       50
176
     1
290
     0
176
     1
 90
       50
176
     1
 62
   256
176
     0
 40
1.0
176
     0
 90
        2
176
     1
  1
strokes_ogs.tif
176
     1
290
     0
176
     1
 40
1.0
176
     1
 40
1.0
176
     1
  0
VISUALSTYLE
  5
41
102
{ACAD_REACTORS
330
29
102
}
330
29
100
AcDbVisualStyle
  2
EdgeColorOff
 70
    22
177
     3
291
     1
 70
    58
 90
        2
176
     0
 90
        2
176
     0
 90
        0
176
     0
 90
        0
176
     0
 40
0.6
176
     0
 40
30.0
176
     0
 62
     7
420
 16777215
176
     0
 90
        1
176
     0
 90
        4
176
     0
 62
     7
176
     0
 62
   257
176
     0
 90
        1
176
     0
 90
        1
176
     0
 40
1.0
176
     0
 90
        8
176
     2
 62
     7
176
     0
 40
1.0
176
     0
 90
        1
176
     0
 90
        6
176
     0
 90
        2
176
     0
 62
     7
176
     0
 90
        5
176
     0
 90
        0
176
     0
 90
        0
176
     0
290
     0
176
     0
 90
        1
176
     0
 40
0.0
176
     0
 90
        0
176
     0
290
     0
176
     0
290
     1
176
     0
290
     1
176
     0
290
     0
176
     0
290
     0
176
     0
290
     0
176
     0
290
     0
176
     0
290
     0
176
     0
290
     0
176
     0
 90
       50
176
     0
 40
0.0
176
     0
 40
1.0
176
     0
 90
        0
176
     0
 62
    18
420
        0
176
     0
 90
       50
176
     0
 90
        3
176
     0
 62
     5
420
      255
176
     0
290
     0
176
     0
 90
       50
176
     0
 90
       50
176
     0
 90
       50
176
     0
290
     0
176
     0
 90
       50
176
     0
 62
   256
176
     0
 40
1.0
176
     0
 90
        2
176
     0
  1
strokes_ogs.tif
176
     0
290
     0
176
     0
 40
1.0
176
     0
 40
1.0
176
     0
  0
VISUALSTYLE
  5
38
102
{ACAD_REACTORS
330
29
102
}
330
29
100
AcDbVisualStyle
  2
Facepattern
 70
    15
177
     3
291
     1
 70
    58
 90
        2
176
     1
 90
        2
176
     1
 90
        0
176
     1
 90
        0
176
     1
 40
0.6
176
     1
 40
30.0
176
     1
 62
     7
420
 16777215
176
     1
 90
        1
176
     1
 90
        4
176
     1
 62
     7
176
     1
 62
   257
176
     1
 90
        1
176
     1
 90
        1
176
     1
 40
1.0
176
     1
 90
        8
176
     1
 62
     7
176
     1
 40
1.0
176
     1
 90
        1
176
     1
 90
        6
176
     1
 90
        2
176
     1
 62
     7
176
     1
 90
        5
176
     1
 90
        0
176
     1
 90
        0
176
     1
290
     0
176
     1
 90
        1
176
     1
 40
0.0
176
     1
 90
        0
176
     1
290
     0
176
     1
290
     1
176
     1
290
     1
176
     1
290
     0
176
     1
290
     0
176
     1
290
     0
176
     1
290
     0
176
     1
290
     0
176
     1
290
     0
176
     1
 90
       50
176
     1
 40
0.0
176
     1
 40
1.0
176
     1
 90
        0
176
     1
 62
    18
420
        0
176
     1
 90
       50
176
     1
 90
        3
176
     1
 62
     5
420
      255
176
     1
290
     0
176
     1
 90
       50
176
     1
 90
       50
176
     1
 90
       50
176
     1
290
     0
176
     1
 90
       50
176
     1
 62
   256
176
     0
 40
1.0
176
     0
 90
        2
176
     1
  1
strokes_ogs.tif
176
     1
290
     0
176
     1
 40
1.0
176
     1
 40
1.0
176
     1
  0
VISUALSTYLE
  5
2A
102
{ACAD_REACTORS
330
29
102
}
330
29
100
AcDbVisualStyle
  2
Flat
 70
     0
177
     3
291
     1
 70
    58
 90
        2
176
     1
 90
        1
176
     1
 90
        1
176
     1
 90
        2
176
     1
 40
0.6
176
     1
 40
30.0
176
     1
 62
     7
420
 16777215
176
     1
 90
        0
176
     1
 90
        0
176
     1
 62
     7
176
     1
 62
   257
176
     1
 90
        1
176
     1
 90
        1
176
     1
 40
1.0
176
     1
 90
        8
176
     1
 62
     7
176
     1
 40
1.0
176
     1
 90
        1
176
     1
 90
        6
176
     1
 90
        2
176
     1
 62
     7
176
     1
 90
        5
176
     1
 90
        0
176
     1
 90
        0
176
     1
290
     0
176
     1
 90
       13
176
     1
 40
0.0
176
     1
 90
        0
176
     1
290
     0
176
     1
290
     1
176
     1
290
     1
176
     1
290
     0
176
     1
290
     0
176
     1
290
     0
176
     1
290
     0
176
     1
290
     0
176
     1
290
     0
176
     1
 90
       50
176
     1
 40
0.0
176
     1
 40
1.0
176
     1
 90
        0
176
     1
 62
    18
420
        0
176
     1
 90
       50
176
     1
 90
        3
176
     1
 62
     5
420
      255
176
     1
290
     0
176
     1
 90
       50
176
     1
 90
       50
176
     1
 90
       50
176
     1
290
     0
176
     1
 90
       50
176
     1
 62
   256
176
     0
 40
1.0
176
     0
 90
        2
176
     1
  1
strokes_ogs.tif
176
     1
290
     0
176
     1
 40
1.0
176
     1
 40
1.0
176
     1
  0
VISUALSTYLE
  5
2B
102
{ACAD_REACTORS
330
29
102
}
330
29
100
AcDbVisualStyle
  2
FlatWithEdges
 70
     1
177
     3
291
     1
 70
    58
 90
        2
176
     1
 90
        1
176
     1
 90
        1
176
     1
 90
        2
176
     1
 40
0.6
176
     1
 40
30.0
176
     1
 62
     7
420
 16777215
176
     1
 90
        1
176
     1
 90
        0
176
     1
 62
     7
176
     1
 62
   257
176
     1
 90
        1
176
     1
 90
        1
176
     1
 40
1.0
176
     1
 90
        0
176
     1
 62
   257
176
     1
 40
1.0
176
     1
 90
        1
176
     1
 90
        6
176
     1
 90
        2
176
     1
 62
     7
176
     1
 90
        5
176
     1
 90
        0
176
     1
 90
        0
176
     1
290
     0
176
     1
 90
       13
176
     1
 40
0.0
176
     1
 90
        0
176
     1
290
     0
176
     1
290
     1
176
     1
290
     1
176
     1
290
     0
176
     1
290
     0
176
     1
290
     0
176
     1
290
     0
176
     1
290
     0
176
     1
290
     0
176
     1
 90
       50
176
     1
 40
0.0
176
     1
 40
1.0
176
     1
 90
        0
176
     1
 62
    18
420
        0
176
     1
 90
       50
176
     1
 90
        3
176
     1
 62
     5
420
      255
176
     1
290
     0
176
     1
 90
       50
176
     1
 90
       50
176
     1
 90
       50
176
     1
290
     0
176
     1
 90
       50
176
     1
 62
   256
176
     0
 40
1.0
176
     0
 90
        2
176
     1
  1
strokes_ogs.tif
176
     1
290
     0
176
     1
 40
1.0
176
     1
 40
1.0
176
     1
  0
VISUALSTYLE
  5
2C
102
{ACAD_REACTORS
330
29
102
}
330
29
100
AcDbVisualStyle
  2
Gouraud
 70
     2
177
     3
291
     1
 70
    58
 90
        2
176
     1
 90
        2
176
     1
 90
        1
176
     1
 90
        2
176
     1
 40
0.6
176
     1
 40
30.0
176
     1
 62
     7
420
 16777215
176
     1
 90
        0
176
     1
 90
        0
176
     1
 62
     7
176
     1
 62
   257
176
     1
 90
        1
176
     1
 90
        1
176
     1
 40
1.0
176
     1
 90
        0
176
     1
 62
     7
176
     1
 40
1.0
176
     1
 90
        1
176
     1
 90
        6
176
     1
 90
        2
176
     1
 62
     7
176
     1
 90
        5
176
     1
 90
        0
176
     1
 90
        0
176
     1
290
     0
176
     1
 90
       13
176
     1
 40
0.0
176
     1
 90
        0
176
     1
290
     0
176
     1
290
     1
176
     1
290
     1
176
     1
290
     0
176
     1
290
     0
176
     1
290
     0
176
     1
290
     0
176
     1
290
     0
176
     1
290
     0
176
     1
 90
       50
176
     1
 40
0.0
176
     1
 40
1.0
176
     1
 90
        0
176
     1
 62
    18
420
        0
176
     1
 90
       50
176
     1
 90
        3
176
     1
 62
     5
420
      255
176
     1
290
     0
176
     1
 90
       50
176
     1
 90
       50
176
     1
 90
       50
176
     1
290
     0
176
     1
 90
       50
176
     1
 62
   256
176
     0
 40
1.0
176
     0
 90
        2
176
     1
  1
strokes_ogs.tif
176
     1
290
     0
176
     1
 40
1.0
176
     1
 40
1.0
176
     1
  0
VISUALSTYLE
  5
2D
102
{ACAD_REACTORS
330
29
102
}
330
29
100
AcDbVisualStyle
  2
GouraudWithEdges
 70
     3
177
     3
291
     1
 70
    58
 90
        2
176
     1
 90
        2
176
     1
 90
        1
176
     1
 90
        2
176
     1
 40
0.6
176
     1
 40
30.0
176
     1
 62
     7
420
 16777215
176
     1
 90
        1
176
     1
 90
        0
176
     1
 62
     7
176
     1
 62
   257
176
     1
 90
        1
176
     1
 90
        1
176
     1
 40
1.0
176
     1
 90
        0
176
     1
 62
   257
176
     1
 40
1.0
176
     1
 90
        1
176
     1
 90
        6
176
     1
 90
        2
176
     1
 62
     7
176
     1
 90
        5
176
     1
 90
        0
176
     1
 90
        0
176
     1
290
     0
176
     1
 90
       13
176
     1
 40
0.0
176
     1
 90
        0
176
     1
290
     0
176
     1
290
     1
176
     1
290
     1
176
     1
290
     0
176
     1
290
     0
176
     1
290
     0
176
     1
290
     0
176
     1
290
     0
176
     1
290
     0
176
     1
 90
       50
176
     1
 40
0.0
176
     1
 40
1.0
176
     1
 90
        0
176
     1
 62
    18
420
        0
176
     1
 90
       50
176
     1
 90
        3
176
     1
 62
     5
420
      255
176
     1
290
     0
176
     1
 90
       50
176
     1
 90
       50
176
     1
 90
       50
176
     1
290
     0
176
     1
 90
       50
176
     1
 62
   256
176
     0
 40
1.0
176
     0
 90
        2
176
     1
  1
strokes_ogs.tif
176
     1
290
     0
176
     1
 40
1.0
176
     1
 40
1.0
176
     1
  0
VISUALSTYLE
  5
31
102
{ACAD_REACTORS
330
29
102
}
330
29
100
AcDbVisualStyle
  2
Hidden
 70
     6
177
     3
291
     0
 70
    58
 90
        1
176
     1
 90
        2
176
     1
 90
        2
176
     1
 90
        0
176
     1
 40
0.6
176
     1
 40
30.0
176
     1
 62
     7
420
 16777215
176
     1
 90
        2
176
     1
 90
        2
176
     1
 62
     7
176
     1
 62
   257
176
     1
 90
        2
176
     1
 90
        1
176
     1
 40
40.0
176
     1
 90
        0
176
     1
 62
   257
176
     1
 40
1.0
176
     1
 90
        1
176
     1
 90
        6
176
     1
 90
        2
176
     1
 62
     7
176
     1
 90
        3
176
     1
 90
        0
176
     1
 90
        0
176
     1
290
     0
176
     1
 90
        1
176
     1
 40
0.0
176
     1
 90
        0
176
     1
290
     0
176
     1
290
     1
176
     1
290
     1
176
     1
290
     0
176
     1
290
     0
176
     1
290
     0
176
     1
290
     0
176
     1
290
     0
176
     1
290
     0
176
     1
 90
       50
176
     1
 40
0.0
176
     1
 40
1.0
176
     1
 90
        0
176
     1
 62
    18
420
        0
176
     1
 90
       50
176
     1
 90
        3
176
     1
 62
     5
420
      255
176
     1
290
     0
176
     1
 90
       50
176
     1
 90
       50
176
     1
 90
       50
176
     1
290
     0
176
     1
 90
       50
176
     1
 62
   256
176
     0
 40
1.0
176
     0
 90
        2
176
     1
  1
strokes_ogs.tif
176
     1
290
     0
176
     1
 40
1.0
176
     1
 40
1.0
176
     1
  0
VISUALSTYLE
  5
3F
102
{ACAD_REACTORS
330
29
102
}
330
29
100
AcDbVisualStyle
  2
JitterOff
 70
    20
177
     3
291
     1
 70
    58
 90
        2
176
     0
 90
        2
176
     0
 90
        0
176
     0
 90
        0
176
     0
 40
0.6
176
     0
 40
30.0
176
     0
 62
     7
420
 16777215
176
     0
 90
        1
176
     0
 90
        4
176
     0
 62
     7
176
     0
 62
   257
176
     0
 90
        1
176
     0
 90
        1
176
     0
 40
1.0
176
     0
 90
       10
176
     2
 62
     7
176
     0
 40
1.0
176
     0
 90
        1
176
     0
 90
        6
176
     0
 90
        2
176
     0
 62
     7
176
     0
 90
        5
176
     0
 90
        0
176
     0
 90
        0
176
     0
290
     0
176
     0
 90
        1
176
     0
 40
0.0
176
     0
 90
        0
176
     0
290
     0
176
     0
290
     1
176
     0
290
     1
176
     0
290
     0
176
     0
290
     0
176
     0
290
     0
176
     0
290
     0
176
     0
290
     0
176
     0
290
     0
176
     0
 90
       50
176
     0
 40
0.0
176
     0
 40
1.0
176
     0
 90
        0
176
     0
 62
    18
420
        0
176
     0
 90
       50
176
     0
 90
        3
176
     0
 62
     5
420
      255
176
     0
290
     0
176
     0
 90
       50
176
     0
 90
       50
176
     0
 90
       50
176
     0
290
     0
176
     0
 90
       50
176
     0
 62
   256
176
     0
 40
1.0
176
     0
 90
        2
176
     0
  1
strokes_ogs.tif
176
     0
290
     0
176
     0
 40
1.0
176
     0
 40
1.0
176
     0
  0
VISUALSTYLE
  5
37
102
{ACAD_REACTORS
330
29
102
}
330
29
100
AcDbVisualStyle
  2
Linepattern
 70
    14
177
     3
291
     1
 70
    58
 90
        2
176
     1
 90
        2
176
     1
 90
        0
176
     1
 90
        0
176
     1
 40
0.6
176
     1
 40
30.0
176
     1
 62
     7
420
 16777215
176
     1
 90
        1
176
     1
 90
        4
176
     1
 62
     7
176
     1
 62
   257
176
     1
 90
        7
176
     1
 90
        7
176
     1
 40
1.0
176
     1
 90
        8
176
     1
 62
     7
176
     1
 40
1.0
176
     1
 90
        1
176
     1
 90
        6
176
     1
 90
        2
176
     1
 62
     7
176
     1
 90
        5
176
     1
 90
        0
176
     1
 90
        0
176
     1
290
     0
176
     1
 90
        1
176
     1
 40
0.0
176
     1
 90
        0
176
     1
290
     0
176
     1
290
     1
176
     1
290
     1
176
     1
290
     0
176
     1
290
     0
176
     1
290
     0
176
     1
290
     0
176
     1
290
     0
176
     1
290
     0
176
     1
 90
       50
176
     1
 40
0.0
176
     1
 40
1.0
176
     1
 90
        0
176
     1
 62
    18
420
        0
176
     1
 90
       50
176
     1
 90
        3
176
     1
 62
     5
420
      255
176
     1
290
     0
176
     1
 90
       50
176
     1
 90
       50
176
     1
 90
       50
176
     1
290
     0
176
     1
 90
       50
176
     1
 62
   256
176
     0
 40
1.0
176
     0
 90
        2
176
     1
  1
strokes_ogs.tif
176
     1
290
     0
176
     1
 40
1.0
176
     1
 40
1.0
176
     1
  0
VISUALSTYLE
  5
40
102
{ACAD_REACTORS
330
29
102
}
330
29
100
AcDbVisualStyle
  2
OverhangOff
 70
    21
177
     3
291
     1
 70
    58
 90
        2
176
     0
 90
        2
176
     0
 90
        0
176
     0
 90
        0
176
     0
 40
0.6
176
     0
 40
30.0
176
     0
 62
     7
420
 16777215
176
     0
 90
        1
176
     0
 90
        4
176
     0
 62
     7
176
     0
 62
   257
176
     0
 90
        1
176
     0
 90
        1
176
     0
 40
1.0
176
     0
 90
        9
176
     2
 62
     7
176
     0
 40
1.0
176
     0
 90
        1
176
     0
 90
        6
176
     0
 90
        2
176
     0
 62
     7
176
     0
 90
        5
176
     0
 90
        0
176
     0
 90
        0
176
     0
290
     0
176
     0
 90
        1
176
     0
 40
0.0
176
     0
 90
        0
176
     0
290
     0
176
     0
290
     1
176
     0
290
     1
176
     0
290
     0
176
     0
290
     0
176
     0
290
     0
176
     0
290
     0
176
     0
290
     0
176
     0
290
     0
176
     0
 90
       50
176
     0
 40
0.0
176
     0
 40
1.0
176
     0
 90
        0
176
     0
 62
    18
420
        0
176
     0
 90
       50
176
     0
 90
        3
176
     0
 62
     5
420
      255
176
     0
290
     0
176
     0
 90
       50
176
     0
 90
       50
176
     0
 90
       50
176
     0
290
     0
176
     0
 90
       50
176
     0
 62
   256
176
     0
 40
1.0
176
     0
 90
        2
176
     0
  1
strokes_ogs.tif
176
     0
290
     0
176
     0
 40
1.0
176
     0
 40
1.0
176
     0
  0
VISUALSTYLE
  5
33
102
{ACAD_REACTORS
330
29
102
}
330
29
100
AcDbVisualStyle
  2
Realistic
 70
     8
177
     3
291
     0
 70
    58
 90
        2
176
     1
 90
        3
176
     1
 90
        0
176
     1
 90
        2
176
     1
 40
0.6
176
     1
 40
30.0
176
     1
 62
     7
420
 16777215
176
     1
 90
        0
176
     1
 90
        0
176
     1
 62
     7
176
     1
 62
   257
176
     1
 90
        1
176
     1
 90
        1
176
     1
 40
1.0
176
     1
 90
        8
176
     1
 62
   257
176
     1
 40
1.0
176
     1
 90
        1
176
     1
 90
        6
176
     1
 90
        2
176
     1
 62
     7
176
     1
 90
        3
176
     1
 90
        0
176
     1
 90
        0
176
     1
290
     0
176
     1
 90
       13
176
     1
 40
0.0
176
     1
 90
        0
176
     1
290
     0
176
     1
290
     1
176
     1
290
     1
176
     1
290
     0
176
     1
290
     0
176
     1
290
     0
176
     1
290
     0
176
     1
290
     0
176
     1
290
     0
176
     1
 90
       50
176
     1
 40
0.0
176
     1
 40
1.0
176
     1
 90
        0
176
     1
 62
    18
420
        0
176
     1
 90
       50
176
     1
 90
        3
176
     1
 62
     5
420
      255
176
     1
290
     0
176
     1
 90
       50
176
     1
 90
       50
176
     1
 90
       50
176
     1
290
     0
176
     1
 90
       50
176
     1
 62
   256
176
     0
 40
1.0
176
     0
 90
        2
176
     1
  1
strokes_ogs.tif
176
     1
290
     0
176
     1
 40
1.0
176
     1
 40
1.0
176
     1
  0
VISUALSTYLE
  5
3E
102
{ACAD_REACTORS
330
29
102
}
330
29
100
AcDbVisualStyle
  2
Shaded
 70
    27
177
     3
291
     0
 70
    58
 90
        2
176
     1
 90
        2
176
     1
 90
        1
176
     1
 90
        2
176
     1
 40
0.6
176
     1
 40
30.0
176
     1
 62
     7
420
 16777215
176
     1
 90
        0
176
     1
 90
        4
176
     1
 62
     7
176
     1
 62
   257
176
     1
 90
        1
176
     1
 90
        1
176
     1
 40
1.0
176
     1
 90
        8
176
     1
 62
   257
176
     1
 40
1.0
176
     1
 90
        1
176
     1
 90
        6
176
     1
 90
        2
176
     1
 62
     8
420
  7895160
176
     1
 90
        3
176
     1
 90
        0
176
     1
 90
        0
176
     1
290
     0
176
     1
 90
        5
176
     1
 40
0.0
176
     1
 90
        0
176
     1
290
     0
176
     1
290
     1
176
     1
290
     1
176
     1
290
     0
176
     1
290
     0
176
     1
290
     0
176
     1
290
     0
176
     1
290
     0
176
     1
290
     0
176
     1
 90
       50
176
     1
 40
0.0
176
     1
 40
1.0
176
     1
 90
        0
176
     1
 62
    18
420
        0
176
     1
 90
       50
176
     1
 90
        3
176
     1
 62
     5
420
      255
176
     1
290
     0
176
     1
 90
       50
176
     1
 90
       50
176
     1
 90
       50
176
     1
290
     0
176
     1
 90
       50
176
     1
 62
   256
176
     0
 40
1.0
176
     0
 90
        2
176
     1
  1
strokes_ogs.tif
176
     1
290
     0
176
     1
 40
1.0
176
     1
 40
1.0
176
     1
  0
VISUALSTYLE
  5
3D
102
{ACAD_REACTORS
330
29
102
}
330
29
100
AcDbVisualStyle
  2
Shaded with edges
 70
    26
177
     3
291
     0
 70
    58
 90
        2
176
     1
 90
        2
176
     1
 90
        1
176
     1
 90
        2
176
     1
 40
0.6
176
     1
 40
30.0
176
     1
 62
     7
420
 16777215
176
     1
 90
        1
176
     1
 90
        2
176
     1
 62
     7
176
     1
 62
   257
176
     1
 90
        2
176
     1
 90
        1
176
     1
 40
1.0
176
     1
 90
        8
176
     1
 62
   257
176
     1
 40
1.0
176
     1
 90
        1
176
     1
 90
        6
176
     1
 90
        2
176
     1
 62
     7
176
     1
 90
        3
176
     1
 90
        0
176
     1
 90
        0
176
     1
290
     0
176
     1
 90
        5
176
     1
 40
0.0
176
     1
 90
        0
176
     1
290
     0
176
     1
290
     1
176
     1
290
     1
176
     1
290
     0
176
     1
290
     0
176
     1
290
     0
176
     1
290
     0
176
     1
290
     0
176
     1
290
     0
176
     1
 90
       50
176
     1
 40
0.0
176
     1
 40
1.0
176
     1
 90
        0
176
     1
 62
    18
420
        0
176
     1
 90
       50
176
     1
 90
        3
176
     1
 62
     5
420
      255
176
     1
290
     0
176
     1
 90
       50
176
     1
 90
       50
176
     1
 90
       50
176
     1
290
     0
176
     1
 90
       50
176
     1
 62
   256
176
     0
 40
1.0
176
     0
 90
        2
176
     1
  1
strokes_ogs.tif
176
     1
290
     0
176
     1
 40
1.0
176
     1
 40
1.0
176
     1
  0
VISUALSTYLE
  5
3A
102
{ACAD_REACTORS
330
29
102
}
330
29
100
AcDbVisualStyle
  2
Shades of Gray
 70
    23
177
     3
291
     0
 70
    58
 90
        2
176
     1
 90
        2
176
     1
 90
        3
176
     1
 90
        0
176
     1
 40
0.6
176
     1
 40
30.0
176
     1
 62
     7
420
 16777215
176
     1
 90
        2
176
     1
 90
        2
176
     1
 62
     7
176
     1
 62
     7
176
     1
 90
        1
176
     1
 90
        1
176
     1
 40
40.0
176
     1
 90
        8
176
     1
 62
     7
176
     1
 40
1.0
176
     1
 90
        1
176
     1
 90
        6
176
     1
 90
        2
176
     1
 62
     7
176
     1
 90
        3
176
     1
 90
        0
176
     1
 90
        0
176
     1
290
     0
176
     1
 90
        1
176
     1
 40
0.0
176
     1
 90
        0
176
     1
290
     0
176
     1
290
     1
176
     1
290
     1
176
     1
290
     0
176
     1
290
     0
176
     1
290
     0
176
     1
290
     0
176
     1
290
     0
176
     1
290
     0
176
     1
 90
       50
176
     1
 40
0.0
176
     1
 40
1.0
176
     1
 90
        0
176
     1
 62
    18
420
        0
176
     1
 90
       50
176
     1
 90
        3
176
     1
 62
     5
420
      255
176
     1
290
     0
176
     1
 90
       50
176
     1
 90
       50
176
     1
 90
       50
176
     1
290
     0
176
     1
 90
       50
176
     1
 62
   256
176
     0
 40
1.0
176
     0
 90
        2
176
     1
  1
strokes_ogs.tif
176
     1
290
     0
176
     1
 40
1.0
176
     1
 40
1.0
176
     1
  0
VISUALSTYLE
  5
3B
102
{ACAD_REACTORS
330
29
102
}
330
29
100
AcDbVisualStyle
  2
Sketchy
 70
    24
177
     3
291
     0
 70
    58
 90
        1
176
     1
 90
        2
176
     1
 90
        2
176
     1
 90
        0
176
     1
 40
0.6
176
     1
 40
30.0
176
     1
 62
     7
420
 16777215
176
     1
 90
        2
176
     1
 90
        2
176
     1
 62
     7
176
     1
 62
     7
176
     1
 90
        1
176
     1
 90
        1
176
     1
 40
40.0
176
     1
 90
       11
176
     1
 62
     7
176
     1
 40
1.0
176
     1
 90
        1
176
     1
 90
        6
176
     1
 90
        2
176
     1
 62
     7
176
     1
 90
        6
176
     1
 90
        0
176
     1
 90
        0
176
     1
290
     0
176
     1
 90
        1
176
     1
 40
0.0
176
     1
 90
        0
176
     1
290
     0
176
     1
290
     1
176
     1
290
     1
176
     1
290
     0
176
     1
290
     0
176
     1
290
     0
176
     1
290
     0
176
     1
290
     0
176
     1
290
     0
176
     1
 90
       50
176
     1
 40
0.0
176
     1
 40
1.0
176
     1
 90
        0
176
     1
 62
    18
420
        0
176
     1
 90
       50
176
     1
 90
        3
176
     1
 62
     5
420
      255
176
     1
290
     0
176
     1
 90
       50
176
     1
 90
       50
176
     1
 90
       50
176
     1
290
     0
176
     1
 90
       50
176
     1
 62
   256
176
     0
 40
1.0
176
     0
 90
        2
176
     1
  1
strokes_ogs.tif
176
     1
290
     0
176
     1
 40
1.0
176
     1
 40
1.0
176
     1
  0
VISUALSTYLE
  5
36
102
{ACAD_REACTORS
330
29
102
}
330
29
100
AcDbVisualStyle
  2
Thicken
 70
    13
177
     3
291
     1
 70
    58
 90
        2
176
     1
 90
        2
176
     1
 90
        0
176
     1
 90
        0
176
     1
 40
0.6
176
     1
 40
30.0
176
     1
 62
     7
420
 16777215
176
     1
 90
        1
176
     1
 90
        4
176
     1
 62
     7
176
     1
 62
   257
176
     1
 90
        1
176
     1
 90
        1
176
     1
 40
1.0
176
     1
 90
       12
176
     1
 62
     7
176
     1
 40
1.0
176
     1
 90
        1
176
     1
 90
        6
176
     1
 90
        2
176
     1
 62
     7
176
     1
 90
        5
176
     1
 90
        0
176
     1
 90
        0
176
     1
290
     0
176
     1
 90
        1
176
     1
 40
0.0
176
     1
 90
        0
176
     1
290
     0
176
     1
290
     1
176
     1
290
     1
176
     1
290
     0
176
     1
290
     0
176
     1
290
     0
176
     1
290
     0
176
     1
290
     0
176
     1
290
     0
176
     1
 90
       50
176
     1
 40
0.0
176
     1
 40
1.0
176
     1
 90
        0
176
     1
 62
    18
420
        0
176
     1
 90
       50
176
     1
 90
        3
176
     1
 62
     5
420
      255
176
     1
290
     0
176
     1
 90
       50
176
     1
 90
       50
176
     1
 90
       50
176
     1
290
     0
176
     1
 90
       50
176
     1
 62
   256
176
     0
 40
1.0
176
     0
 90
        2
176
     1
  1
strokes_ogs.tif
176
     1
290
     0
176
     1
 40
1.0
176
     1
 40
1.0
176
     1
  0
VISUALSTYLE
  5
30
102
{ACAD_REACTORS
330
29
102
}
330
29
100
AcDbVisualStyle
  2
Wireframe
 70
     5
177
     3
291
     0
 70
    58
 90
        0
176
     1
 90
        2
176
     1
 90
        0
176
     1
 90
        0
176
     1
 40
0.6
176
     1
 40
30.0
176
     1
 62
     7
420
 16777215
176
     1
 90
        1
176
     1
 90
        4
176
     1
 62
     7
176
     1
 62
   257
176
     1
 90
        1
176
     1
 90
        1
176
     1
 40
1.0
176
     1
 90
        0
176
     1
 62
   257
176
     1
 40
1.0
176
     1
 90
        1
176
     1
 90
        6
176
     1
 90
        2
176
     1
 62
     7
176
     1
 90
        3
176
     1
 90
        0
176
     1
 90
        0
176
     1
290
     0
176
     1
 90
        1
176
     1
 40
0.0
176
     1
 90
        0
176
     1
290
     0
176
     1
290
     1
176
     1
290
     1
176
     1
290
     0
176
     1
290
     0
176
     1
290
     0
176
     1
290
     0
176
     1
290
     0
176
     1
290
     0
176
     1
 90
       50
176
     1
 40
0.0
176
     1
 40
1.0
176
     1
 90
        0
176
     1
 62
    18
420
        0
176
     1
 90
       50
176
     1
 90
        3
176
     1
 62
     5
420
      255
176
     1
290
     0
176
     1
 90
       50
176
     1
 90
       50
176
     1
 90
       50
176
     1
290
     0
176
     1
 90
       50
176
     1
 62
   256
176
     0
 40
1.0
176
     0
 90
        2
176
     1
  1
strokes_ogs.tif
176
     1
290
     0
176
     1
 40
1.0
176
     1
 40
1.0
176
     1
  0
VISUALSTYLE
  5
3C
102
{ACAD_REACTORS
330
29
102
}
330
29
100
AcDbVisualStyle
  2
X-Ray
 70
    25
177
     3
291
     0
 70
    58
 90
        2
176
     1
 90
        2
176
     1
 90
        1
176
     1
 90
        1
176
     1
 40
0.5
176
     1
 40
30.0
176
     1
 62
     7
420
 16777215
176
     1
 90
        1
176
     1
 90
        0
176
     1
 62
     7
176
     1
 62
   257
176
     1
 90
        1
176
     1
 90
        1
176
     1
 40
1.0
176
     1
 90
        8
176
     1
 62
     7
176
     1
 40
1.0
176
     1
 90
        1
176
     1
 90
        6
176
     1
 90
        2
176
     1
 62
     7
176
     1
 90
        3
176
     1
 90
        0
176
     1
 90
        0
176
     1
290
     0
176
     1
 90
       13
176
     1
 40
0.0
176
     1
 90
        0
176
     1
290
     0
176
     1
290
     1
176
     1
290
     1
176
     1
290
     0
176
     1
290
     0
176
     1
290
     0
176
     1
290
     0
176
     1
290
     0
176
     1
290
     0
176
     1
 90
       50
176
     1
 40
0.0
176
     1
 40
1.0
176
     1
 90
        0
176
     1
 62
    18
420
        0
176
     1
 90
       50
176
     1
 90
        3
176
     1
 62
     5
420
      255
176
     1
290
     0
176
     1
 90
       50
176
     1
 90
       50
176
     1
 90
       50
176
     1
290
     0
176
     1
 90
       50
176
     1
 62
   256
176
     0
 40
1.0
176
     0
 90
        2
176
     1
  1
strokes_ogs.tif
176
     1
290
     0
176
     1
 40
1.0
176
     1
 40
1.0
176
     1
  0
DICTIONARYVAR
  5
1BC
102
{ACAD_REACTORS
330
1B7
102
}
330
1B7
100
DictionaryVariables
280
     0
  1
1:1
  0
DICTIONARYVAR
  5
1B9
102
{ACAD_REACTORS
330
1B7
102
}
330
1B7
100
DictionaryVariables
280
     0
  1
STANDARD
  0
DICTIONARYVAR
  5
1B8
102
{ACAD_REACTORS
330
1B7
102
}
330
1B7
100
DictionaryVariables
280
     0
  1
STANDARD
  0
DICTIONARYVAR
  5
1BA
102
{ACAD_REACTORS
330
1B7
102
}
330
1B7
100
DictionaryVariables
280
     0
  1
Imperial24
  0
DICTIONARYVAR
  5
1BB
102
{ACAD_REACTORS
330
1B7
102
}
330
1B7
100
DictionaryVariables
280
     0
  1
Imperial24
  0
DICTIONARY
  5
1A
330
19
100
AcDbDictionary
280
     1
281
     1
  3
BUMPTILE
360
1C
  3
DIFFUSETILE
360
1B
  3
OPACITYTILE
360
1F
  3
REFLECTIONTILE
360
1E
  3
REFRACTIONTILE
360
20
  3
SPECULARTILE
360
1D
  0
DICTIONARY
  5
12
330
11
100
AcDbDictionary
280
     1
281
     1
  3
BUMPTILE
360
14
  3
DIFFUSETILE
360
13
  3
OPACITYTILE
360
17
  3
REFLECTIONTILE
360
16
  3
REFRACTIONTILE
360
18
  3
SPECULARTILE
360
15
  0
DICTIONARY
  5
22
330
21
100
AcDbDictionary
280
     1
281
     1
  3
BUMPTILE
360
24
  3
DIFFUSETILE
360
23
  3
OPACITYTILE
360
27
  3
REFLECTIONTILE
360
26
  3
REFRACTIONTILE
360
28
  3
SPECULARTILE
360
25
  0
DICTIONARY
  5
1BD
330
65
100
AcDbDictionary
280
     1
281
     1
  3
ACAD_ROUNDTRIP_2008_TABLESTYLE_CELLSTYLEMAP
360
1BE
  0
XRECORD
  5
1C
102
{ACAD_REACTORS
330
1A
102
}
330
1A
100
AcDbXrecord
280
     1
270
     1
271
     1
  0
XRECORD
  5
1B
102
{ACAD_REACTORS
330
1A
102
}
330
1A
100
AcDbXrecord
280
     1
270
     1
271
     1
  0
XRECORD
  5
1F
102
{ACAD_REACTORS
330
1A
102
}
330
1A
100
AcDbXrecord
280
     1
270
     1
271
     1
  0
XRECORD
  5
1E
102
{ACAD_REACTORS
330
1A
102
}
330
1A
100
AcDbXrecord
280
     1
270
     1
271
     1
  0
XRECORD
  5
20
102
{ACAD_REACTORS
330
1A
102
}
330
1A
100
AcDbXrecord
280
     1
270
     1
271
     1
  0
XRECORD
  5
1D
102
{ACAD_REACTORS
330
1A
102
}
330
1A
100
AcDbXrecord
280
     1
270
     1
271
     1
  0
XRECORD
  5
14
102
{ACAD_REACTORS
330
12
102
}
330
12
100
AcDbXrecord
280
     1
270
     1
271
     1
  0
XRECORD
  5
13
102
{ACAD_REACTORS
330
12
102
}
330
12
100
AcDbXrecord
280
     1
270
     1
271
     1
  0
XRECORD
  5
17
102
{ACAD_REACTORS
330
12
102
}
330
12
100
AcDbXrecord
280
     1
270
     1
271
     1
  0
XRECORD
  5
16
102
{ACAD_REACTORS
330
12
102
}
330
12
100
AcDbXrecord
280
     1
270
     1
271
     1
  0
XRECORD
  5
18
102
{ACAD_REACTORS
330
12
102
}
330
12
100
AcDbXrecord
280
     1
270
     1
271
     1
  0
XRECORD
  5
15
102
{ACAD_REACTORS
330
12
102
}
330
12
100
AcDbXrecord
280
     1
270
     1
271
     1
  0
XRECORD
  5
24
102
{ACAD_REACTORS
330
22
102
}
330
22
100
AcDbXrecord
280
     1
270
     1
271
     1
  0
XRECORD
  5
23
102
{ACAD_REACTORS
330
22
102
}
330
22
100
AcDbXrecord
280
     1
270
     1
271
     1
  0
XRECORD
  5
27
102
{ACAD_REACTORS
330
22
102
}
330
22
100
AcDbXrecord
280
     1
270
     1
271
     1
  0
XRECORD
  5
26
102
{ACAD_REACTORS
330
22
102
}
330
22
100
AcDbXrecord
280
     1
270
     1
271
     1
  0
XRECORD
  5
28
102
{ACAD_REACTORS
330
22
102
}
330
22
100
AcDbXrecord
280
     1
270
     1
271
     1
  0
XRECORD
  5
25
102
{ACAD_REACTORS
330
22
102
}
330
22
100
AcDbXrecord
280
     1
270
     1
271
     1
  0
CELLSTYLEMAP
  5
1BE
102
{ACAD_REACTORS
330
1BD
102
}
330
1BD
100
AcDbCellStyleMap
 90
        3
300
CELLSTYLE
  1
TABLEFORMAT_BEGIN
 90
        5
170
     1
 91
        0
 92
    32768
 62
   257
 93
        1
300
CONTENTFORMAT
  1
CONTENTFORMAT_BEGIN
 90
        0
 91
        0
 92
      512
 93
        0
300

 40
0.0
140
1.0
 94
        5
 62
     0
340
55
144
0.25
309
CONTENTFORMAT_END
171
     0
 94
        0
309
TABLEFORMAT_END
  1
CELLSTYLE_BEGIN
 90
        1
 91
        1
300
_TITLE
309
CELLSTYLE_END
300
CELLSTYLE
  1
TABLEFORMAT_BEGIN
 90
        5
170
     1
 91
        0
 92
        0
 62
   257
 93
        1
300
CONTENTFORMAT
  1
CONTENTFORMAT_BEGIN
 90
        0
 91
        0
 92
      512
 93
        0
300

 40
0.0
140
1.0
 94
        5
 62
     0
340
55
144
0.18
309
CONTENTFORMAT_END
171
     0
 94
        0
309
TABLEFORMAT_END
  1
CELLSTYLE_BEGIN
 90
        2
 91
        1
300
_HEADER
309
CELLSTYLE_END
300
CELLSTYLE
  1
TABLEFORMAT_BEGIN
 90
        5
170
     1
 91
        0
 92
        0
 62
   257
 93
        1
300
CONTENTFORMAT
  1
CONTENTFORMAT_BEGIN
 90
        0
 91
        0
 92
      512
 93
        0
300

 40
0.0
140
1.0
 94
        2
 62
     0
340
55
144
0.18
309
CONTENTFORMAT_END
171
     0
 94
        0
309
TABLEFORMAT_END
  1
CELLSTYLE_BEGIN
 90
        3
 91
        2
300
_DATA
309
CELLSTYLE_END
  0
ENDSEC
  0
EOF
