ISO-10303-21;
HEADER;
/* Generated by software containing ST-Developer
 * from STEP Tools, Inc. (www.steptools.com) 
 */

FILE_DESCRIPTION(
/* description */ (''),
/* implementation_level */ '2;1');

FILE_NAME(
/* name */ 'Leg.step',
/* time_stamp */ '2025-09-09T22:21:51+02:00',
/* author */ (''),
/* organization */ (''),
/* preprocessor_version */ 'ST-DEVELOPER v20.1',
/* originating_system */ 'Autodesk Translation Framework v14.10.0.0',
/* authorisation */ '');

FILE_SCHEMA (('AUTOMOTIVE_DESIGN { 1 0 10303 214 3 1 1 }'));
ENDSEC;

DATA;
#10=MECHANICAL_DESIGN_GEOMETRIC_PRESENTATION_REPRESENTATION('',(#13),#370);
#11=SHAPE_REPRESENTATION_RELATIONSHIP('SRR','None',#377,#12);
#12=ADVANCED_BREP_SHAPE_REPRESENTATION('',(#14),#369);
#13=STYLED_ITEM('',(#387),#14);
#14=MANIFOLD_SOLID_BREP('Body1',#222);
#15=FACE_BOUND('',#45,.T.);
#16=FACE_BOUND('',#47,.T.);
#17=CIRCLE('',#247,9.15254237288136);
#18=CIRCLE('',#248,9.15254237288136);
#19=CYLINDRICAL_SURFACE('',#246,9.15254237288136);
#20=FACE_OUTER_BOUND('',#33,.T.);
#21=FACE_OUTER_BOUND('',#34,.T.);
#22=FACE_OUTER_BOUND('',#35,.T.);
#23=FACE_OUTER_BOUND('',#36,.T.);
#24=FACE_OUTER_BOUND('',#37,.T.);
#25=FACE_OUTER_BOUND('',#38,.T.);
#26=FACE_OUTER_BOUND('',#39,.T.);
#27=FACE_OUTER_BOUND('',#40,.T.);
#28=FACE_OUTER_BOUND('',#41,.T.);
#29=FACE_OUTER_BOUND('',#42,.T.);
#30=FACE_OUTER_BOUND('',#43,.T.);
#31=FACE_OUTER_BOUND('',#44,.T.);
#32=FACE_OUTER_BOUND('',#46,.T.);
#33=EDGE_LOOP('',(#143,#144,#145,#146));
#34=EDGE_LOOP('',(#147,#148,#149,#150));
#35=EDGE_LOOP('',(#151,#152,#153,#154));
#36=EDGE_LOOP('',(#155,#156,#157,#158));
#37=EDGE_LOOP('',(#159,#160,#161,#162));
#38=EDGE_LOOP('',(#163,#164,#165,#166));
#39=EDGE_LOOP('',(#167,#168,#169,#170));
#40=EDGE_LOOP('',(#171,#172,#173,#174));
#41=EDGE_LOOP('',(#175,#176,#177,#178));
#42=EDGE_LOOP('',(#179,#180,#181,#182));
#43=EDGE_LOOP('',(#183,#184,#185,#186));
#44=EDGE_LOOP('',(#187));
#45=EDGE_LOOP('',(#188,#189,#190,#191));
#46=EDGE_LOOP('',(#192));
#47=EDGE_LOOP('',(#193,#194,#195,#196));
#48=LINE('',#312,#73);
#49=LINE('',#314,#74);
#50=LINE('',#316,#75);
#51=LINE('',#317,#76);
#52=LINE('',#320,#77);
#53=LINE('',#322,#78);
#54=LINE('',#323,#79);
#55=LINE('',#326,#80);
#56=LINE('',#328,#81);
#57=LINE('',#329,#82);
#58=LINE('',#331,#83);
#59=LINE('',#332,#84);
#60=LINE('',#337,#85);
#61=LINE('',#339,#86);
#62=LINE('',#341,#87);
#63=LINE('',#342,#88);
#64=LINE('',#345,#89);
#65=LINE('',#347,#90);
#66=LINE('',#348,#91);
#67=LINE('',#351,#92);
#68=LINE('',#353,#93);
#69=LINE('',#354,#94);
#70=LINE('',#356,#95);
#71=LINE('',#357,#96);
#72=LINE('',#363,#97);
#73=VECTOR('',#255,10.);
#74=VECTOR('',#256,10.);
#75=VECTOR('',#257,10.);
#76=VECTOR('',#258,10.);
#77=VECTOR('',#261,10.);
#78=VECTOR('',#262,10.);
#79=VECTOR('',#263,10.);
#80=VECTOR('',#266,10.);
#81=VECTOR('',#267,10.);
#82=VECTOR('',#268,10.);
#83=VECTOR('',#271,10.);
#84=VECTOR('',#272,10.);
#85=VECTOR('',#277,10.);
#86=VECTOR('',#278,10.);
#87=VECTOR('',#279,10.);
#88=VECTOR('',#280,10.);
#89=VECTOR('',#283,10.);
#90=VECTOR('',#284,10.);
#91=VECTOR('',#285,10.);
#92=VECTOR('',#288,10.);
#93=VECTOR('',#289,10.);
#94=VECTOR('',#290,10.);
#95=VECTOR('',#293,10.);
#96=VECTOR('',#294,10.);
#97=VECTOR('',#301,9.15254237288136);
#98=VERTEX_POINT('',#310);
#99=VERTEX_POINT('',#311);
#100=VERTEX_POINT('',#313);
#101=VERTEX_POINT('',#315);
#102=VERTEX_POINT('',#319);
#103=VERTEX_POINT('',#321);
#104=VERTEX_POINT('',#325);
#105=VERTEX_POINT('',#327);
#106=VERTEX_POINT('',#335);
#107=VERTEX_POINT('',#336);
#108=VERTEX_POINT('',#338);
#109=VERTEX_POINT('',#340);
#110=VERTEX_POINT('',#344);
#111=VERTEX_POINT('',#346);
#112=VERTEX_POINT('',#350);
#113=VERTEX_POINT('',#352);
#114=VERTEX_POINT('',#360);
#115=VERTEX_POINT('',#362);
#116=EDGE_CURVE('',#98,#99,#48,.T.);
#117=EDGE_CURVE('',#98,#100,#49,.F.);
#118=EDGE_CURVE('',#100,#101,#50,.F.);
#119=EDGE_CURVE('',#99,#101,#51,.T.);
#120=EDGE_CURVE('',#102,#98,#52,.T.);
#121=EDGE_CURVE('',#102,#103,#53,.F.);
#122=EDGE_CURVE('',#103,#100,#54,.F.);
#123=EDGE_CURVE('',#104,#102,#55,.T.);
#124=EDGE_CURVE('',#104,#105,#56,.T.);
#125=EDGE_CURVE('',#105,#103,#57,.F.);
#126=EDGE_CURVE('',#99,#104,#58,.T.);
#127=EDGE_CURVE('',#101,#105,#59,.F.);
#128=EDGE_CURVE('',#106,#107,#60,.T.);
#129=EDGE_CURVE('',#106,#108,#61,.T.);
#130=EDGE_CURVE('',#109,#108,#62,.T.);
#131=EDGE_CURVE('',#107,#109,#63,.T.);
#132=EDGE_CURVE('',#107,#110,#64,.T.);
#133=EDGE_CURVE('',#111,#109,#65,.T.);
#134=EDGE_CURVE('',#110,#111,#66,.T.);
#135=EDGE_CURVE('',#110,#112,#67,.T.);
#136=EDGE_CURVE('',#113,#111,#68,.T.);
#137=EDGE_CURVE('',#112,#113,#69,.T.);
#138=EDGE_CURVE('',#112,#106,#70,.T.);
#139=EDGE_CURVE('',#108,#113,#71,.T.);
#140=EDGE_CURVE('',#114,#114,#17,.T.);
#141=EDGE_CURVE('',#114,#115,#72,.T.);
#142=EDGE_CURVE('',#115,#115,#18,.T.);
#143=ORIENTED_EDGE('',*,*,#116,.F.);
#144=ORIENTED_EDGE('',*,*,#117,.T.);
#145=ORIENTED_EDGE('',*,*,#118,.T.);
#146=ORIENTED_EDGE('',*,*,#119,.F.);
#147=ORIENTED_EDGE('',*,*,#120,.F.);
#148=ORIENTED_EDGE('',*,*,#121,.T.);
#149=ORIENTED_EDGE('',*,*,#122,.T.);
#150=ORIENTED_EDGE('',*,*,#117,.F.);
#151=ORIENTED_EDGE('',*,*,#123,.F.);
#152=ORIENTED_EDGE('',*,*,#124,.T.);
#153=ORIENTED_EDGE('',*,*,#125,.T.);
#154=ORIENTED_EDGE('',*,*,#121,.F.);
#155=ORIENTED_EDGE('',*,*,#126,.F.);
#156=ORIENTED_EDGE('',*,*,#119,.T.);
#157=ORIENTED_EDGE('',*,*,#127,.T.);
#158=ORIENTED_EDGE('',*,*,#124,.F.);
#159=ORIENTED_EDGE('',*,*,#127,.F.);
#160=ORIENTED_EDGE('',*,*,#118,.F.);
#161=ORIENTED_EDGE('',*,*,#122,.F.);
#162=ORIENTED_EDGE('',*,*,#125,.F.);
#163=ORIENTED_EDGE('',*,*,#128,.F.);
#164=ORIENTED_EDGE('',*,*,#129,.T.);
#165=ORIENTED_EDGE('',*,*,#130,.F.);
#166=ORIENTED_EDGE('',*,*,#131,.F.);
#167=ORIENTED_EDGE('',*,*,#132,.F.);
#168=ORIENTED_EDGE('',*,*,#131,.T.);
#169=ORIENTED_EDGE('',*,*,#133,.F.);
#170=ORIENTED_EDGE('',*,*,#134,.F.);
#171=ORIENTED_EDGE('',*,*,#135,.F.);
#172=ORIENTED_EDGE('',*,*,#134,.T.);
#173=ORIENTED_EDGE('',*,*,#136,.F.);
#174=ORIENTED_EDGE('',*,*,#137,.F.);
#175=ORIENTED_EDGE('',*,*,#138,.F.);
#176=ORIENTED_EDGE('',*,*,#137,.T.);
#177=ORIENTED_EDGE('',*,*,#139,.F.);
#178=ORIENTED_EDGE('',*,*,#129,.F.);
#179=ORIENTED_EDGE('',*,*,#139,.T.);
#180=ORIENTED_EDGE('',*,*,#136,.T.);
#181=ORIENTED_EDGE('',*,*,#133,.T.);
#182=ORIENTED_EDGE('',*,*,#130,.T.);
#183=ORIENTED_EDGE('',*,*,#140,.F.);
#184=ORIENTED_EDGE('',*,*,#141,.T.);
#185=ORIENTED_EDGE('',*,*,#142,.T.);
#186=ORIENTED_EDGE('',*,*,#141,.F.);
#187=ORIENTED_EDGE('',*,*,#140,.T.);
#188=ORIENTED_EDGE('',*,*,#116,.T.);
#189=ORIENTED_EDGE('',*,*,#126,.T.);
#190=ORIENTED_EDGE('',*,*,#123,.T.);
#191=ORIENTED_EDGE('',*,*,#120,.T.);
#192=ORIENTED_EDGE('',*,*,#142,.F.);
#193=ORIENTED_EDGE('',*,*,#128,.T.);
#194=ORIENTED_EDGE('',*,*,#132,.T.);
#195=ORIENTED_EDGE('',*,*,#135,.T.);
#196=ORIENTED_EDGE('',*,*,#138,.T.);
#197=PLANE('',#236);
#198=PLANE('',#237);
#199=PLANE('',#238);
#200=PLANE('',#239);
#201=PLANE('',#240);
#202=PLANE('',#241);
#203=PLANE('',#242);
#204=PLANE('',#243);
#205=PLANE('',#244);
#206=PLANE('',#245);
#207=PLANE('',#249);
#208=PLANE('',#250);
#209=ADVANCED_FACE('',(#20),#197,.F.);
#210=ADVANCED_FACE('',(#21),#198,.F.);
#211=ADVANCED_FACE('',(#22),#199,.F.);
#212=ADVANCED_FACE('',(#23),#200,.F.);
#213=ADVANCED_FACE('',(#24),#201,.F.);
#214=ADVANCED_FACE('',(#25),#202,.T.);
#215=ADVANCED_FACE('',(#26),#203,.T.);
#216=ADVANCED_FACE('',(#27),#204,.T.);
#217=ADVANCED_FACE('',(#28),#205,.T.);
#218=ADVANCED_FACE('',(#29),#206,.T.);
#219=ADVANCED_FACE('',(#30),#19,.T.);
#220=ADVANCED_FACE('',(#31,#15),#207,.T.);
#221=ADVANCED_FACE('',(#32,#16),#208,.F.);
#222=CLOSED_SHELL('',(#209,#210,#211,#212,#213,#214,#215,#216,#217,#218,
#219,#220,#221));
#223=DERIVED_UNIT_ELEMENT(#225,1.);
#224=DERIVED_UNIT_ELEMENT(#372,-3.);
#225=(
MASS_UNIT()
NAMED_UNIT(*)
SI_UNIT(.KILO.,.GRAM.)
);
#226=DERIVED_UNIT((#223,#224));
#227=MEASURE_REPRESENTATION_ITEM('density measure',
POSITIVE_RATIO_MEASURE(2700.),#226);
#228=PROPERTY_DEFINITION_REPRESENTATION(#233,#230);
#229=PROPERTY_DEFINITION_REPRESENTATION(#234,#231);
#230=REPRESENTATION('material name',(#232),#369);
#231=REPRESENTATION('density',(#227),#369);
#232=DESCRIPTIVE_REPRESENTATION_ITEM('Aluminum','Aluminum');
#233=PROPERTY_DEFINITION('material property','material name',#379);
#234=PROPERTY_DEFINITION('material property','density of part',#379);
#235=AXIS2_PLACEMENT_3D('',#308,#251,#252);
#236=AXIS2_PLACEMENT_3D('',#309,#253,#254);
#237=AXIS2_PLACEMENT_3D('',#318,#259,#260);
#238=AXIS2_PLACEMENT_3D('',#324,#264,#265);
#239=AXIS2_PLACEMENT_3D('',#330,#269,#270);
#240=AXIS2_PLACEMENT_3D('',#333,#273,#274);
#241=AXIS2_PLACEMENT_3D('',#334,#275,#276);
#242=AXIS2_PLACEMENT_3D('',#343,#281,#282);
#243=AXIS2_PLACEMENT_3D('',#349,#286,#287);
#244=AXIS2_PLACEMENT_3D('',#355,#291,#292);
#245=AXIS2_PLACEMENT_3D('',#358,#295,#296);
#246=AXIS2_PLACEMENT_3D('',#359,#297,#298);
#247=AXIS2_PLACEMENT_3D('',#361,#299,#300);
#248=AXIS2_PLACEMENT_3D('',#364,#302,#303);
#249=AXIS2_PLACEMENT_3D('',#365,#304,#305);
#250=AXIS2_PLACEMENT_3D('',#366,#306,#307);
#251=DIRECTION('axis',(0.,0.,1.));
#252=DIRECTION('refdir',(1.,0.,0.));
#253=DIRECTION('center_axis',(0.,0.,-1.));
#254=DIRECTION('ref_axis',(-1.,0.,0.));
#255=DIRECTION('',(-1.,0.,0.));
#256=DIRECTION('',(0.,-1.,0.));
#257=DIRECTION('',(1.,0.,0.));
#258=DIRECTION('',(0.,1.,0.));
#259=DIRECTION('center_axis',(1.,0.,0.));
#260=DIRECTION('ref_axis',(0.,0.,-1.));
#261=DIRECTION('',(0.,0.,-1.));
#262=DIRECTION('',(0.,-1.,0.));
#263=DIRECTION('',(0.,0.,1.));
#264=DIRECTION('center_axis',(0.,0.,1.));
#265=DIRECTION('ref_axis',(1.,0.,0.));
#266=DIRECTION('',(1.,0.,0.));
#267=DIRECTION('',(0.,1.,0.));
#268=DIRECTION('',(-1.,0.,0.));
#269=DIRECTION('center_axis',(-1.,0.,0.));
#270=DIRECTION('ref_axis',(0.,0.,1.));
#271=DIRECTION('',(0.,0.,1.));
#272=DIRECTION('',(0.,0.,-1.));
#273=DIRECTION('center_axis',(0.,1.,0.));
#274=DIRECTION('ref_axis',(0.,0.,1.));
#275=DIRECTION('center_axis',(0.,0.,1.));
#276=DIRECTION('ref_axis',(1.,0.,0.));
#277=DIRECTION('',(-1.,0.,0.));
#278=DIRECTION('',(0.,1.,0.));
#279=DIRECTION('',(1.,0.,0.));
#280=DIRECTION('',(0.,1.,0.));
#281=DIRECTION('center_axis',(-1.,0.,0.));
#282=DIRECTION('ref_axis',(0.,0.,1.));
#283=DIRECTION('',(0.,0.,-1.));
#284=DIRECTION('',(0.,0.,1.));
#285=DIRECTION('',(0.,1.,0.));
#286=DIRECTION('center_axis',(0.,0.,-1.));
#287=DIRECTION('ref_axis',(-1.,0.,0.));
#288=DIRECTION('',(1.,0.,0.));
#289=DIRECTION('',(-1.,0.,0.));
#290=DIRECTION('',(0.,1.,0.));
#291=DIRECTION('center_axis',(1.,0.,0.));
#292=DIRECTION('ref_axis',(0.,0.,-1.));
#293=DIRECTION('',(0.,0.,1.));
#294=DIRECTION('',(0.,0.,-1.));
#295=DIRECTION('center_axis',(0.,1.,0.));
#296=DIRECTION('ref_axis',(0.,0.,1.));
#297=DIRECTION('center_axis',(0.,-1.,0.));
#298=DIRECTION('ref_axis',(1.,0.,0.));
#299=DIRECTION('center_axis',(0.,-1.,0.));
#300=DIRECTION('ref_axis',(1.,0.,0.));
#301=DIRECTION('',(0.,1.,0.));
#302=DIRECTION('center_axis',(0.,-1.,0.));
#303=DIRECTION('ref_axis',(1.,0.,0.));
#304=DIRECTION('center_axis',(0.,-1.,0.));
#305=DIRECTION('ref_axis',(1.,0.,0.));
#306=DIRECTION('center_axis',(0.,-1.,0.));
#307=DIRECTION('ref_axis',(1.,0.,0.));
#308=CARTESIAN_POINT('',(0.,0.,0.));
#309=CARTESIAN_POINT('Origin',(-15.1525423728814,-69.8305084745763,-4.035));
#310=CARTESIAN_POINT('',(-15.1175423728814,-69.8305084745763,-4.035));
#311=CARTESIAN_POINT('',(-23.1875423728814,-69.8305084745763,-4.035));
#312=CARTESIAN_POINT('',(-17.1525423728814,-69.8305084745763,-4.035));
#313=CARTESIAN_POINT('',(-15.1175423728814,-61.8305084745763,-4.035));
#314=CARTESIAN_POINT('',(-15.1175423728814,-69.8305084745763,-4.035));
#315=CARTESIAN_POINT('',(-23.1875423728814,-61.8305084745763,-4.035));
#316=CARTESIAN_POINT('',(-17.1525423728814,-61.8305084745763,-4.035));
#317=CARTESIAN_POINT('',(-23.1875423728814,-69.8305084745763,-4.035));
#318=CARTESIAN_POINT('Origin',(-15.1175423728814,-69.8305084745763,4.));
#319=CARTESIAN_POINT('',(-15.1175423728814,-69.8305084745763,4.035));
#320=CARTESIAN_POINT('',(-15.1175423728814,-69.8305084745763,2.));
#321=CARTESIAN_POINT('',(-15.1175423728814,-61.8305084745763,4.035));
#322=CARTESIAN_POINT('',(-15.1175423728814,-69.8305084745763,4.035));
#323=CARTESIAN_POINT('',(-15.1175423728814,-61.8305084745763,2.));
#324=CARTESIAN_POINT('Origin',(-23.1525423728814,-69.8305084745763,4.035));
#325=CARTESIAN_POINT('',(-23.1875423728814,-69.8305084745763,4.035));
#326=CARTESIAN_POINT('',(-21.1525423728814,-69.8305084745763,4.035));
#327=CARTESIAN_POINT('',(-23.1875423728814,-61.8305084745763,4.035));
#328=CARTESIAN_POINT('',(-23.1875423728814,-69.8305084745763,4.035));
#329=CARTESIAN_POINT('',(-21.1525423728814,-61.8305084745763,4.035));
#330=CARTESIAN_POINT('Origin',(-23.1875423728814,-69.8305084745763,-4.));
#331=CARTESIAN_POINT('',(-23.1875423728814,-69.8305084745763,-2.));
#332=CARTESIAN_POINT('',(-23.1875423728814,-61.8305084745763,-2.));
#333=CARTESIAN_POINT('Origin',(-19.1525423728814,-61.8305084745763,-2.22044604925031E-15));
#334=CARTESIAN_POINT('Origin',(-23.1525423728814,-49.8305084745763,4.));
#335=CARTESIAN_POINT('',(-15.1525423728814,-49.8305084745763,4.));
#336=CARTESIAN_POINT('',(-23.1525423728814,-49.8305084745763,4.));
#337=CARTESIAN_POINT('',(-21.1525423728814,-49.8305084745763,4.));
#338=CARTESIAN_POINT('',(-15.1525423728814,-45.8305084745763,4.));
#339=CARTESIAN_POINT('',(-15.1525423728814,-49.8305084745763,4.));
#340=CARTESIAN_POINT('',(-23.1525423728814,-45.8305084745763,4.));
#341=CARTESIAN_POINT('',(-15.1525423728814,-45.8305084745763,4.));
#342=CARTESIAN_POINT('',(-23.1525423728814,-49.8305084745763,4.));
#343=CARTESIAN_POINT('Origin',(-23.1525423728814,-49.8305084745763,-4.));
#344=CARTESIAN_POINT('',(-23.1525423728814,-49.8305084745763,-4.));
#345=CARTESIAN_POINT('',(-23.1525423728814,-49.8305084745763,-2.));
#346=CARTESIAN_POINT('',(-23.1525423728814,-45.8305084745763,-4.));
#347=CARTESIAN_POINT('',(-23.1525423728814,-45.8305084745763,4.));
#348=CARTESIAN_POINT('',(-23.1525423728814,-49.8305084745763,-4.));
#349=CARTESIAN_POINT('Origin',(-15.1525423728814,-49.8305084745763,-4.));
#350=CARTESIAN_POINT('',(-15.1525423728814,-49.8305084745763,-4.));
#351=CARTESIAN_POINT('',(-17.1525423728814,-49.8305084745763,-4.));
#352=CARTESIAN_POINT('',(-15.1525423728814,-45.8305084745763,-4.));
#353=CARTESIAN_POINT('',(-23.1525423728814,-45.8305084745763,-4.));
#354=CARTESIAN_POINT('',(-15.1525423728814,-49.8305084745763,-4.));
#355=CARTESIAN_POINT('Origin',(-15.1525423728814,-49.8305084745763,4.));
#356=CARTESIAN_POINT('',(-15.1525423728814,-49.8305084745763,2.));
#357=CARTESIAN_POINT('',(-15.1525423728814,-45.8305084745763,-4.));
#358=CARTESIAN_POINT('Origin',(-19.1525423728814,-45.8305084745763,-2.22044604925031E-15));
#359=CARTESIAN_POINT('Origin',(-19.1525423728814,-49.8305084745763,-2.31805191188105E-15));
#360=CARTESIAN_POINT('',(-28.3050847457627,-69.8305084745763,-3.43891508398202E-15));
#361=CARTESIAN_POINT('Origin',(-19.1525423728814,-69.8305084745763,-2.31805191188105E-15));
#362=CARTESIAN_POINT('',(-28.3050847457627,-49.8305084745763,-3.43891508398202E-15));
#363=CARTESIAN_POINT('',(-28.3050847457627,-49.8305084745763,-3.43891508398202E-15));
#364=CARTESIAN_POINT('Origin',(-19.1525423728814,-49.8305084745763,-2.31805191188105E-15));
#365=CARTESIAN_POINT('Origin',(-19.1525423728814,-69.8305084745763,-2.22044604925031E-15));
#366=CARTESIAN_POINT('Origin',(-19.1525423728814,-49.8305084745763,-2.22044604925031E-15));
#367=UNCERTAINTY_MEASURE_WITH_UNIT(LENGTH_MEASURE(0.01),#371,
'DISTANCE_ACCURACY_VALUE',
'Maximum model space distance between geometric entities at asserted c
onnectivities');
#368=UNCERTAINTY_MEASURE_WITH_UNIT(LENGTH_MEASURE(0.01),#371,
'DISTANCE_ACCURACY_VALUE',
'Maximum model space distance between geometric entities at asserted c
onnectivities');
#369=(
GEOMETRIC_REPRESENTATION_CONTEXT(3)
GLOBAL_UNCERTAINTY_ASSIGNED_CONTEXT((#367))
GLOBAL_UNIT_ASSIGNED_CONTEXT((#371,#373,#374))
REPRESENTATION_CONTEXT('','3D')
);
#370=(
GEOMETRIC_REPRESENTATION_CONTEXT(3)
GLOBAL_UNCERTAINTY_ASSIGNED_CONTEXT((#368))
GLOBAL_UNIT_ASSIGNED_CONTEXT((#371,#373,#374))
REPRESENTATION_CONTEXT('','3D')
);
#371=(
LENGTH_UNIT()
NAMED_UNIT(*)
SI_UNIT(.MILLI.,.METRE.)
);
#372=(
LENGTH_UNIT()
NAMED_UNIT(*)
SI_UNIT($,.METRE.)
);
#373=(
NAMED_UNIT(*)
PLANE_ANGLE_UNIT()
SI_UNIT($,.RADIAN.)
);
#374=(
NAMED_UNIT(*)
SI_UNIT($,.STERADIAN.)
SOLID_ANGLE_UNIT()
);
#375=SHAPE_DEFINITION_REPRESENTATION(#376,#377);
#376=PRODUCT_DEFINITION_SHAPE('',$,#379);
#377=SHAPE_REPRESENTATION('',(#235),#369);
#378=PRODUCT_DEFINITION_CONTEXT('part definition',#383,'design');
#379=PRODUCT_DEFINITION('2025-09-09-22-21-51-256','Leg',#380,#378);
#380=PRODUCT_DEFINITION_FORMATION('',$,#385);
#381=PRODUCT_RELATED_PRODUCT_CATEGORY('Leg','Leg',(#385));
#382=APPLICATION_PROTOCOL_DEFINITION('international standard',
'automotive_design',2009,#383);
#383=APPLICATION_CONTEXT(
'Core Data for Automotive Mechanical Design Process');
#384=PRODUCT_CONTEXT('part definition',#383,'mechanical');
#385=PRODUCT('2025-09-09-22-21-51-256','Leg',$,(#384));
#386=PRESENTATION_STYLE_ASSIGNMENT((#388));
#387=PRESENTATION_STYLE_ASSIGNMENT((#389));
#388=SURFACE_STYLE_USAGE(.BOTH.,#390);
#389=SURFACE_STYLE_USAGE(.BOTH.,#391);
#390=SURFACE_SIDE_STYLE('',(#392));
#391=SURFACE_SIDE_STYLE('',(#393));
#392=SURFACE_STYLE_FILL_AREA(#394);
#393=SURFACE_STYLE_FILL_AREA(#395);
#394=FILL_AREA_STYLE('Aluminum - Satin',(#396));
#395=FILL_AREA_STYLE('Polymide (Kapton)',(#397));
#396=FILL_AREA_STYLE_COLOUR('Aluminum - Satin',#398);
#397=FILL_AREA_STYLE_COLOUR('Polymide (Kapton)',#399);
#398=COLOUR_RGB('Aluminum - Satin',0.96078431372549,0.96078431372549,0.964705882352941);
#399=COLOUR_RGB('Polymide (Kapton)',0.784313725490196,0.556862745098039,
0.0274509803921569);
ENDSEC;
END-ISO-10303-21;
