  0
SECTION
  2
HEADER
  9
$ACADVER
  1
AC1021
  9
$ACADMAINTVER
 70
    25
  9
$DWGCODEPAGE
  3
ANSI_1252
  9
$INSBASE
 10
0.0
 20
0.0
 30
0.0
  9
$EXTMIN
 10
-12.01388976377953
 20
-9.013889763779527
 30
0.0
  9
$EXTMAX
 10
12.01388976377953
 20
9.013889763779527
 30
0.0
  9
$LIMMIN
 10
0.0
 20
0.0
  9
$LIMMAX
 10
12.0
 20
9.0
  9
$ORTHOMODE
 70
     0
  9
$REGENMODE
 70
     1
  9
$FILLMODE
 70
     1
  9
$QTEXTMODE
 70
     0
  9
$MIRRTEXT
 70
     1
  9
$LTSCALE
 40
1.0
  9
$ATTMODE
 70
     1
  9
$TEXTSIZE
 40
0.2
  9
$TRACEWID
 40
0.05
  9
$TEXTSTYLE
  7
Standard
  9
$CLAYER
  8
0
  9
$CELTYPE
  6
ByLayer
  9
$CECOLOR
 62
   256
  9
$CELTSCALE
 40
1.0
  9
$DISPSILH
 70
     0
  9
$DIMSCALE
 40
1.0
  9
$DIMASZ
 40
0.18
  9
$DIMEXO
 40
0.0625
  9
$DIMDLI
 40
0.38
  9
$DIMRND
 40
0.0
  9
$DIMDLE
 40
0.0
  9
$DIMEXE
 40
0.18
  9
$DIMTP
 40
0.0
  9
$DIMTM
 40
0.0
  9
$DIMTXT
 40
0.18
  9
$DIMCEN
 40
0.09
  9
$DIMTSZ
 40
0.0
  9
$DIMTOL
 70
     0
  9
$DIMLIM
 70
     0
  9
$DIMTIH
 70
     1
  9
$DIMTOH
 70
     1
  9
$DIMSE1
 70
     0
  9
$DIMSE2
 70
     0
  9
$DIMTAD
 70
     0
  9
$DIMZIN
 70
     0
  9
$DIMBLK
  1

  9
$DIMASO
 70
     1
  9
$DIMSHO
 70
     1
  9
$DIMPOST
  1

  9
$DIMAPOST
  1

  9
$DIMALT
 70
     0
  9
$DIMALTD
 70
     2
  9
$DIMALTF
 40
25.4
  9
$DIMLFAC
 40
1.0
  9
$DIMTOFL
 70
     0
  9
$DIMTVP
 40
0.0
  9
$DIMTIX
 70
     0
  9
$DIMSOXD
 70
     0
  9
$DIMSAH
 70
     0
  9
$DIMBLK1
  1

  9
$DIMBLK2
  1

  9
$DIMSTYLE
  2
Standard
  9
$DIMCLRD
 70
     0
  9
$DIMCLRE
 70
     0
  9
$DIMCLRT
 70
     0
  9
$DIMTFAC
 40
1.0
  9
$DIMGAP
 40
0.09
  9
$DIMJUST
 70
     0
  9
$DIMSD1
 70
     0
  9
$DIMSD2
 70
     0
  9
$DIMTOLJ
 70
     1
  9
$DIMTZIN
 70
     0
  9
$DIMALTZ
 70
     0
  9
$DIMALTTZ
 70
     0
  9
$DIMUPT
 70
     0
  9
$DIMDEC
 70
     4
  9
$DIMTDEC
 70
     4
  9
$DIMALTU
 70
     2
  9
$DIMALTTD
 70
     2
  9
$DIMTXSTY
  7
Standard
  9
$DIMAUNIT
 70
     0
  9
$DIMADEC
 70
     0
  9
$DIMALTRND
 40
0.0
  9
$DIMAZIN
 70
     0
  9
$DIMDSEP
 70
    46
  9
$DIMATFIT
 70
     3
  9
$DIMFRAC
 70
     0
  9
$DIMLDRBLK
  1

  9
$DIMLUNIT
 70
     2
  9
$DIMLWD
 70
    -2
  9
$DIMLWE
 70
    -2
  9
$DIMTMOVE
 70
     0
  9
$DIMFXL
 40
1.0
  9
$DIMFXLON
 70
     0
  9
$DIMJOGANG
 40
0.7853981633974483
  9
$DIMTFILL
 70
     0
  9
$DIMTFILLCLR
 70
     0
  9
$DIMARCSYM
 70
     0
  9
$DIMLTYPE
  6

  9
$DIMLTEX1
  6

  9
$DIMLTEX2
  6

  9
$LUNITS
 70
     2
  9
$LUPREC
 70
     4
  9
$SKETCHINC
 40
0.1
  9
$FILLETRAD
 40
0.5
  9
$AUNITS
 70
     0
  9
$AUPREC
 70
     0
  9
$MENU
  1
.
  9
$ELEVATION
 40
0.0
  9
$PELEVATION
 40
0.0
  9
$THICKNESS
 40
0.0
  9
$LIMCHECK
 70
     0
  9
$CHAMFERA
 40
0.5
  9
$CHAMFERB
 40
0.5
  9
$CHAMFERC
 40
1.0
  9
$CHAMFERD
 40
0.0
  9
$SKPOLY
 70
     0
  9
$TDCREATE
 40
2455432.795893542
  9
$TDUCREATE
 40
2455433.087560209
  9
$TDUPDATE
 40
2455432.795893553
  9
$TDUUPDATE
 40
2455433.08756022
  9
$TDINDWG
 40
0.0000000116
  9
$TDUSRTIMER
 40
0.0000000116
  9
$USRTIMER
 70
     1
  9
$ANGBASE
 50
0.0
  9
$ANGDIR
 70
     0
  9
$PDMODE
 70
     0
  9
$PDSIZE
 40
0.0
  9
$PLINEWID
 40
0.0
  9
$SPLFRAME
 70
     0
  9
$SPLINETYPE
 70
     6
  9
$SPLINESEGS
 70
     8
  9
$HANDSEED
  5
14D
  9
$SURFTAB1
 70
     6
  9
$SURFTAB2
 70
     6
  9
$SURFTYPE
 70
     6
  9
$SURFU
 70
     6
  9
$SURFV
 70
     6
  9
$UCSBASE
  2

  9
$UCSNAME
  2

  9
$UCSORG
 10
0.0
 20
0.0
 30
0.0
  9
$UCSXDIR
 10
1.0
 20
0.0
 30
0.0
  9
$UCSYDIR
 10
0.0
 20
1.0
 30
0.0
  9
$UCSORTHOREF
  2

  9
$UCSORTHOVIEW
 70
     0
  9
$UCSORGTOP
 10
0.0
 20
0.0
 30
0.0
  9
$UCSORGBOTTOM
 10
0.0
 20
0.0
 30
0.0
  9
$UCSORGLEFT
 10
0.0
 20
0.0
 30
0.0
  9
$UCSORGRIGHT
 10
0.0
 20
0.0
 30
0.0
  9
$UCSORGFRONT
 10
0.0
 20
0.0
 30
0.0
  9
$UCSORGBACK
 10
0.0
 20
0.0
 30
0.0
  9
$PUCSBASE
  2

  9
$PUCSNAME
  2

  9
$PUCSORG
 10
0.0
 20
0.0
 30
0.0
  9
$PUCSXDIR
 10
1.0
 20
0.0
 30
0.0
  9
$PUCSYDIR
 10
0.0
 20
1.0
 30
0.0
  9
$PUCSORTHOREF
  2

  9
$PUCSORTHOVIEW
 70
     0
  9
$PUCSORGTOP
 10
0.0
 20
0.0
 30
0.0
  9
$PUCSORGBOTTOM
 10
0.0
 20
0.0
 30
0.0
  9
$PUCSORGLEFT
 10
0.0
 20
0.0
 30
0.0
  9
$PUCSORGRIGHT
 10
0.0
 20
0.0
 30
0.0
  9
$PUCSORGFRONT
 10
0.0
 20
0.0
 30
0.0
  9
$PUCSORGBACK
 10
0.0
 20
0.0
 30
0.0
  9
$USERI1
 70
     0
  9
$USERI2
 70
     0
  9
$USERI3
 70
     0
  9
$USERI4
 70
     0
  9
$USERI5
 70
     0
  9
$USERR1
 40
0.0
  9
$USERR2
 40
0.0
  9
$USERR3
 40
0.0
  9
$USERR4
 40
0.0
  9
$USERR5
 40
0.0
  9
$WORLDVIEW
 70
     1
  9
$SHADEDGE
 70
     3
  9
$SHADEDIF
 70
    70
  9
$TILEMODE
 70
     1
  9
$MAXACTVP
 70
    64
  9
$PINSBASE
 10
0.0
 20
0.0
 30
0.0
  9
$PLIMCHECK
 70
     0
  9
$PEXTMIN
 10
1.000000000000000E+20
 20
1.000000000000000E+20
 30
1.000000000000000E+20
  9
$PEXTMAX
 10
-1.000000000000000E+20
 20
-1.000000000000000E+20
 30
-1.000000000000000E+20
  9
$PLIMMIN
 10
0.0
 20
0.0
  9
$PLIMMAX
 10
12.0
 20
9.0
  9
$UNITMODE
 70
     0
  9
$VISRETAIN
 70
     1
  9
$PLINEGEN
 70
     0
  9
$PSLTSCALE
 70
     1
  9
$TREEDEPTH
 70
  3020
  9
$CMLSTYLE
  2
Standard
  9
$CMLJUST
 70
     0
  9
$CMLSCALE
 40
1.0
  9
$PROXYGRAPHICS
 70
     1
  9
$MEASUREMENT
 70
     0
  9
$CELWEIGHT
370
    -1
  9
$ENDCAPS
280
     0
  9
$JOINSTYLE
280
     0
  9
$LWDISPLAY
290
     0
  9
$INSUNITS
 70
     1
  9
$HYPERLINKBASE
  1

  9
$STYLESHEET
  1

  9
$XEDIT
290
     1
  9
$CEPSNTYPE
380
     0
  9
$PSTYLEMODE
290
     1
  9
$FINGERPRINTGUID
  2
{4360FC07-CF94-49C8-BF52-A8F571063641}
  9
$VERSIONGUID
  2
{FAEB1C32-E019-11D5-929B-00C0DF256EC4}
  9
$EXTNAMES
290
     1
  9
$PSVPSCALE
 40
0.0
  9
$OLESTARTUP
290
     0
  9
$SORTENTS
280
   127
  9
$INDEXCTL
280
     0
  9
$HIDETEXT
280
     1
  9
$XCLIPFRAME
290
     0
  9
$HALOGAP
280
     0
  9
$OBSCOLOR
 70
   257
  9
$OBSLTYPE
280
     0
  9
$INTERSECTIONDISPLAY
280
     0
  9
$INTERSECTIONCOLOR
 70
   257
  9
$DIMASSOC
280
     2
  9
$PROJECTNAME
  1

  9
$CAMERADISPLAY
290
     0
  9
$LENSLENGTH
 40
50.0
  9
$CAMERAHEIGHT
 40
0.0
  9
$STEPSPERSEC
 40
2.0
  9
$STEPSIZE
 40
6.0
  9
$3DDWFPREC
 40
2.0
  9
$PSOLWIDTH
 40
0.25
  9
$PSOLHEIGHT
 40
4.0
  9
$LOFTANG1
 40
1.570796326794897
  9
$LOFTANG2
 40
1.570796326794897
  9
$LOFTMAG1
 40
0.0
  9
$LOFTMAG2
 40
0.0
  9
$LOFTPARAM
 70
     7
  9
$LOFTNORMALS
280
     1
  9
$LATITUDE
 40
37.795
  9
$LONGITUDE
 40
-122.394
  9
$NORTHDIRECTION
 40
0.0
  9
$TIMEZONE
 70
 -8000
  9
$LIGHTGLYPHDISPLAY
280
     1
  9
$TILEMODELIGHTSYNCH
280
     1
  9
$SOLIDHIST
280
     1
  9
$SHOWHIST
280
     1
  9
$DWFFRAME
280
     2
  9
$DGNFRAME
280
     2
  9
$REALWORLDSCALE
290
     1
  9
$INTERFERECOLOR
 62
   256
  9
$CSHADOW
280
     0
  9
$SHADOWPLANELOCATION
 40
0.0
  0
ENDSEC
  0
SECTION
  2
CLASSES
  0
CLASS
  1
ACDBDICTIONARYWDFLT
  2
AcDbDictionaryWithDefault
  3
ObjectDBX Classes
 90
        0
 91
        3
280
     0
281
     0
  0
CLASS
  1
VISUALSTYLE
  2
AcDbVisualStyle
  3
ObjectDBX Classes
 90
     4095
 91
        3
280
     0
281
     0
  0
CLASS
  1
SCALE
  2
AcDbScale
  3
ObjectDBX Classes
 90
     1153
 91
        3
280
     0
281
     0
  0
ENDSEC
  0
SECTION
  2
TABLES
  0
TABLE
  2
VPORT
  5
8
330
0
100
AcDbSymbolTable
 70
     1
  0
VPORT
  5
29
330
8
100
AcDbSymbolTableRecord
100
AcDbViewportTableRecord
  2
*Active
 70
     0
 10
0.0
 20
0.0
 11
1.0
 21
1.0
 12
10.42990654205607
 22
4.5
 13
0.0
 23
0.0
 14
0.5
 24
0.5
 15
0.5
 25
0.5
 16
0.0
 26
0.0
 36
1.0
 17
0.0
 27
0.0
 37
0.0
 40
9.0
 41
1.972972972850329
 42
50.0
 43
0.0
 44
0.0
 50
0.0
 51
0.0
 71
     0
 72
   100
 73
     1
 74
     3
 75
     0
 76
     0
 77
     0
 78
     0
281
     0
 65
     1
110
0.0
120
0.0
130
0.0
111
1.0
121
0.0
131
0.0
112
0.0
122
1.0
132
0.0
 79
     0
146
0.0
 60
     3
 61
     5
292
     1
282
     1
141
0.0
142
0.0
 63
   256
  0
ENDTAB
  0
TABLE
  2
LTYPE
  5
5
330
0
100
AcDbSymbolTable
 70
     1
  0
LTYPE
  5
14
330
5
100
AcDbSymbolTableRecord
100
AcDbLinetypeTableRecord
  2
ByBlock
 70
     0
  3

 72
    65
 73
     0
 40
0.0
  0
LTYPE
  5
15
330
5
100
AcDbSymbolTableRecord
100
AcDbLinetypeTableRecord
  2
ByLayer
 70
     0
  3

 72
    65
 73
     0
 40
0.0
  0
LTYPE
  5
16
330
5
100
AcDbSymbolTableRecord
100
AcDbLinetypeTableRecord
  2
Continuous
 70
     0
  3
Solid line
 72
    65
 73
     0
 40
0.0
  0
ENDTAB
  0
TABLE
  2
LAYER
  5
2
330
0
100
AcDbSymbolTable
 70
     2
  0
LAYER
  5
10
330
2
100
AcDbSymbolTableRecord
100
AcDbLayerTableRecord
  2
0
 70
     0
 62
     7
  6
Continuous
370
    -3
390
F
347
0
  0
LAYER
  5
5E
330
2
100
AcDbSymbolTableRecord
100
AcDbLayerTableRecord
  2
Layer 1
 70
     0
 62
     7
  6
Continuous
370
    -3
390
F
347
0
  0
ENDTAB
  0
TABLE
  2
STYLE
  5
3
330
0
100
AcDbSymbolTable
 70
     1
  0
STYLE
  5
11
330
3
100
AcDbSymbolTableRecord
100
AcDbTextStyleTableRecord
  2
Standard
 70
     0
 40
0.0
 41
1.0
 50
0.0
 71
     0
 42
0.2
  3
txt
  4

  0
ENDTAB
  0
TABLE
  2
VIEW
  5
6
330
0
100
AcDbSymbolTable
 70
     0
  0
ENDTAB
  0
TABLE
  2
UCS
  5
7
330
0
100
AcDbSymbolTable
 70
     0
  0
ENDTAB
  0
TABLE
  2
APPID
  5
9
330
0
100
AcDbSymbolTable
 70
     2
  0
APPID
  5
12
330
9
100
AcDbSymbolTableRecord
100
AcDbRegAppTableRecord
  2
ACAD
 70
     0
  0
APPID
  5
5D
330
9
100
AcDbSymbolTableRecord
100
AcDbRegAppTableRecord
  2
ODA
 70
     0
  0
ENDTAB
  0
TABLE
  2
DIMSTYLE
  5
A
330
0
100
AcDbSymbolTable
 70
     1
100
AcDbDimStyleTable
  0
DIMSTYLE
105
27
330
A
100
AcDbSymbolTableRecord
100
AcDbDimStyleTableRecord
  2
Standard
 70
     0
340
11
  0
ENDTAB
  0
TABLE
  2
BLOCK_RECORD
  5
1
330
0
100
AcDbSymbolTable
 70
     1
  0
BLOCK_RECORD
  5
1F
330
1
100
AcDbSymbolTableRecord
100
AcDbBlockTableRecord
  2
*Model_Space
340
22
 70
     0
280
     1
281
     0
  0
BLOCK_RECORD
  5
1B
330
1
100
AcDbSymbolTableRecord
100
AcDbBlockTableRecord
  2
*Paper_Space
340
1E
 70
     0
280
     1
281
     0
  0
BLOCK_RECORD
  5
23
330
1
100
AcDbSymbolTableRecord
100
AcDbBlockTableRecord
  2
*Paper_Space0
340
26
 70
     0
280
     1
281
     0
  0
ENDTAB
  0
ENDSEC
  0
SECTION
  2
BLOCKS
  0
BLOCK
  5
20
330
1F
100
AcDbEntity
  8
0
100
AcDbBlockBegin
  2
*Model_Space
 70
     0
 10
0.0
 20
0.0
 30
0.0
  3
*Model_Space
  1

  0
ENDBLK
  5
21
330
1F
100
AcDbEntity
  8
0
100
AcDbBlockEnd
  0
BLOCK
  5
1C
330
1B
100
AcDbEntity
 67
     1
  8
0
100
AcDbBlockBegin
  2
*Paper_Space
 70
     0
 10
0.0
 20
0.0
 30
0.0
  3
*Paper_Space
  1

  0
ENDBLK
  5
1D
330
1B
100
AcDbEntity
 67
     1
  8
0
100
AcDbBlockEnd
  0
BLOCK
  5
24
330
23
100
AcDbEntity
  8
0
100
AcDbBlockBegin
  2
*Paper_Space0
 70
     0
 10
0.0
 20
0.0
 30
0.0
  3
*Paper_Space0
  1

  0
ENDBLK
  5
25
330
23
100
AcDbEntity
  8
0
100
AcDbBlockEnd
  0
ENDSEC
  0
SECTION
  2
ENTITIES
  0
SPLINE
  5
5F
330
1F
100
AcDbEntity
  8
Layer 1
 62
     1
370
    70
100
AcDbSpline
210
0.0
220
0.0
230
1.0
 70
     8
 71
     3
 72
    32
 73
    28
 74
     0
 42
0.0000000001
 43
0.0000000001
 40
0.0
 40
0.0
 40
0.0
 40
0.0
 40
0.1428571428571428
 40
0.1428571428571428
 40
0.1428571428571428
 40
0.1428571428571428
 40
0.2857142857142857
 40
0.2857142857142857
 40
0.2857142857142857
 40
0.2857142857142857
 40
0.4285714285714285
 40
0.4285714285714285
 40
0.4285714285714285
 40
0.4285714285714285
 40
0.5714285714285714
 40
0.5714285714285714
 40
0.5714285714285714
 40
0.5714285714285714
 40
0.7142857142857142
 40
0.7142857142857142
 40
0.7142857142857142
 40
0.7142857142857142
 40
0.857142857142857
 40
0.857142857142857
 40
0.857142857142857
 40
0.857142857142857
 40
1.0
 40
1.0
 40
1.0
 40
1.0
 10
-10.77829921259842
 20
6.962
 30
0.0
 10
-10.77829921259842
 20
6.962
 30
0.0
 10
-11.56689763779528
 20
6.962
 30
0.0
 10
-11.56689763779528
 20
6.962
 30
0.0
 10
-11.56689763779528
 20
6.962
 30
0.0
 10
-11.56689763779528
 20
6.962
 30
0.0
 10
-11.50731496062992
 20
7.431314960629921
 30
0.0
 10
-11.50731496062992
 20
7.431314960629921
 30
0.0
 10
-11.50731496062992
 20
7.431314960629921
 30
0.0
 10
-11.50731496062992
 20
7.431314960629921
 30
0.0
 10
-11.7603937007874
 20
7.429787401574803
 30
0.0
 10
-11.7603937007874
 20
7.429787401574803
 30
0.0
 10
-11.7603937007874
 20
7.429787401574803
 30
0.0
 10
-11.7603937007874
 20
7.429787401574803
 30
0.0
 10
-11.65723622047244
 20
8.109968503937008
 30
0.0
 10
-11.65723622047244
 20
8.109968503937008
 30
0.0
 10
-11.65723622047244
 20
8.109968503937008
 30
0.0
 10
-11.65723622047244
 20
8.109968503937008
 30
0.0
 10
-11.43103149606299
 20
8.110874015748031
 30
0.0
 10
-11.43103149606299
 20
8.110874015748031
 30
0.0
 10
-11.43103149606299
 20
8.110874015748031
 30
0.0
 10
-11.43103149606299
 20
8.110874015748031
 30
0.0
 10
-11.39
 20
8.502692913385827
 30
0.0
 10
-11.39
 20
8.502692913385827
 30
0.0
 10
-11.39
 20
8.502692913385827
 30
0.0
 10
-11.39
 20
8.502692913385827
 30
0.0
 10
-10.77829921259842
 20
8.50415748031496
 30
0.0
 10
-10.77829921259842
 20
8.50415748031496
 30
0.0
  0
SPLINE
  5
60
330
1F
100
AcDbEntity
  8
Layer 1
 62
     1
370
    70
100
AcDbSpline
210
0.0
220
0.0
230
1.0
 70
     8
 71
     3
 72
    32
 73
    28
 74
     0
 42
0.0000000001
 43
0.0000000001
 40
0.0
 40
0.0
 40
0.0
 40
0.0
 40
0.1428571428571428
 40
0.1428571428571428
 40
0.1428571428571428
 40
0.1428571428571428
 40
0.2857142857142857
 40
0.2857142857142857
 40
0.2857142857142857
 40
0.2857142857142857
 40
0.4285714285714285
 40
0.4285714285714285
 40
0.4285714285714285
 40
0.4285714285714285
 40
0.5714285714285714
 40
0.5714285714285714
 40
0.5714285714285714
 40
0.5714285714285714
 40
0.7142857142857142
 40
0.7142857142857142
 40
0.7142857142857142
 40
0.7142857142857142
 40
0.857142857142857
 40
0.857142857142857
 40
0.857142857142857
 40
0.857142857142857
 40
1.0
 40
1.0
 40
1.0
 40
1.0
 10
-10.77829921259842
 20
6.962
 30
0.0
 10
-10.77829921259842
 20
6.962
 30
0.0
 10
-9.989700787401574
 20
6.962
 30
0.0
 10
-9.989700787401574
 20
6.962
 30
0.0
 10
-9.989700787401574
 20
6.962
 30
0.0
 10
-9.989700787401574
 20
6.962
 30
0.0
 10
-10.04928346456693
 20
7.431314960629921
 30
0.0
 10
-10.04928346456693
 20
7.431314960629921
 30
0.0
 10
-10.04928346456693
 20
7.431314960629921
 30
0.0
 10
-10.04928346456693
 20
7.431314960629921
 30
0.0
 10
-9.79620472440945
 20
7.429787401574803
 30
0.0
 10
-9.79620472440945
 20
7.429787401574803
 30
0.0
 10
-9.79620472440945
 20
7.429787401574803
 30
0.0
 10
-9.79620472440945
 20
7.429787401574803
 30
0.0
 10
-9.89936220472441
 20
8.109968503937008
 30
0.0
 10
-9.89936220472441
 20
8.109968503937008
 30
0.0
 10
-9.89936220472441
 20
8.109968503937008
 30
0.0
 10
-9.89936220472441
 20
8.109968503937008
 30
0.0
 10
-10.12556692913386
 20
8.110874015748031
 30
0.0
 10
-10.12556692913386
 20
8.110874015748031
 30
0.0
 10
-10.12556692913386
 20
8.110874015748031
 30
0.0
 10
-10.12556692913386
 20
8.110874015748031
 30
0.0
 10
-10.16659842519685
 20
8.502692913385827
 30
0.0
 10
-10.16659842519685
 20
8.502692913385827
 30
0.0
 10
-10.16659842519685
 20
8.502692913385827
 30
0.0
 10
-10.16659842519685
 20
8.502692913385827
 30
0.0
 10
-10.77829921259842
 20
8.50415748031496
 30
0.0
 10
-10.77829921259842
 20
8.50415748031496
 30
0.0
  0
SPLINE
  5
61
330
1F
100
AcDbEntity
  8
Layer 1
 62
     1
370
    70
100
AcDbSpline
210
0.0
220
0.0
230
1.0
 70
     8
 71
     3
 72
    16
 73
    12
 74
     0
 42
0.0000000001
 43
0.0000000001
 40
0.0
 40
0.0
 40
0.0
 40
0.0
 40
0.3333333333333333
 40
0.3333333333333333
 40
0.3333333333333333
 40
0.3333333333333333
 40
0.6666666666666666
 40
0.6666666666666666
 40
0.6666666666666666
 40
0.6666666666666666
 40
1.0
 40
1.0
 40
1.0
 40
1.0
 10
-8.783023622047244
 20
4.761472440944882
 30
0.0
 10
-8.783023622047244
 20
4.761472440944882
 30
0.0
 10
-8.783023622047244
 20
5.452228346456693
 30
0.0
 10
-8.783023622047244
 20
5.452228346456693
 30
0.0
 10
-8.783023622047244
 20
5.452228346456693
 30
0.0
 10
-8.783023622047244
 20
5.565724409448819
 30
0.0
 10
-8.677125984251969
 20
5.658590551181103
 30
0.0
 10
-8.547685039370078
 20
5.658590551181103
 30
0.0
 10
-8.547685039370078
 20
5.658590551181103
 30
0.0
 10
-8.547685039370078
 20
5.658590551181103
 30
0.0
 10
-8.176929133858268
 20
5.658590551181103
 30
0.0
 10
-8.176929133858268
 20
5.658590551181103
 30
0.0
  0
SPLINE
  5
62
330
1F
100
AcDbEntity
  8
Layer 1
 62
     1
370
    70
100
AcDbSpline
210
0.0
220
0.0
230
1.0
 70
     8
 71
     3
 72
    12
 73
     8
 74
     0
 42
0.0000000001
 43
0.0000000001
 40
0.0
 40
0.0
 40
0.0
 40
0.0
 40
0.5
 40
0.5
 40
0.5
 40
0.5
 40
1.0
 40
1.0
 40
1.0
 40
1.0
 10
-8.176929133858268
 20
3.532700787401575
 30
0.0
 10
-8.176929133858268
 20
3.532700787401575
 30
0.0
 10
-8.547685039370078
 20
3.532700787401575
 30
0.0
 10
-8.547685039370078
 20
3.532700787401575
 30
0.0
 10
-8.547685039370078
 20
3.532700787401575
 30
0.0
 10
-8.67711811023622
 20
3.532700787401575
 30
0.0
 10
-8.783023622047244
 20
3.625566929133858
 30
0.0
 10
-8.783023622047244
 20
3.739062992125984
 30
0.0
  0
SPLINE
  5
63
330
1F
100
AcDbEntity
  8
Layer 1
 62
     1
370
    70
100
AcDbSpline
210
0.0
220
0.0
230
1.0
 70
     8
 71
     3
 72
    16
 73
    12
 74
     0
 42
0.0000000001
 43
0.0000000001
 40
0.0
 40
0.0
 40
0.0
 40
0.0
 40
0.3333333333333333
 40
0.3333333333333333
 40
0.3333333333333333
 40
0.3333333333333333
 40
0.6666666666666666
 40
0.6666666666666666
 40
0.6666666666666666
 40
0.6666666666666666
 40
1.0
 40
1.0
 40
1.0
 40
1.0
 10
-8.783023622047244
 20
4.761472440944882
 30
0.0
 10
-8.783023622047244
 20
4.761472440944882
 30
0.0
 10
-8.603653543307086
 20
4.761472440944882
 30
0.0
 10
-8.603653543307086
 20
4.761472440944882
 30
0.0
 10
-8.603653543307086
 20
4.761472440944882
 30
0.0
 10
-8.603653543307086
 20
4.761472440944882
 30
0.0
 10
-8.603653543307086
 20
4.429818897637795
 30
0.0
 10
-8.603653543307086
 20
4.429818897637795
 30
0.0
 10
-8.603653543307086
 20
4.429818897637795
 30
0.0
 10
-8.603653543307086
 20
4.429818897637795
 30
0.0
 10
-8.783023622047244
 20
4.429818897637795
 30
0.0
 10
-8.783023622047244
 20
4.429818897637795
 30
0.0
  0
SPLINE
  5
64
330
1F
100
AcDbEntity
  8
Layer 1
 62
     1
370
    70
100
AcDbSpline
210
0.0
220
0.0
230
1.0
 70
    24
 71
     3
 72
     8
 73
     4
 74
     0
 42
0.0000000001
 43
0.0000000001
 40
0.0
 40
0.0
 40
0.0
 40
0.0
 40
1.0
 40
1.0
 40
1.0
 40
1.0
 10
-8.783023622047244
 20
4.429818897637795
 30
0.0
 10
-8.783023622047244
 20
4.199566929133859
 30
0.0
 10
-8.783023622047244
 20
3.969314960629921
 30
0.0
 10
-8.783023622047244
 20
3.739062992125984
 30
0.0
  0
SPLINE
  5
65
330
1F
100
AcDbEntity
  8
Layer 1
 62
     1
370
    70
100
AcDbSpline
210
0.0
220
0.0
230
1.0
 70
     8
 71
     3
 72
    16
 73
    12
 74
     0
 42
0.0000000001
 43
0.0000000001
 40
0.0
 40
0.0
 40
0.0
 40
0.0
 40
0.3333333333333333
 40
0.3333333333333333
 40
0.3333333333333333
 40
0.3333333333333333
 40
0.6666666666666666
 40
0.6666666666666666
 40
0.6666666666666666
 40
0.6666666666666666
 40
1.0
 40
1.0
 40
1.0
 40
1.0
 10
-7.386511811023622
 20
4.752244094488189
 30
0.0
 10
-7.386511811023622
 20
4.752244094488189
 30
0.0
 10
-7.386511811023622
 20
5.443
 30
0.0
 10
-7.386511811023622
 20
5.443
 30
0.0
 10
-7.386511811023622
 20
5.443
 30
0.0
 10
-7.386511811023622
 20
5.556496062992126
 30
0.0
 10
-7.492456692913386
 20
5.647212598425197
 30
0.0
 10
-7.621850393700788
 20
5.64936220472441
 30
0.0
 10
-7.621850393700788
 20
5.64936220472441
 30
0.0
 10
-7.621850393700788
 20
5.64936220472441
 30
0.0
 10
-8.176929133858268
 20
5.658590551181103
 30
0.0
 10
-8.176929133858268
 20
5.658590551181103
 30
0.0
  0
SPLINE
  5
66
330
1F
100
AcDbEntity
  8
Layer 1
 62
     1
370
    70
100
AcDbSpline
210
0.0
220
0.0
230
1.0
 70
     8
 71
     3
 72
    12
 73
     8
 74
     0
 42
0.0000000001
 43
0.0000000001
 40
0.0
 40
0.0
 40
0.0
 40
0.0
 40
0.5
 40
0.5
 40
0.5
 40
0.5
 40
1.0
 40
1.0
 40
1.0
 40
1.0
 10
-8.176929133858268
 20
3.532700787401575
 30
0.0
 10
-8.176929133858268
 20
3.532700787401575
 30
0.0
 10
-7.621850393700788
 20
3.523472440944882
 30
0.0
 10
-7.621850393700788
 20
3.523472440944882
 30
0.0
 10
-7.621850393700788
 20
3.523472440944882
 30
0.0
 10
-7.492440944881889
 20
3.521330708661417
 30
0.0
 10
-7.386511811023622
 20
3.616338582677165
 30
0.0
 10
-7.386511811023622
 20
3.729834645669291
 30
0.0
  0
SPLINE
  5
67
330
1F
100
AcDbEntity
  8
Layer 1
 62
     1
370
    70
100
AcDbSpline
210
0.0
220
0.0
230
1.0
 70
     8
 71
     3
 72
    16
 73
    12
 74
     0
 42
0.0000000001
 43
0.0000000001
 40
0.0
 40
0.0
 40
0.0
 40
0.0
 40
0.3333333333333333
 40
0.3333333333333333
 40
0.3333333333333333
 40
0.3333333333333333
 40
0.6666666666666666
 40
0.6666666666666666
 40
0.6666666666666666
 40
0.6666666666666666
 40
1.0
 40
1.0
 40
1.0
 40
1.0
 10
-7.386511811023622
 20
4.752244094488189
 30
0.0
 10
-7.386511811023622
 20
4.752244094488189
 30
0.0
 10
-7.565881889763779
 20
4.752244094488189
 30
0.0
 10
-7.565881889763779
 20
4.752244094488189
 30
0.0
 10
-7.565881889763779
 20
4.752244094488189
 30
0.0
 10
-7.565881889763779
 20
4.752244094488189
 30
0.0
 10
-7.565881889763779
 20
4.420590551181102
 30
0.0
 10
-7.565881889763779
 20
4.420590551181102
 30
0.0
 10
-7.565881889763779
 20
4.420590551181102
 30
0.0
 10
-7.565881889763779
 20
4.420590551181102
 30
0.0
 10
-7.386511811023622
 20
4.420590551181102
 30
0.0
 10
-7.386511811023622
 20
4.420590551181102
 30
0.0
  0
SPLINE
  5
68
330
1F
100
AcDbEntity
  8
Layer 1
 62
     1
370
    70
100
AcDbSpline
210
0.0
220
0.0
230
1.0
 70
    24
 71
     3
 72
     8
 73
     4
 74
     0
 42
0.0000000001
 43
0.0000000001
 40
0.0
 40
0.0
 40
0.0
 40
0.0
 40
1.0
 40
1.0
 40
1.0
 40
1.0
 10
-7.386511811023622
 20
4.420590551181102
 30
0.0
 10
-7.386511811023622
 20
4.190338582677166
 30
0.0
 10
-7.386511811023622
 20
3.960086614173228
 30
0.0
 10
-7.386511811023622
 20
3.729834645669291
 30
0.0
  0
SPLINE
  5
69
330
1F
100
AcDbEntity
  8
Layer 1
 62
     1
370
    70
100
AcDbSpline
210
0.0
220
0.0
230
1.0
 70
    11
 71
     3
 72
    20
 73
    16
 74
     0
 42
0.0000000001
 43
0.0000000001
 40
0.0
 40
0.0
 40
0.0
 40
0.0
 40
0.25
 40
0.25
 40
0.25
 40
0.25
 40
0.5
 40
0.5
 40
0.5
 40
0.5
 40
0.75
 40
0.75
 40
0.75
 40
0.75
 40
1.0
 40
1.0
 40
1.0
 40
1.0
 10
-8.19976377952756
 20
5.120031496062992
 30
0.0
 10
-8.19976377952756
 20
5.120031496062992
 30
0.0
 10
-7.969763779527559
 20
5.120031496062992
 30
0.0
 10
-7.969763779527559
 20
5.120031496062992
 30
0.0
 10
-7.969763779527559
 20
5.120031496062992
 30
0.0
 10
-7.969763779527559
 20
5.120031496062992
 30
0.0
 10
-7.969763779527559
 20
4.062031496062992
 30
0.0
 10
-7.969763779527559
 20
4.062031496062992
 30
0.0
 10
-7.969763779527559
 20
4.062031496062992
 30
0.0
 10
-7.969763779527559
 20
4.062031496062992
 30
0.0
 10
-8.19976377952756
 20
4.062031496062992
 30
0.0
 10
-8.19976377952756
 20
4.062031496062992
 30
0.0
 10
-8.19976377952756
 20
4.062031496062992
 30
0.0
 10
-8.19976377952756
 20
4.062031496062992
 30
0.0
 10
-8.19976377952756
 20
5.120031496062992
 30
0.0
 10
-8.19976377952756
 20
5.120031496062992
 30
0.0
  0
SPLINE
  5
6A
330
1F
100
AcDbEntity
  8
Layer 1
 62
     1
370
    70
100
AcDbSpline
210
0.0
220
0.0
230
1.0
 70
     8
 71
     3
 72
    16
 73
    12
 74
     0
 42
0.0000000001
 43
0.0000000001
 40
0.0
 40
0.0
 40
0.0
 40
0.0
 40
0.3333333333333333
 40
0.3333333333333333
 40
0.3333333333333333
 40
0.3333333333333333
 40
0.6666666666666666
 40
0.6666666666666666
 40
0.6666666666666666
 40
0.6666666666666666
 40
1.0
 40
1.0
 40
1.0
 40
1.0
 10
-10.17953543307087
 20
4.770700787401575
 30
0.0
 10
-10.17953543307087
 20
4.770700787401575
 30
0.0
 10
-10.17953543307087
 20
5.461456692913385
 30
0.0
 10
-10.17953543307087
 20
5.461456692913385
 30
0.0
 10
-10.17953543307087
 20
5.461456692913385
 30
0.0
 10
-10.17953543307087
 20
5.574952755905512
 30
0.0
 10
-10.07363779527559
 20
5.667818897637796
 30
0.0
 10
-9.9441968503937
 20
5.667818897637796
 30
0.0
 10
-9.9441968503937
 20
5.667818897637796
 30
0.0
 10
-9.9441968503937
 20
5.667818897637796
 30
0.0
 10
-9.57344094488189
 20
5.667818897637796
 30
0.0
 10
-9.57344094488189
 20
5.667818897637796
 30
0.0
  0
SPLINE
  5
6B
330
1F
100
AcDbEntity
  8
Layer 1
 62
     1
370
    70
100
AcDbSpline
210
0.0
220
0.0
230
1.0
 70
     8
 71
     3
 72
    12
 73
     8
 74
     0
 42
0.0000000001
 43
0.0000000001
 40
0.0
 40
0.0
 40
0.0
 40
0.0
 40
0.5
 40
0.5
 40
0.5
 40
0.5
 40
1.0
 40
1.0
 40
1.0
 40
1.0
 10
-9.57344094488189
 20
3.541929133858268
 30
0.0
 10
-9.57344094488189
 20
3.541929133858268
 30
0.0
 10
-9.9441968503937
 20
3.541929133858268
 30
0.0
 10
-9.9441968503937
 20
3.541929133858268
 30
0.0
 10
-9.9441968503937
 20
3.541929133858268
 30
0.0
 10
-10.07362992125984
 20
3.541929133858268
 30
0.0
 10
-10.17953543307087
 20
3.634795275590551
 30
0.0
 10
-10.17953543307087
 20
3.748291338582677
 30
0.0
  0
SPLINE
  5
6C
330
1F
100
AcDbEntity
  8
Layer 1
 62
     1
370
    70
100
AcDbSpline
210
0.0
220
0.0
230
1.0
 70
     8
 71
     3
 72
    16
 73
    12
 74
     0
 42
0.0000000001
 43
0.0000000001
 40
0.0
 40
0.0
 40
0.0
 40
0.0
 40
0.3333333333333333
 40
0.3333333333333333
 40
0.3333333333333333
 40
0.3333333333333333
 40
0.6666666666666666
 40
0.6666666666666666
 40
0.6666666666666666
 40
0.6666666666666666
 40
1.0
 40
1.0
 40
1.0
 40
1.0
 10
-10.17953543307087
 20
4.770700787401575
 30
0.0
 10
-10.17953543307087
 20
4.770700787401575
 30
0.0
 10
-10.00016535433071
 20
4.770700787401575
 30
0.0
 10
-10.00016535433071
 20
4.770700787401575
 30
0.0
 10
-10.00016535433071
 20
4.770700787401575
 30
0.0
 10
-10.00016535433071
 20
4.770700787401575
 30
0.0
 10
-10.00016535433071
 20
4.439047244094488
 30
0.0
 10
-10.00016535433071
 20
4.439047244094488
 30
0.0
 10
-10.00016535433071
 20
4.439047244094488
 30
0.0
 10
-10.00016535433071
 20
4.439047244094488
 30
0.0
 10
-10.17953543307087
 20
4.439047244094488
 30
0.0
 10
-10.17953543307087
 20
4.439047244094488
 30
0.0
  0
SPLINE
  5
6D
330
1F
100
AcDbEntity
  8
Layer 1
 62
     1
370
    70
100
AcDbSpline
210
0.0
220
0.0
230
1.0
 70
    24
 71
     3
 72
     8
 73
     4
 74
     0
 42
0.0000000001
 43
0.0000000001
 40
0.0
 40
0.0
 40
0.0
 40
0.0
 40
1.0
 40
1.0
 40
1.0
 40
1.0
 10
-10.17953543307087
 20
4.439047244094488
 30
0.0
 10
-10.17953543307087
 20
4.208795275590552
 30
0.0
 10
-10.17953543307087
 20
3.978543307086614
 30
0.0
 10
-10.17953543307087
 20
3.748291338582677
 30
0.0
  0
SPLINE
  5
6E
330
1F
100
AcDbEntity
  8
Layer 1
 62
     1
370
    70
100
AcDbSpline
210
0.0
220
0.0
230
1.0
 70
     8
 71
     3
 72
    12
 73
     8
 74
     0
 42
0.0000000001
 43
0.0000000001
 40
0.0
 40
0.0
 40
0.0
 40
0.0
 40
0.5
 40
0.5
 40
0.5
 40
0.5
 40
1.0
 40
1.0
 40
1.0
 40
1.0
 10
-8.783023622047244
 20
5.452228346456693
 30
0.0
 10
-8.783023622047244
 20
5.565724409448819
 30
0.0
 10
-8.888968503937008
 20
5.65644094488189
 30
0.0
 10
-9.01836220472441
 20
5.658590551181103
 30
0.0
 10
-9.01836220472441
 20
5.658590551181103
 30
0.0
 10
-9.01836220472441
 20
5.658590551181103
 30
0.0
 10
-9.57344094488189
 20
5.667818897637796
 30
0.0
 10
-9.57344094488189
 20
5.667818897637796
 30
0.0
  0
SPLINE
  5
6F
330
1F
100
AcDbEntity
  8
Layer 1
 62
     1
370
    70
100
AcDbSpline
210
0.0
220
0.0
230
1.0
 70
     8
 71
     3
 72
    12
 73
     8
 74
     0
 42
0.0000000001
 43
0.0000000001
 40
0.0
 40
0.0
 40
0.0
 40
0.0
 40
0.5
 40
0.5
 40
0.5
 40
0.5
 40
1.0
 40
1.0
 40
1.0
 40
1.0
 10
-9.57344094488189
 20
3.541929133858268
 30
0.0
 10
-9.57344094488189
 20
3.541929133858268
 30
0.0
 10
-9.01836220472441
 20
3.532700787401575
 30
0.0
 10
-9.01836220472441
 20
3.532700787401575
 30
0.0
 10
-9.01836220472441
 20
3.532700787401575
 30
0.0
 10
-8.888952755905512
 20
3.53055905511811
 30
0.0
 10
-8.783023622047244
 20
3.625566929133858
 30
0.0
 10
-8.783023622047244
 20
3.739062992125984
 30
0.0
  0
SPLINE
  5
70
330
1F
100
AcDbEntity
  8
Layer 1
 62
     1
370
    70
100
AcDbSpline
210
0.0
220
0.0
230
1.0
 70
     8
 71
     3
 72
    16
 73
    12
 74
     0
 42
0.0000000001
 43
0.0000000001
 40
0.0
 40
0.0
 40
0.0
 40
0.0
 40
0.3333333333333333
 40
0.3333333333333333
 40
0.3333333333333333
 40
0.3333333333333333
 40
0.6666666666666666
 40
0.6666666666666666
 40
0.6666666666666666
 40
0.6666666666666666
 40
1.0
 40
1.0
 40
1.0
 40
1.0
 10
-8.783023622047244
 20
4.761472440944882
 30
0.0
 10
-8.783023622047244
 20
4.761472440944882
 30
0.0
 10
-8.962393700787402
 20
4.761472440944882
 30
0.0
 10
-8.962393700787402
 20
4.761472440944882
 30
0.0
 10
-8.962393700787402
 20
4.761472440944882
 30
0.0
 10
-8.962393700787402
 20
4.761472440944882
 30
0.0
 10
-8.962393700787402
 20
4.429818897637795
 30
0.0
 10
-8.962393700787402
 20
4.429818897637795
 30
0.0
 10
-8.962393700787402
 20
4.429818897637795
 30
0.0
 10
-8.962393700787402
 20
4.429818897637795
 30
0.0
 10
-8.783023622047244
 20
4.429818897637795
 30
0.0
 10
-8.783023622047244
 20
4.429818897637795
 30
0.0
  0
SPLINE
  5
71
330
1F
100
AcDbEntity
  8
Layer 1
 62
     1
370
    70
100
AcDbSpline
210
0.0
220
0.0
230
1.0
 70
    11
 71
     3
 72
    20
 73
    16
 74
     0
 42
0.0000000001
 43
0.0000000001
 40
0.0
 40
0.0
 40
0.0
 40
0.0
 40
0.25
 40
0.25
 40
0.25
 40
0.25
 40
0.5
 40
0.5
 40
0.5
 40
0.5
 40
0.75
 40
0.75
 40
0.75
 40
0.75
 40
1.0
 40
1.0
 40
1.0
 40
1.0
 10
-9.596275590551182
 20
5.129259842519685
 30
0.0
 10
-9.596275590551182
 20
5.129259842519685
 30
0.0
 10
-9.366275590551181
 20
5.129259842519685
 30
0.0
 10
-9.366275590551181
 20
5.129259842519685
 30
0.0
 10
-9.366275590551181
 20
5.129259842519685
 30
0.0
 10
-9.366275590551181
 20
5.129259842519685
 30
0.0
 10
-9.366275590551181
 20
4.071259842519685
 30
0.0
 10
-9.366275590551181
 20
4.071259842519685
 30
0.0
 10
-9.366275590551181
 20
4.071259842519685
 30
0.0
 10
-9.366275590551181
 20
4.071259842519685
 30
0.0
 10
-9.596275590551182
 20
4.071259842519685
 30
0.0
 10
-9.596275590551182
 20
4.071259842519685
 30
0.0
 10
-9.596275590551182
 20
4.071259842519685
 30
0.0
 10
-9.596275590551182
 20
4.071259842519685
 30
0.0
 10
-9.596275590551182
 20
5.129259842519685
 30
0.0
 10
-9.596275590551182
 20
5.129259842519685
 30
0.0
  0
SPLINE
  5
72
330
1F
100
AcDbEntity
  8
Layer 1
 62
     1
370
    70
100
AcDbSpline
210
0.0
220
0.0
230
1.0
 70
    11
 71
     3
 72
    20
 73
    16
 74
     0
 42
0.0000000001
 43
0.0000000001
 40
0.0
 40
0.0
 40
0.0
 40
0.0
 40
0.25
 40
0.25
 40
0.25
 40
0.25
 40
0.5
 40
0.5
 40
0.5
 40
0.5
 40
0.75
 40
0.75
 40
0.75
 40
0.75
 40
1.0
 40
1.0
 40
1.0
 40
1.0
 10
2.278842519685039
 20
6.762590551181102
 30
0.0
 10
3.75596062992126
 20
6.762590551181102
 30
0.0
 10
4.95384251968504
 20
5.564700787401574
 30
0.0
 10
4.95384251968504
 20
4.087590551181102
 30
0.0
 10
4.95384251968504
 20
4.087590551181102
 30
0.0
 10
4.95384251968504
 20
2.610472440944882
 30
0.0
 10
3.75596062992126
 20
1.412590551181102
 30
0.0
 10
2.278842519685039
 20
1.412590551181102
 30
0.0
 10
2.278842519685039
 20
1.412590551181102
 30
0.0
 10
0.8017165354330709
 20
1.412590551181102
 30
0.0
 10
-0.3961574803149606
 20
2.610472440944882
 30
0.0
 10
-0.3961574803149606
 20
4.087590551181102
 30
0.0
 10
-0.3961574803149606
 20
4.087590551181102
 30
0.0
 10
-0.3961574803149606
 20
5.564700787401574
 30
0.0
 10
0.8017165354330709
 20
6.762590551181102
 30
0.0
 10
2.278842519685039
 20
6.762590551181102
 30
0.0
  0
SPLINE
  5
73
330
1F
100
AcDbEntity
  8
Layer 1
 62
     1
370
    70
100
AcDbSpline
210
0.0
220
0.0
230
1.0
 70
    11
 71
     3
 72
    20
 73
    16
 74
     0
 42
0.0000000001
 43
0.0000000001
 40
0.0
 40
0.0
 40
0.0
 40
0.0
 40
0.25
 40
0.25
 40
0.25
 40
0.25
 40
0.5
 40
0.5
 40
0.5
 40
0.5
 40
0.75
 40
0.75
 40
0.75
 40
0.75
 40
1.0
 40
1.0
 40
1.0
 40
1.0
 10
2.278850393700787
 20
6.187590551181103
 30
0.0
 10
3.438456692913386
 20
6.187590551181103
 30
0.0
 10
4.37884251968504
 20
5.247188976377953
 30
0.0
 10
4.37884251968504
 20
4.087590551181102
 30
0.0
 10
4.37884251968504
 20
4.087590551181102
 30
0.0
 10
4.37884251968504
 20
2.927984251968504
 30
0.0
 10
3.438456692913386
 20
1.987590551181102
 30
0.0
 10
2.278850393700787
 20
1.987590551181102
 30
0.0
 10
2.278850393700787
 20
1.987590551181102
 30
0.0
 10
1.119236220472441
 20
1.987590551181102
 30
0.0
 10
0.1788425196850394
 20
2.927984251968504
 30
0.0
 10
0.1788425196850394
 20
4.087590551181102
 30
0.0
 10
0.1788425196850394
 20
4.087590551181102
 30
0.0
 10
0.1788425196850394
 20
5.247188976377953
 30
0.0
 10
1.119236220472441
 20
6.187590551181103
 30
0.0
 10
2.278850393700787
 20
6.187590551181103
 30
0.0
  0
SPLINE
  5
74
330
1F
100
AcDbEntity
  8
Layer 1
 62
     1
370
    70
100
AcDbSpline
210
0.0
220
0.0
230
1.0
 70
     8
 71
     3
 72
    24
 73
    20
 74
     0
 42
0.0000000001
 43
0.0000000001
 40
0.0
 40
0.0
 40
0.0
 40
0.0
 40
0.2
 40
0.2
 40
0.2
 40
0.2
 40
0.4
 40
0.4
 40
0.4
 40
0.4
 40
0.6000000000000001
 40
0.6000000000000001
 40
0.6000000000000001
 40
0.6000000000000001
 40
0.8
 40
0.8
 40
0.8
 40
0.8
 40
1.0
 40
1.0
 40
1.0
 40
1.0
 10
-3.723787401574803
 20
4.699976377952756
 30
0.0
 10
-3.723787401574803
 20
4.699976377952756
 30
0.0
 10
-3.403834645669291
 20
4.702771653543307
 30
0.0
 10
-3.403834645669291
 20
4.702771653543307
 30
0.0
 10
-3.403834645669291
 20
4.702771653543307
 30
0.0
 10
-3.363314960629921
 20
4.703125984251969
 30
0.0
 10
-3.329897637795276
 20
4.670393700787401
 30
0.0
 10
-3.329543307086614
 20
4.630015748031496
 30
0.0
 10
-3.329543307086614
 20
4.630015748031496
 30
0.0
 10
-3.329543307086614
 20
4.630015748031496
 30
0.0
 10
-3.328818897637795
 20
4.546818897637795
 30
0.0
 10
-3.328818897637795
 20
4.546818897637795
 30
0.0
 10
-3.328818897637795
 20
4.546818897637795
 30
0.0
 10
-3.328464566929134
 20
4.50644094488189
 30
0.0
 10
-3.361346456692913
 20
4.473133858267716
 30
0.0
 10
-3.401826771653544
 20
4.472779527559055
 30
0.0
 10
-3.401826771653544
 20
4.472779527559055
 30
0.0
 10
-3.401826771653544
 20
4.472779527559055
 30
0.0
 10
-3.709094488188976
 20
4.470102362204725
 30
0.0
 10
-3.709094488188976
 20
4.470102362204725
 30
0.0
  0
SPLINE
  5
75
330
1F
100
AcDbEntity
  8
Layer 1
 62
     1
370
    70
100
AcDbSpline
210
0.0
220
0.0
230
1.0
 70
     8
 71
     3
 72
    20
 73
    16
 74
     0
 42
0.0000000001
 43
0.0000000001
 40
0.0
 40
0.0
 40
0.0
 40
0.0
 40
0.25
 40
0.25
 40
0.25
 40
0.25
 40
0.5
 40
0.5
 40
0.5
 40
0.5
 40
0.75
 40
0.75
 40
0.75
 40
0.75
 40
1.0
 40
1.0
 40
1.0
 40
1.0
 10
-2.496125984251969
 20
4.143606299212599
 30
0.0
 10
-2.656645669291338
 20
3.86448031496063
 30
0.0
 10
-2.957858267716535
 20
3.67648031496063
 30
0.0
 10
-3.302889763779528
 20
3.67648031496063
 30
0.0
 10
-3.302889763779528
 20
3.67648031496063
 30
0.0
 10
-3.816433070866142
 20
3.67648031496063
 30
0.0
 10
-4.232897637795276
 20
4.092937007874016
 30
0.0
 10
-4.232897637795276
 20
4.606480314960629
 30
0.0
 10
-4.232897637795276
 20
4.606480314960629
 30
0.0
 10
-4.232897637795276
 20
5.120015748031496
 30
0.0
 10
-3.816433070866142
 20
5.53648031496063
 30
0.0
 10
-3.302889763779528
 20
5.53648031496063
 30
0.0
 10
-3.302889763779528
 20
5.53648031496063
 30
0.0
 10
-2.957858267716535
 20
5.53648031496063
 30
0.0
 10
-2.656645669291338
 20
5.348472440944882
 30
0.0
 10
-2.496125984251969
 20
5.069354330708661
 30
0.0
  0
SPLINE
  5
76
330
1F
100
AcDbEntity
  8
Layer 1
 62
     1
370
    70
100
AcDbSpline
210
0.0
220
0.0
230
1.0
 70
    11
 71
     3
 72
    20
 73
    16
 74
     0
 42
0.0000000001
 43
0.0000000001
 40
0.0
 40
0.0
 40
0.0
 40
0.0
 40
0.25
 40
0.25
 40
0.25
 40
0.25
 40
0.5
 40
0.5
 40
0.5
 40
0.5
 40
0.75
 40
0.75
 40
0.75
 40
0.75
 40
1.0
 40
1.0
 40
1.0
 40
1.0
 10
-3.302889763779528
 20
5.95648031496063
 30
0.0
 10
-2.557425196850394
 20
5.95648031496063
 30
0.0
 10
-1.952889763779527
 20
5.351937007874016
 30
0.0
 10
-1.952889763779527
 20
4.606480314960629
 30
0.0
 10
-1.952889763779527
 20
4.606480314960629
 30
0.0
 10
-1.952889763779527
 20
3.861015748031496
 30
0.0
 10
-2.557425196850394
 20
3.25648031496063
 30
0.0
 10
-3.302889763779528
 20
3.25648031496063
 30
0.0
 10
-3.302889763779528
 20
3.25648031496063
 30
0.0
 10
-4.048354330708661
 20
3.25648031496063
 30
0.0
 10
-4.652889763779528
 20
3.861015748031496
 30
0.0
 10
-4.652889763779528
 20
4.606480314960629
 30
0.0
 10
-4.652889763779528
 20
4.606480314960629
 30
0.0
 10
-4.652889763779528
 20
5.351937007874016
 30
0.0
 10
-4.048354330708661
 20
5.95648031496063
 30
0.0
 10
-3.302889763779528
 20
5.95648031496063
 30
0.0
  0
SPLINE
  5
77
330
1F
100
AcDbEntity
  8
Layer 1
 62
     1
370
    70
100
AcDbSpline
210
0.0
220
0.0
230
1.0
 70
     8
 71
     3
 72
    12
 73
     8
 74
     0
 42
0.0000000001
 43
0.0000000001
 40
0.0
 40
0.0
 40
0.0
 40
0.0
 40
0.5
 40
0.5
 40
0.5
 40
0.5
 40
1.0
 40
1.0
 40
1.0
 40
1.0
 10
-2.496125984251969
 20
5.069354330708661
 30
0.0
 10
-2.772425196850394
 20
5.069354330708661
 30
0.0
 10
-3.048716535433071
 20
5.069354330708661
 30
0.0
 10
-3.325007874015748
 20
5.069354330708661
 30
0.0
 10
-3.325007874015748
 20
5.069354330708661
 30
0.0
 10
-3.520307086614173
 20
5.054314960629921
 30
0.0
 10
-3.651314960629921
 20
4.937362204724409
 30
0.0
 10
-3.723787401574803
 20
4.699976377952756
 30
0.0
  0
SPLINE
  5
78
330
1F
100
AcDbEntity
  8
Layer 1
 62
     1
370
    70
100
AcDbSpline
210
0.0
220
0.0
230
1.0
 70
     8
 71
     3
 72
    12
 73
     8
 74
     0
 42
0.0000000001
 43
0.0000000001
 40
0.0
 40
0.0
 40
0.0
 40
0.0
 40
0.5
 40
0.5
 40
0.5
 40
0.5
 40
1.0
 40
1.0
 40
1.0
 40
1.0
 10
-2.496125984251969
 20
4.143606299212599
 30
0.0
 10
-2.772425196850394
 20
4.143606299212599
 30
0.0
 10
-3.048716535433071
 20
4.143606299212599
 30
0.0
 10
-3.325007874015748
 20
4.143606299212599
 30
0.0
 10
-3.325007874015748
 20
4.143606299212599
 30
0.0
 10
-3.520307086614173
 20
4.158645669291339
 30
0.0
 10
-3.636622047244094
 20
4.232708661417323
 30
0.0
 10
-3.709094488188976
 20
4.470094488188977
 30
0.0
  0
SPLINE
  5
79
330
1F
100
AcDbEntity
  8
Layer 1
 62
     1
370
    70
100
AcDbSpline
210
0.0
220
0.0
230
1.0
 70
    11
 71
     3
 72
    20
 73
    16
 74
     0
 42
0.0000000001
 43
0.0000000001
 40
0.0
 40
0.0
 40
0.0
 40
0.0
 40
0.25
 40
0.25
 40
0.25
 40
0.25
 40
0.5
 40
0.5
 40
0.5
 40
0.5
 40
0.75
 40
0.75
 40
0.75
 40
0.75
 40
1.0
 40
1.0
 40
1.0
 40
1.0
 10
-3.304
 20
6.628
 30
0.0
 10
-1.82688188976378
 20
6.628
 30
0.0
 10
-0.629
 20
5.430110236220473
 30
0.0
 10
-0.629
 20
3.953
 30
0.0
 10
-0.629
 20
3.953
 30
0.0
 10
-0.629
 20
2.475881889763779
 30
0.0
 10
-1.82688188976378
 20
1.278
 30
0.0
 10
-3.304
 20
1.278
 30
0.0
 10
-3.304
 20
1.278
 30
0.0
 10
-4.781125984251968
 20
1.278
 30
0.0
 10
-5.979
 20
2.475881889763779
 30
0.0
 10
-5.979
 20
3.953
 30
0.0
 10
-5.979
 20
3.953
 30
0.0
 10
-5.979
 20
5.430110236220473
 30
0.0
 10
-4.781125984251968
 20
6.628
 30
0.0
 10
-3.304
 20
6.628
 30
0.0
  0
SPLINE
  5
7A
330
1F
100
AcDbEntity
  8
Layer 1
 62
     1
370
    70
100
AcDbSpline
210
0.0
220
0.0
230
1.0
 70
    11
 71
     3
 72
    20
 73
    16
 74
     0
 42
0.0000000001
 43
0.0000000001
 40
0.0
 40
0.0
 40
0.0
 40
0.0
 40
0.25
 40
0.25
 40
0.25
 40
0.25
 40
0.5
 40
0.5
 40
0.5
 40
0.5
 40
0.75
 40
0.75
 40
0.75
 40
0.75
 40
1.0
 40
1.0
 40
1.0
 40
1.0
 10
-3.303992125984252
 20
6.053
 30
0.0
 10
-2.144385826771654
 20
6.053
 30
0.0
 10
-1.204
 20
5.11259842519685
 30
0.0
 10
-1.204
 20
3.953
 30
0.0
 10
-1.204
 20
3.953
 30
0.0
 10
-1.204
 20
2.793393700787401
 30
0.0
 10
-2.144385826771654
 20
1.853
 30
0.0
 10
-3.303992125984252
 20
1.853
 30
0.0
 10
-3.303992125984252
 20
1.853
 30
0.0
 10
-4.463606299212598
 20
1.853
 30
0.0
 10
-5.404
 20
2.793393700787401
 30
0.0
 10
-5.404
 20
3.953
 30
0.0
 10
-5.404
 20
3.953
 30
0.0
 10
-5.404
 20
5.11259842519685
 30
0.0
 10
-4.463606299212598
 20
6.053
 30
0.0
 10
-3.303992125984252
 20
6.053
 30
0.0
  0
SPLINE
  5
7B
330
1F
100
AcDbEntity
  8
Layer 1
 62
     1
370
    70
100
AcDbSpline
210
0.0
220
0.0
230
1.0
 70
    11
 71
     3
 72
    20
 73
    16
 74
     0
 42
0.0000000001
 43
0.0000000001
 40
0.0
 40
0.0
 40
0.0
 40
0.0
 40
0.25
 40
0.25
 40
0.25
 40
0.25
 40
0.5
 40
0.5
 40
0.5
 40
0.5
 40
0.75
 40
0.75
 40
0.75
 40
0.75
 40
1.0
 40
1.0
 40
1.0
 40
1.0
 10
-3.898149606299213
 20
3.258220472440945
 30
0.0
 10
-3.566846456692913
 20
3.258220472440945
 30
0.0
 10
-3.298165354330709
 20
2.98953937007874
 30
0.0
 10
-3.298165354330709
 20
2.658220472440945
 30
0.0
 10
-3.298165354330709
 20
2.658220472440945
 30
0.0
 10
-3.298165354330709
 20
2.326901574803149
 30
0.0
 10
-3.566846456692913
 20
2.058220472440945
 30
0.0
 10
-3.898149606299213
 20
2.058220472440945
 30
0.0
 10
-3.898149606299213
 20
2.058220472440945
 30
0.0
 10
-4.229472440944882
 20
2.058220472440945
 30
0.0
 10
-4.498165354330709
 20
2.326901574803149
 30
0.0
 10
-4.498165354330709
 20
2.658220472440945
 30
0.0
 10
-4.498165354330709
 20
2.658220472440945
 30
0.0
 10
-4.498165354330709
 20
2.98953937007874
 30
0.0
 10
-4.229472440944882
 20
3.258220472440945
 30
0.0
 10
-3.898149606299213
 20
3.258220472440945
 30
0.0
  0
SPLINE
  5
7C
330
1F
100
AcDbEntity
  8
Layer 1
 62
     1
370
    70
100
AcDbSpline
210
0.0
220
0.0
230
1.0
 70
     8
 71
     3
 72
    24
 73
    20
 74
     0
 42
0.0000000001
 43
0.0000000001
 40
0.0
 40
0.0
 40
0.0
 40
0.0
 40
0.2
 40
0.2
 40
0.2
 40
0.2
 40
0.4
 40
0.4
 40
0.4
 40
0.4
 40
0.6000000000000001
 40
0.6000000000000001
 40
0.6000000000000001
 40
0.6000000000000001
 40
0.8
 40
0.8
 40
0.8
 40
0.8
 40
1.0
 40
1.0
 40
1.0
 40
1.0
 10
1.843220472440945
 20
4.804370078740157
 30
0.0
 10
1.843220472440945
 20
4.804370078740157
 30
0.0
 10
2.163173228346457
 20
4.807165354330708
 30
0.0
 10
2.163173228346457
 20
4.807165354330708
 30
0.0
 10
2.163173228346457
 20
4.807165354330708
 30
0.0
 10
2.203692913385827
 20
4.80751968503937
 30
0.0
 10
2.237110236220472
 20
4.774787401574804
 30
0.0
 10
2.237464566929134
 20
4.734409448818898
 30
0.0
 10
2.237464566929134
 20
4.734409448818898
 30
0.0
 10
2.237464566929134
 20
4.734409448818898
 30
0.0
 10
2.238188976377953
 20
4.651212598425197
 30
0.0
 10
2.238188976377953
 20
4.651212598425197
 30
0.0
 10
2.238188976377953
 20
4.651212598425197
 30
0.0
 10
2.238543307086614
 20
4.610834645669291
 30
0.0
 10
2.205661417322835
 20
4.577527559055119
 30
0.0
 10
2.165181102362205
 20
4.577173228346457
 30
0.0
 10
2.165181102362205
 20
4.577173228346457
 30
0.0
 10
2.165181102362205
 20
4.577173228346457
 30
0.0
 10
1.857913385826772
 20
4.574496062992126
 30
0.0
 10
1.857913385826772
 20
4.574496062992126
 30
0.0
  0
SPLINE
  5
7D
330
1F
100
AcDbEntity
  8
Layer 1
 62
     1
370
    70
100
AcDbSpline
210
0.0
220
0.0
230
1.0
 70
     8
 71
     3
 72
    20
 73
    16
 74
     0
 42
0.0000000001
 43
0.0000000001
 40
0.0
 40
0.0
 40
0.0
 40
0.0
 40
0.25
 40
0.25
 40
0.25
 40
0.25
 40
0.5
 40
0.5
 40
0.5
 40
0.5
 40
0.75
 40
0.75
 40
0.75
 40
0.75
 40
1.0
 40
1.0
 40
1.0
 40
1.0
 10
3.07088188976378
 20
4.248
 30
0.0
 10
2.91036220472441
 20
3.968874015748031
 30
0.0
 10
2.609149606299213
 20
3.780874015748032
 30
0.0
 10
2.26411811023622
 20
3.780874015748032
 30
0.0
 10
2.26411811023622
 20
3.780874015748032
 30
0.0
 10
1.750574803149606
 20
3.780874015748032
 30
0.0
 10
1.334110236220472
 20
4.197330708661418
 30
0.0
 10
1.334110236220472
 20
4.710874015748032
 30
0.0
 10
1.334110236220472
 20
4.710874015748032
 30
0.0
 10
1.334110236220472
 20
5.224409448818897
 30
0.0
 10
1.750574803149606
 20
5.640874015748031
 30
0.0
 10
2.26411811023622
 20
5.640874015748031
 30
0.0
 10
2.26411811023622
 20
5.640874015748031
 30
0.0
 10
2.609149606299213
 20
5.640874015748031
 30
0.0
 10
2.91036220472441
 20
5.452866141732284
 30
0.0
 10
3.07088188976378
 20
5.173748031496063
 30
0.0
  0
SPLINE
  5
7E
330
1F
100
AcDbEntity
  8
Layer 1
 62
     1
370
    70
100
AcDbSpline
210
0.0
220
0.0
230
1.0
 70
    11
 71
     3
 72
    20
 73
    16
 74
     0
 42
0.0000000001
 43
0.0000000001
 40
0.0
 40
0.0
 40
0.0
 40
0.0
 40
0.25
 40
0.25
 40
0.25
 40
0.25
 40
0.5
 40
0.5
 40
0.5
 40
0.5
 40
0.75
 40
0.75
 40
0.75
 40
0.75
 40
1.0
 40
1.0
 40
1.0
 40
1.0
 10
2.26411811023622
 20
6.060874015748031
 30
0.0
 10
3.009582677165354
 20
6.060874015748031
 30
0.0
 10
3.614118110236221
 20
5.456330708661417
 30
0.0
 10
3.614118110236221
 20
4.710874015748032
 30
0.0
 10
3.614118110236221
 20
4.710874015748032
 30
0.0
 10
3.614118110236221
 20
3.965409448818898
 30
0.0
 10
3.009582677165354
 20
3.360874015748032
 30
0.0
 10
2.26411811023622
 20
3.360874015748032
 30
0.0
 10
2.26411811023622
 20
3.360874015748032
 30
0.0
 10
1.518653543307087
 20
3.360874015748032
 30
0.0
 10
0.9141181102362205
 20
3.965409448818898
 30
0.0
 10
0.9141181102362205
 20
4.710874015748032
 30
0.0
 10
0.9141181102362205
 20
4.710874015748032
 30
0.0
 10
0.9141181102362205
 20
5.456330708661417
 30
0.0
 10
1.518653543307087
 20
6.060874015748031
 30
0.0
 10
2.26411811023622
 20
6.060874015748031
 30
0.0
  0
SPLINE
  5
7F
330
1F
100
AcDbEntity
  8
Layer 1
 62
     1
370
    70
100
AcDbSpline
210
0.0
220
0.0
230
1.0
 70
     8
 71
     3
 72
    12
 73
     8
 74
     0
 42
0.0000000001
 43
0.0000000001
 40
0.0
 40
0.0
 40
0.0
 40
0.0
 40
0.5
 40
0.5
 40
0.5
 40
0.5
 40
1.0
 40
1.0
 40
1.0
 40
1.0
 10
3.07088188976378
 20
5.173748031496063
 30
0.0
 10
2.794582677165354
 20
5.173748031496063
 30
0.0
 10
2.518291338582677
 20
5.173748031496063
 30
0.0
 10
2.242
 20
5.173748031496063
 30
0.0
 10
2.242
 20
5.173748031496063
 30
0.0
 10
2.046700787401575
 20
5.158708661417323
 30
0.0
 10
1.915692913385827
 20
5.041755905511811
 30
0.0
 10
1.843220472440945
 20
4.804370078740157
 30
0.0
  0
SPLINE
  5
80
330
1F
100
AcDbEntity
  8
Layer 1
 62
     1
370
    70
100
AcDbSpline
210
0.0
220
0.0
230
1.0
 70
     8
 71
     3
 72
    12
 73
     8
 74
     0
 42
0.0000000001
 43
0.0000000001
 40
0.0
 40
0.0
 40
0.0
 40
0.0
 40
0.5
 40
0.5
 40
0.5
 40
0.5
 40
1.0
 40
1.0
 40
1.0
 40
1.0
 10
3.07088188976378
 20
4.248
 30
0.0
 10
2.794582677165354
 20
4.248
 30
0.0
 10
2.518291338582677
 20
4.248
 30
0.0
 10
2.242
 20
4.248
 30
0.0
 10
2.242
 20
4.248
 30
0.0
 10
2.046700787401575
 20
4.26303937007874
 30
0.0
 10
1.930385826771654
 20
4.337102362204725
 30
0.0
 10
1.857913385826772
 20
4.574488188976378
 30
0.0
  0
SPLINE
  5
81
330
1F
100
AcDbEntity
  8
Layer 1
 62
     1
370
    70
100
AcDbSpline
210
0.0
220
0.0
230
1.0
 70
     8
 71
     3
 72
     8
 73
     4
 74
     0
 42
0.0000000001
 43
0.0000000001
 40
0.0
 40
0.0
 40
0.0
 40
0.0
 40
1.0
 40
1.0
 40
1.0
 40
1.0
 10
-8.785889763779528
 20
3.402425196850394
 30
0.0
 10
-9.377952755905511
 20
3.374173228346457
 30
0.0
 10
-9.27915748031496
 20
3.389047244094488
 30
0.0
 10
-9.871212598425197
 20
3.360795275590551
 30
0.0
  0
SPLINE
  5
82
330
1F
100
AcDbEntity
  8
Layer 1
 62
     1
370
    70
100
AcDbSpline
210
0.0
220
0.0
230
1.0
 70
     8
 71
     3
 72
    28
 73
    24
 74
     0
 42
0.0000000001
 43
0.0000000001
 40
0.0
 40
0.0
 40
0.0
 40
0.0
 40
0.1666666666666667
 40
0.1666666666666667
 40
0.1666666666666667
 40
0.1666666666666667
 40
0.3333333333333333
 40
0.3333333333333333
 40
0.3333333333333333
 40
0.3333333333333333
 40
0.5
 40
0.5
 40
0.5
 40
0.5
 40
0.6666666666666666
 40
0.6666666666666666
 40
0.6666666666666666
 40
0.6666666666666666
 40
0.8333333333333333
 40
0.8333333333333333
 40
0.8333333333333333
 40
0.8333333333333333
 40
1.0
 40
1.0
 40
1.0
 40
1.0
 10
-10.25446456692913
 20
3.10651968503937
 30
0.0
 10
-10.25323622047244
 20
3.009488188976378
 30
0.0
 10
-10.25200787401575
 20
2.91244094488189
 30
0.0
 10
-10.25077165354331
 20
2.815409448818897
 30
0.0
 10
-10.25077165354331
 20
2.815409448818897
 30
0.0
 10
-10.23603149606299
 20
2.606590551181102
 30
0.0
 10
-10.10337007874016
 20
2.520606299212599
 30
0.0
 10
-9.852787401574803
 20
2.557456692913386
 30
0.0
 10
-9.852787401574803
 20
2.557456692913386
 30
0.0
 10
-9.854015748031497
 20
2.696259842519685
 30
0.0
 10
-9.855244094488189
 20
2.835062992125984
 30
0.0
 10
-9.856472440944883
 20
2.973866141732283
 30
0.0
 10
-9.856472440944883
 20
2.973866141732283
 30
0.0
 10
-9.628
 20
2.977551181102362
 30
0.0
 10
-9.202291338582677
 20
2.980488188976378
 30
0.0
 10
-8.973818897637795
 20
2.984173228346457
 30
0.0
 10
-8.973818897637795
 20
2.984173228346457
 30
0.0
 10
-8.970133858267717
 20
2.874850393700787
 30
0.0
 10
-8.966448818897637
 20
2.765527559055118
 30
0.0
 10
-8.96276377952756
 20
2.656204724409449
 30
0.0
 10
-8.96276377952756
 20
2.656204724409449
 30
0.0
 10
-8.89520472440945
 20
2.657433070866142
 30
0.0
 10
-8.82764566929134
 20
2.658661417322834
 30
0.0
 10
-8.760086614173229
 20
2.659897637795276
 30
0.0
  0
SPLINE
  5
83
330
1F
100
AcDbEntity
  8
Layer 1
 62
     1
370
    70
100
AcDbSpline
210
0.0
220
0.0
230
1.0
 70
     8
 71
     3
 72
     8
 73
     4
 74
     0
 42
0.0000000001
 43
0.0000000001
 40
0.0
 40
0.0
 40
0.0
 40
0.0
 40
1.0
 40
1.0
 40
1.0
 40
1.0
 10
-8.785889763779528
 20
3.402417322834645
 30
0.0
 10
-8.193291338582677
 20
3.415338582677165
 30
0.0
 10
-8.290598425196851
 20
3.408874015748031
 30
0.0
 10
-7.698007874015748
 20
3.421787401574803
 30
0.0
  0
SPLINE
  5
84
330
1F
100
AcDbEntity
  8
Layer 1
 62
     1
370
    70
100
AcDbSpline
210
0.0
220
0.0
230
1.0
 70
     8
 71
     3
 72
    28
 73
    24
 74
     0
 42
0.0000000001
 43
0.0000000001
 40
0.0
 40
0.0
 40
0.0
 40
0.0
 40
0.1666666666666667
 40
0.1666666666666667
 40
0.1666666666666667
 40
0.1666666666666667
 40
0.3333333333333333
 40
0.3333333333333333
 40
0.3333333333333333
 40
0.3333333333333333
 40
0.5
 40
0.5
 40
0.5
 40
0.5
 40
0.6666666666666666
 40
0.6666666666666666
 40
0.6666666666666666
 40
0.6666666666666666
 40
0.8333333333333333
 40
0.8333333333333333
 40
0.8333333333333333
 40
0.8333333333333333
 40
1.0
 40
1.0
 40
1.0
 40
1.0
 10
-7.298031496062992
 20
3.194732283464567
 30
0.0
 10
-7.29251968503937
 20
3.097850393700787
 30
0.0
 10
-7.287015748031496
 20
3.00096062992126
 30
0.0
 10
-7.281511811023622
 20
2.904062992125984
 30
0.0
 10
-7.281511811023622
 20
2.904062992125984
 30
0.0
 10
-7.281716535433071
 20
2.694732283464567
 30
0.0
 10
-7.408086614173229
 20
2.599740157480315
 30
0.0
 10
-7.660629921259843
 20
2.619110236220473
 30
0.0
 10
-7.660629921259843
 20
2.619110236220473
 30
0.0
 10
-7.66903937007874
 20
2.757661417322835
 30
0.0
 10
-7.677456692913386
 20
2.896220472440945
 30
0.0
 10
-7.685850393700788
 20
3.034771653543307
 30
0.0
 10
-7.685850393700788
 20
3.034771653543307
 30
0.0
 10
-7.914031496062992
 20
3.022590551181102
 30
0.0
 10
-8.3411968503937
 20
3.010409448818898
 30
0.0
 10
-8.569385826771654
 20
2.998220472440945
 30
0.0
 10
-8.569385826771654
 20
2.998220472440945
 30
0.0
 10
-8.565464566929133
 20
2.888905511811024
 30
0.0
 10
-8.56155905511811
 20
2.779590551181102
 30
0.0
 10
-8.557645669291338
 20
2.670275590551181
 30
0.0
 10
-8.557645669291338
 20
2.670275590551181
 30
0.0
 10
-8.62511811023622
 20
2.666818897637795
 30
0.0
 10
-8.69259842519685
 20
2.663346456692913
 30
0.0
 10
-8.760086614173229
 20
2.659897637795276
 30
0.0
  0
SPLINE
  5
85
330
1F
100
AcDbEntity
  8
Layer 1
 62
     1
370
    70
100
AcDbSpline
210
0.0
220
0.0
230
1.0
 70
     8
 71
     3
 72
     8
 73
     4
 74
     0
 42
0.0000000001
 43
0.0000000001
 40
0.0
 40
0.0
 40
0.0
 40
0.0
 40
1.0
 40
1.0
 40
1.0
 40
1.0
 10
-9.871212598425197
 20
3.360795275590551
 30
0.0
 10
-10.02673228346457
 20
3.324023622047244
 30
0.0
 10
-10.15448818897638
 20
3.239275590551181
 30
0.0
 10
-10.25446456692913
 20
3.10651968503937
 30
0.0
  0
SPLINE
  5
86
330
1F
100
AcDbEntity
  8
Layer 1
 62
     1
370
    70
100
AcDbSpline
210
0.0
220
0.0
230
1.0
 70
     8
 71
     3
 72
     8
 73
     4
 74
     0
 42
0.0000000001
 43
0.0000000001
 40
0.0
 40
0.0
 40
0.0
 40
0.0
 40
1.0
 40
1.0
 40
1.0
 40
1.0
 10
-7.698007874015748
 20
3.421787401574803
 30
0.0
 10
-7.540307086614173
 20
3.395897637795275
 30
0.0
 10
-7.406976377952756
 20
3.320228346456693
 30
0.0
 10
-7.298031496062992
 20
3.194732283464567
 30
0.0
  0
SPLINE
  5
87
330
1F
100
AcDbEntity
  8
Layer 1
 62
     1
370
    70
100
AcDbSpline
210
0.0
220
0.0
230
1.0
 70
    24
 71
     3
 72
     8
 73
     4
 74
     0
 42
0.0000000001
 43
0.0000000001
 40
0.0
 40
0.0
 40
0.0
 40
0.0
 40
1.0
 40
1.0
 40
1.0
 40
1.0
 10
-9.427590551181103
 20
-2.419
 30
0.0
 10
-10.07347244094488
 20
-2.419
 30
0.0
 10
-9.750535433070866
 20
-2.419
 30
0.0
 10
-10.39641732283465
 20
-2.419
 30
0.0
  0
SPLINE
  5
88
330
1F
100
AcDbEntity
  8
Layer 1
 62
     1
370
    70
100
AcDbSpline
210
0.0
220
0.0
230
1.0
 70
     8
 71
     3
 72
    32
 73
    28
 74
     0
 42
0.0000000001
 43
0.0000000001
 40
0.0
 40
0.0
 40
0.0
 40
0.0
 40
0.1428571428571428
 40
0.1428571428571428
 40
0.1428571428571428
 40
0.1428571428571428
 40
0.2857142857142857
 40
0.2857142857142857
 40
0.2857142857142857
 40
0.2857142857142857
 40
0.4285714285714285
 40
0.4285714285714285
 40
0.4285714285714285
 40
0.4285714285714285
 40
0.5714285714285714
 40
0.5714285714285714
 40
0.5714285714285714
 40
0.5714285714285714
 40
0.7142857142857142
 40
0.7142857142857142
 40
0.7142857142857142
 40
0.7142857142857142
 40
0.857142857142857
 40
0.857142857142857
 40
0.857142857142857
 40
0.857142857142857
 40
1.0
 40
1.0
 40
1.0
 40
1.0
 10
-9.427590551181103
 20
-2.419
 30
0.0
 10
-9.427590551181103
 20
-2.419
 30
0.0
 10
-9.427590551181103
 20
-1.526354330708661
 30
0.0
 10
-9.427590551181103
 20
-1.526354330708661
 30
0.0
 10
-9.427590551181103
 20
-1.526354330708661
 30
0.0
 10
-9.34763779527559
 20
-1.526637795275591
 30
0.0
 10
-9.267685039370079
 20
-1.526929133858268
 30
0.0
 10
-9.187724409448819
 20
-1.527220472440945
 30
0.0
 10
-9.187724409448819
 20
-1.527220472440945
 30
0.0
 10
-9.187724409448819
 20
-1.217677165354331
 30
0.0
 10
-9.187724409448819
 20
-0.9081338582677165
 30
0.0
 10
-9.187724409448819
 20
-0.5985905511811024
 30
0.0
 10
-9.187724409448819
 20
-0.5985905511811024
 30
0.0
 10
-9.183992125984252
 20
-0.4888110236220473
 30
0.0
 10
-9.206503937007874
 20
-0.3980314960629922
 30
0.0
 10
-9.25527559055118
 20
-0.326251968503937
 30
0.0
 10
-9.25527559055118
 20
-0.326251968503937
 30
0.0
 10
-9.352330708661418
 20
-0.1318110236220472
 30
0.0
 10
-9.430535433070865
 20
0.0329055118110236
 30
0.0
 10
-9.489897637795275
 20
0.1678976377952756
 30
0.0
 10
-9.489897637795275
 20
0.1678976377952756
 30
0.0
 10
-9.543535433070867
 20
0.2778188976377953
 30
0.0
 10
-9.703173228346456
 20
0.3649370078740157
 30
0.0
 10
-9.939338582677165
 20
0.4218897637795276
 30
0.0
 10
-9.939338582677165
 20
0.4218897637795276
 30
0.0
 10
-10.03283464566929
 20
0.4590157480314961
 30
0.0
 10
-10.18518897637795
 20
0.4812204724409449
 30
0.0
 10
-10.39641732283465
 20
0.488496062992126
 30
0.0
  0
SPLINE
  5
89
330
1F
100
AcDbEntity
  8
Layer 1
 62
     1
370
    70
100
AcDbSpline
210
0.0
220
0.0
230
1.0
 70
    24
 71
     3
 72
     8
 73
     4
 74
     0
 42
0.0000000001
 43
0.0000000001
 40
0.0
 40
0.0
 40
0.0
 40
0.0
 40
1.0
 40
1.0
 40
1.0
 40
1.0
 10
-11.36524409448819
 20
-2.419
 30
0.0
 10
-10.71936220472441
 20
-2.419
 30
0.0
 10
-11.04229921259843
 20
-2.419
 30
0.0
 10
-10.39641732283465
 20
-2.419
 30
0.0
  0
SPLINE
  5
8A
330
1F
100
AcDbEntity
  8
Layer 1
 62
     1
370
    70
100
AcDbSpline
210
0.0
220
0.0
230
1.0
 70
     8
 71
     3
 72
    32
 73
    28
 74
     0
 42
0.0000000001
 43
0.0000000001
 40
0.0
 40
0.0
 40
0.0
 40
0.0
 40
0.1428571428571428
 40
0.1428571428571428
 40
0.1428571428571428
 40
0.1428571428571428
 40
0.2857142857142857
 40
0.2857142857142857
 40
0.2857142857142857
 40
0.2857142857142857
 40
0.4285714285714285
 40
0.4285714285714285
 40
0.4285714285714285
 40
0.4285714285714285
 40
0.5714285714285714
 40
0.5714285714285714
 40
0.5714285714285714
 40
0.5714285714285714
 40
0.7142857142857142
 40
0.7142857142857142
 40
0.7142857142857142
 40
0.7142857142857142
 40
0.857142857142857
 40
0.857142857142857
 40
0.857142857142857
 40
0.857142857142857
 40
1.0
 40
1.0
 40
1.0
 40
1.0
 10
-11.36524409448819
 20
-2.419
 30
0.0
 10
-11.36524409448819
 20
-2.419
 30
0.0
 10
-11.36524409448819
 20
-1.526354330708661
 30
0.0
 10
-11.36524409448819
 20
-1.526354330708661
 30
0.0
 10
-11.36524409448819
 20
-1.526354330708661
 30
0.0
 10
-11.4451968503937
 20
-1.526637795275591
 30
0.0
 10
-11.52514960629921
 20
-1.526929133858268
 30
0.0
 10
-11.60511023622047
 20
-1.527220472440945
 30
0.0
 10
-11.60511023622047
 20
-1.527220472440945
 30
0.0
 10
-11.60511023622047
 20
-1.217677165354331
 30
0.0
 10
-11.60511023622047
 20
-0.9081338582677165
 30
0.0
 10
-11.60511023622047
 20
-0.5985905511811024
 30
0.0
 10
-11.60511023622047
 20
-0.5985905511811024
 30
0.0
 10
-11.60884251968504
 20
-0.4888110236220473
 30
0.0
 10
-11.58633070866142
 20
-0.3980314960629922
 30
0.0
 10
-11.53755905511811
 20
-0.326251968503937
 30
0.0
 10
-11.53755905511811
 20
-0.326251968503937
 30
0.0
 10
-11.44050393700787
 20
-0.1318110236220472
 30
0.0
 10
-11.36229921259842
 20
0.0329055118110236
 30
0.0
 10
-11.30293700787402
 20
0.1678976377952756
 30
0.0
 10
-11.30293700787402
 20
0.1678976377952756
 30
0.0
 10
-11.24929921259842
 20
0.2778188976377953
 30
0.0
 10
-11.08966141732284
 20
0.3649370078740157
 30
0.0
 10
-10.85349606299213
 20
0.4218897637795276
 30
0.0
 10
-10.85349606299213
 20
0.4218897637795276
 30
0.0
 10
-10.76
 20
0.4590157480314961
 30
0.0
 10
-10.60764566929134
 20
0.4812204724409449
 30
0.0
 10
-10.39641732283465
 20
0.488496062992126
 30
0.0
  0
SPLINE
  5
8B
330
1F
100
AcDbEntity
  8
Layer 1
 62
     1
370
    70
100
AcDbSpline
210
0.0
220
0.0
230
1.0
 70
    11
 71
     3
 72
    20
 73
    16
 74
     0
 42
0.0000000001
 43
0.0000000001
 40
0.0
 40
0.0
 40
0.0
 40
0.0
 40
0.25
 40
0.25
 40
0.25
 40
0.25
 40
0.5
 40
0.5
 40
0.5
 40
0.5
 40
0.75
 40
0.75
 40
0.75
 40
0.75
 40
1.0
 40
1.0
 40
1.0
 40
1.0
 10
10.00529527559055
 20
-0.4238818897637796
 30
0.0
 10
10.00529527559055
 20
-0.4238818897637796
 30
0.0
 10
9.79773622047244
 20
-0.5229763779527559
 30
0.0
 10
9.79773622047244
 20
-0.5229763779527559
 30
0.0
 10
9.79773622047244
 20
-0.5229763779527559
 30
0.0
 10
9.79773622047244
 20
-0.5229763779527559
 30
0.0
 10
10.45119291338583
 20
-1.891570866141732
 30
0.0
 10
10.45119291338583
 20
-1.891570866141732
 30
0.0
 10
10.45119291338583
 20
-1.891570866141732
 30
0.0
 10
10.45119291338583
 20
-1.891570866141732
 30
0.0
 10
10.65873622047244
 20
-1.792476377952756
 30
0.0
 10
10.65873622047244
 20
-1.792476377952756
 30
0.0
 10
10.65873622047244
 20
-1.792476377952756
 30
0.0
 10
10.65873622047244
 20
-1.792476377952756
 30
0.0
 10
10.00529527559055
 20
-0.4238818897637796
 30
0.0
 10
10.00529527559055
 20
-0.4238818897637796
 30
0.0
  0
SPLINE
  5
8C
330
1F
100
AcDbEntity
  8
Layer 1
 62
     1
370
    70
100
AcDbSpline
210
0.0
220
0.0
230
1.0
 70
    11
 71
     3
 72
    32
 73
    28
 74
     0
 42
0.0000000001
 43
0.0000000001
 40
0.0
 40
0.0
 40
0.0
 40
0.0
 40
0.1428571428571428
 40
0.1428571428571428
 40
0.1428571428571428
 40
0.1428571428571428
 40
0.2857142857142857
 40
0.2857142857142857
 40
0.2857142857142857
 40
0.2857142857142857
 40
0.4285714285714285
 40
0.4285714285714285
 40
0.4285714285714285
 40
0.4285714285714285
 40
0.5714285714285714
 40
0.5714285714285714
 40
0.5714285714285714
 40
0.5714285714285714
 40
0.7142857142857142
 40
0.7142857142857142
 40
0.7142857142857142
 40
0.7142857142857142
 40
0.857142857142857
 40
0.857142857142857
 40
0.857142857142857
 40
0.857142857142857
 40
1.0
 40
1.0
 40
1.0
 40
1.0
 10
11.49986614173228
 20
-1.903220472440945
 30
0.0
 10
11.60643700787402
 20
-2.661185039370079
 30
0.0
 10
11.58820078740158
 20
-3.152413385826772
 30
0.0
 10
11.23916141732284
 20
-3.18051968503937
 30
0.0
 10
11.23916141732284
 20
-3.18051968503937
 30
0.0
 10
11.1533188976378
 20
-2.943232283464567
 30
0.0
 10
11.01845275590551
 20
-2.72755905511811
 30
0.0
 10
10.68418897637795
 20
-2.92096062992126
 30
0.0
 10
10.68418897637795
 20
-2.92096062992126
 30
0.0
 10
10.10982283464567
 20
-1.843374015748031
 30
0.0
 10
9.685346456692914
 20
-1.045244094488189
 30
0.0
 10
9.11098031496063
 20
0.0323622047244094
 30
0.0
 10
9.11098031496063
 20
0.0323622047244094
 30
0.0
 10
9.050574803149606
 20
0.3642755905511811
 30
0.0
 10
9.105858267716535
 20
0.5625314960629921
 30
0.0
 10
9.417405511811024
 20
0.7431417322834646
 30
0.0
 10
9.417405511811024
 20
0.7431417322834646
 30
0.0
 10
9.715346456692913
 20
0.8946653543307087
 30
0.0
 10
10.22275984251968
 20
0.8896535433070866
 30
0.0
 10
10.65970472440945
 20
0.561771653543307
 30
0.0
 10
10.65970472440945
 20
0.561771653543307
 30
0.0
 10
10.86507874015748
 20
0.1320236220472441
 30
0.0
 10
11.07045275590551
 20
-0.2977047244094488
 30
0.0
 10
11.27582283464567
 20
-0.7274448818897638
 30
0.0
 10
11.27582283464567
 20
-0.7274448818897638
 30
0.0
 10
11.3268031496063
 20
-0.917996062992126
 30
0.0
 10
11.40148818897638
 20
-1.309933070866142
 30
0.0
 10
11.49986614173228
 20
-1.903220472440945
 30
0.0
  0
SPLINE
  5
8D
330
1F
100
AcDbEntity
  8
Layer 1
 62
     1
370
    70
100
AcDbSpline
210
0.0
220
0.0
230
1.0
 70
    11
 71
     3
 72
    20
 73
    16
 74
     0
 42
0.0000000001
 43
0.0000000001
 40
0.0
 40
0.0
 40
0.0
 40
0.0
 40
0.25
 40
0.25
 40
0.25
 40
0.25
 40
0.5
 40
0.5
 40
0.5
 40
0.5
 40
0.75
 40
0.75
 40
0.75
 40
0.75
 40
1.0
 40
1.0
 40
1.0
 40
1.0
 10
8.987984251968504
 20
-0.9640393700787402
 30
0.0
 10
8.987984251968504
 20
-0.9640393700787402
 30
0.0
 10
9.186334645669291
 20
-0.8476102362204725
 30
0.0
 10
9.186334645669291
 20
-0.8476102362204725
 30
0.0
 10
9.186334645669291
 20
-0.8476102362204725
 30
0.0
 10
9.186334645669291
 20
-0.8476102362204725
 30
0.0
 10
9.954070866141732
 20
-2.155523622047244
 30
0.0
 10
9.954070866141732
 20
-2.155523622047244
 30
0.0
 10
9.954070866141732
 20
-2.155523622047244
 30
0.0
 10
9.954070866141732
 20
-2.155523622047244
 30
0.0
 10
9.755712598425196
 20
-2.271956692913386
 30
0.0
 10
9.755712598425196
 20
-2.271956692913386
 30
0.0
 10
9.755712598425196
 20
-2.271956692913386
 30
0.0
 10
9.755712598425196
 20
-2.271956692913386
 30
0.0
 10
8.987984251968504
 20
-0.9640393700787402
 30
0.0
 10
8.987984251968504
 20
-0.9640393700787402
 30
0.0
  0
SPLINE
  5
8E
330
1F
100
AcDbEntity
  8
Layer 1
 62
     1
370
    70
100
AcDbSpline
210
0.0
220
0.0
230
1.0
 70
     8
 71
     3
 72
    28
 73
    24
 74
     0
 42
0.0000000001
 43
0.0000000001
 40
0.0
 40
0.0
 40
0.0
 40
0.0
 40
0.1666666666666667
 40
0.1666666666666667
 40
0.1666666666666667
 40
0.1666666666666667
 40
0.3333333333333333
 40
0.3333333333333333
 40
0.3333333333333333
 40
0.3333333333333333
 40
0.5
 40
0.5
 40
0.5
 40
0.5
 40
0.6666666666666666
 40
0.6666666666666666
 40
0.6666666666666666
 40
0.6666666666666666
 40
0.8333333333333333
 40
0.8333333333333333
 40
0.8333333333333333
 40
0.8333333333333333
 40
1.0
 40
1.0
 40
1.0
 40
1.0
 10
9.11098031496063
 20
0.0323622047244094
 30
0.0
 10
8.869838582677165
 20
0.2683267716535433
 30
0.0
 10
8.674649606299212
 20
0.3335748031496063
 30
0.0
 10
8.350511811023622
 20
0.1766574803149606
 30
0.0
 10
8.350511811023622
 20
0.1766574803149606
 30
0.0
 10
8.058106299212598
 20
0.0147086614173228
 30
0.0
 10
7.778035433070866
 20
-0.4084448818897638
 30
0.0
 10
7.804913385826771
 20
-0.9540708661417323
 30
0.0
 10
7.804913385826771
 20
-0.9540708661417323
 30
0.0
 10
8.045877952755905
 20
-1.364913385826772
 30
0.0
 10
8.28684251968504
 20
-1.775755905511811
 30
0.0
 10
8.52779527559055
 20
-2.186594488188976
 30
0.0
 10
8.52779527559055
 20
-2.186594488188976
 30
0.0
 10
8.657094488188976
 20
-2.33555905511811
 30
0.0
 10
8.939933070866141
 20
-2.616968503937008
 30
0.0
 10
9.376311023622048
 20
-3.030783464566929
 30
0.0
 10
9.376311023622048
 20
-3.030783464566929
 30
0.0
 10
9.94451968503937
 20
-3.543625984251968
 30
0.0
 10
10.36168503937008
 20
-3.803665354330709
 30
0.0
 10
10.58046850393701
 20
-3.530267716535433
 30
0.0
 10
10.58046850393701
 20
-3.530267716535433
 30
0.0
 10
10.43198031496063
 20
-3.326240157480315
 30
0.0
 10
10.32885433070866
 20
-3.093712598425197
 30
0.0
 10
10.6763031496063
 20
-2.925137795275591
 30
0.0
  0
SPLINE
  5
8F
330
1F
100
AcDbEntity
  8
Layer 1
 62
     1
370
    70
100
AcDbSpline
210
0.0
220
0.0
230
1.0
 70
     8
 71
     3
 72
    24
 73
    20
 74
     0
 42
0.0000000001
 43
0.0000000001
 40
0.0
 40
0.0
 40
0.0
 40
0.0
 40
0.2
 40
0.2
 40
0.2
 40
0.2
 40
0.4
 40
0.4
 40
0.4
 40
0.4
 40
0.6000000000000001
 40
0.6000000000000001
 40
0.6000000000000001
 40
0.6000000000000001
 40
0.8
 40
0.8
 40
0.8
 40
0.8
 40
1.0
 40
1.0
 40
1.0
 40
1.0
 10
0.9728070866141733
 20
2.802397637795276
 30
0.0
 10
0.9728070866141733
 20
2.802397637795276
 30
0.0
 10
1.823933070866142
 20
2.806204724409449
 30
0.0
 10
1.823933070866142
 20
2.806204724409449
 30
0.0
 10
1.823933070866142
 20
2.806204724409449
 30
0.0
 10
1.864452755905512
 20
2.806385826771653
 30
0.0
 10
1.897732283464567
 20
2.773511811023622
 30
0.0
 10
1.897913385826772
 20
2.733133858267716
 30
0.0
 10
1.897913385826772
 20
2.733133858267716
 30
0.0
 10
1.897913385826772
 20
2.733133858267716
 30
0.0
 10
1.898283464566929
 20
2.649937007874016
 30
0.0
 10
1.898283464566929
 20
2.649937007874016
 30
0.0
 10
1.898283464566929
 20
2.649937007874016
 30
0.0
 10
1.89846062992126
 20
2.60955905511811
 30
0.0
 10
1.865437007874016
 20
2.576385826771654
 30
0.0
 10
1.824956692913386
 20
2.576208661417323
 30
0.0
 10
1.824956692913386
 20
2.576208661417323
 30
0.0
 10
1.824956692913386
 20
2.576208661417323
 30
0.0
 10
1.003185039370079
 20
2.572527559055118
 30
0.0
 10
1.003185039370079
 20
2.572527559055118
 30
0.0
  0
SPLINE
  5
90
330
1F
100
AcDbEntity
  8
Layer 1
 62
     1
370
    70
100
AcDbSpline
210
0.0
220
0.0
230
1.0
 70
     8
 71
     3
 72
    12
 73
     8
 74
     0
 42
0.0000000001
 43
0.0000000001
 40
0.0
 40
0.0
 40
0.0
 40
0.0
 40
0.5
 40
0.5
 40
0.5
 40
0.5
 40
1.0
 40
1.0
 40
1.0
 40
1.0
 10
0.9728070866141733
 20
2.802397637795276
 30
0.0
 10
1.259429133858268
 20
3.04442125984252
 30
0.0
 10
1.639704724409449
 20
3.198098425196851
 30
0.0
 10
2.113633858267717
 20
3.263429133858267
 30
0.0
 10
2.113633858267717
 20
3.263429133858267
 30
0.0
 10
2.825779527559055
 20
3.354212598425197
 30
0.0
 10
3.194897637795276
 20
3.168720472440945
 30
0.0
 10
3.220984251968504
 20
2.706944881889764
 30
0.0
  0
SPLINE
  5
91
330
1F
100
AcDbEntity
  8
Layer 1
 62
     1
370
    70
100
AcDbSpline
210
0.0
220
0.0
230
1.0
 70
     8
 71
     3
 72
    12
 73
     8
 74
     0
 42
0.0000000001
 43
0.0000000001
 40
0.0
 40
0.0
 40
0.0
 40
0.0
 40
0.5
 40
0.5
 40
0.5
 40
0.5
 40
1.0
 40
1.0
 40
1.0
 40
1.0
 10
1.003185039370079
 20
2.572527559055118
 30
0.0
 10
1.291393700787402
 20
2.332393700787402
 30
0.0
 10
1.642972440944882
 20
2.205393700787401
 30
0.0
 10
2.117322834645669
 20
2.143181102362205
 30
0.0
 10
2.117322834645669
 20
2.143181102362205
 30
0.0
 10
2.830051181102362
 20
2.057086614173228
 30
0.0
 10
3.197937007874016
 20
2.245007874015748
 30
0.0
 10
3.220984251968504
 20
2.706944881889764
 30
0.0
  0
SPLINE
  5
92
330
1F
100
AcDbEntity
  8
Layer 1
 62
     1
370
    70
100
AcDbSpline
210
0.0
220
0.0
230
1.0
 70
     8
 71
     3
 72
    24
 73
    20
 74
     0
 42
0.0000000001
 43
0.0000000001
 40
0.0
 40
0.0
 40
0.0
 40
0.0
 40
0.2
 40
0.2
 40
0.2
 40
0.2
 40
0.4
 40
0.4
 40
0.4
 40
0.4
 40
0.6000000000000001
 40
0.6000000000000001
 40
0.6000000000000001
 40
0.6000000000000001
 40
0.8
 40
0.8
 40
0.8
 40
0.8
 40
1.0
 40
1.0
 40
1.0
 40
1.0
 10
7.642956692913386
 20
1.800350393700787
 30
0.0
 10
7.642956692913386
 20
1.800350393700787
 30
0.0
 10
6.590429133858268
 20
2.578862204724409
 30
0.0
 10
6.590429133858268
 20
2.578862204724409
 30
0.0
 10
6.590429133858268
 20
2.578862204724409
 30
0.0
 10
6.557850393700788
 20
2.602956692913386
 30
0.0
 10
6.550854330708662
 20
2.649208661417323
 30
0.0
 10
6.574862204724409
 20
2.681669291338583
 30
0.0
 10
6.574862204724409
 20
2.681669291338583
 30
0.0
 10
6.574862204724409
 20
2.681669291338583
 30
0.0
 10
6.624338582677165
 20
2.748562992125984
 30
0.0
 10
6.624338582677165
 20
2.748562992125984
 30
0.0
 10
6.624338582677165
 20
2.748562992125984
 30
0.0
 10
6.648346456692914
 20
2.781023622047244
 30
0.0
 10
6.694657480314961
 20
2.787846456692913
 30
0.0
 10
6.727200787401575
 20
2.763771653543307
 30
0.0
 10
6.727200787401575
 20
2.763771653543307
 30
0.0
 10
6.727200787401575
 20
2.763771653543307
 30
0.0
 10
7.783358267716536
 20
1.982582677165354
 30
0.0
 10
7.783358267716536
 20
1.982582677165354
 30
0.0
  0
SPLINE
  5
93
330
1F
100
AcDbEntity
  8
Layer 1
 62
     1
370
    70
100
AcDbSpline
210
0.0
220
0.0
230
1.0
 70
     8
 71
     3
 72
    12
 73
     8
 74
     0
 42
0.0000000001
 43
0.0000000001
 40
0.0
 40
0.0
 40
0.0
 40
0.0
 40
0.5
 40
0.5
 40
0.5
 40
0.5
 40
1.0
 40
1.0
 40
1.0
 40
1.0
 10
4.395405511811024
 20
6.325027559055118
 30
0.0
 10
4.395405511811024
 20
6.325027559055118
 30
0.0
 10
4.170562992125984
 20
6.552027559055118
 30
0.0
 10
4.170562992125984
 20
6.552027559055118
 30
0.0
 10
4.170562992125984
 20
6.552027559055118
 30
0.0
 10
4.170562992125984
 20
6.552027559055118
 30
0.0
 10
4.341082677165354
 20
6.720917322834645
 30
0.0
 10
4.341082677165354
 20
6.720917322834645
 30
0.0
  0
SPLINE
  5
94
330
1F
100
AcDbEntity
  8
Layer 1
 62
     1
370
    70
100
AcDbSpline
210
0.0
220
0.0
230
1.0
 70
     8
 71
     3
 72
    12
 73
     8
 74
     0
 42
0.0000000001
 43
0.0000000001
 40
0.0
 40
0.0
 40
0.0
 40
0.0
 40
0.5
 40
0.5
 40
0.5
 40
0.5
 40
1.0
 40
1.0
 40
1.0
 40
1.0
 10
4.890842519685039
 20
6.165877952755905
 30
0.0
 10
4.890842519685039
 20
6.165877952755905
 30
0.0
 10
4.720334645669292
 20
5.996984251968504
 30
0.0
 10
4.720334645669292
 20
5.996984251968504
 30
0.0
 10
4.720334645669292
 20
5.996984251968504
 30
0.0
 10
4.720334645669292
 20
5.996984251968504
 30
0.0
 10
4.395405511811024
 20
6.325027559055118
 30
0.0
 10
4.395405511811024
 20
6.325027559055118
 30
0.0
  0
SPLINE
  5
95
330
1F
100
AcDbEntity
  8
Layer 1
 62
     1
370
    70
100
AcDbSpline
210
0.0
220
0.0
230
1.0
 70
     8
 71
     3
 72
    16
 73
    12
 74
     0
 42
0.0000000001
 43
0.0000000001
 40
0.0
 40
0.0
 40
0.0
 40
0.0
 40
0.3333333333333333
 40
0.3333333333333333
 40
0.3333333333333333
 40
0.3333333333333333
 40
0.6666666666666666
 40
0.6666666666666666
 40
0.6666666666666666
 40
0.6666666666666666
 40
1.0
 40
1.0
 40
1.0
 40
1.0
 10
9.144905511811023
 20
5.842086614173228
 30
0.0
 10
9.24401968503937
 20
5.783271653543308
 30
0.0
 10
9.31931496062992
 20
5.700614173228346
 30
0.0
 10
9.372937007874016
 20
5.586393700787402
 30
0.0
 10
9.372937007874016
 20
5.586393700787402
 30
0.0
 10
9.513736220472442
 20
5.286476377952756
 30
0.0
 10
9.384677165354331
 20
4.929074803149606
 30
0.0
 10
9.084771653543307
 20
4.788283464566929
 30
0.0
 10
9.084771653543307
 20
4.788283464566929
 30
0.0
 10
8.784870078740157
 20
4.647488188976378
 30
0.0
 10
8.433314960629922
 20
4.764448818897637
 30
0.0
 10
8.292515748031496
 20
5.064362204724409
 30
0.0
  0
SPLINE
  5
96
330
1F
100
AcDbEntity
  8
Layer 1
 62
     1
370
    70
100
AcDbSpline
210
0.0
220
0.0
230
1.0
 70
     8
 71
     3
 72
    12
 73
     8
 74
     0
 42
0.0000000001
 43
0.0000000001
 40
0.0
 40
0.0
 40
0.0
 40
0.0
 40
0.5
 40
0.5
 40
0.5
 40
0.5
 40
1.0
 40
1.0
 40
1.0
 40
1.0
 10
8.374874015748032
 20
5.719527559055118
 30
0.0
 10
8.427956692913385
 20
5.783590551181103
 30
0.0
 10
8.495161417322835
 20
5.837137795275591
 30
0.0
 10
8.574818897637796
 20
5.874535433070866
 30
0.0
 10
8.574818897637796
 20
5.874535433070866
 30
0.0
 10
8.687295275590552
 20
5.927338582677165
 30
0.0
 10
8.815405511811024
 20
5.940952755905512
 30
0.0
 10
8.929555118110237
 20
5.923082677165354
 30
0.0
  0
SPLINE
  5
97
330
1F
100
AcDbEntity
  8
Layer 1
 62
     1
370
    70
100
AcDbSpline
210
0.0
220
0.0
230
1.0
 70
     8
 71
     3
 72
    24
 73
    20
 74
     0
 42
0.0000000001
 43
0.0000000001
 40
0.0
 40
0.0
 40
0.0
 40
0.0
 40
0.2
 40
0.2
 40
0.2
 40
0.2
 40
0.4
 40
0.4
 40
0.4
 40
0.4
 40
0.6000000000000001
 40
0.6000000000000001
 40
0.6000000000000001
 40
0.6000000000000001
 40
0.8
 40
0.8
 40
0.8
 40
0.8
 40
1.0
 40
1.0
 40
1.0
 40
1.0
 10
9.144909448818897
 20
5.84207874015748
 30
0.0
 10
9.144909448818897
 20
5.84207874015748
 30
0.0
 10
8.987629921259842
 20
5.388370078740158
 30
0.0
 10
8.987629921259842
 20
5.388370078740158
 30
0.0
 10
8.987629921259842
 20
5.388370078740158
 30
0.0
 10
8.974358267716536
 20
5.350086614173228
 30
0.0
 10
8.932299212598425
 20
5.329590551181102
 30
0.0
 10
8.894149606299212
 20
5.342814960629921
 30
0.0
 10
8.894149606299212
 20
5.342814960629921
 30
0.0
 10
8.894149606299212
 20
5.342814960629921
 30
0.0
 10
8.815543307086614
 20
5.370070866141733
 30
0.0
 10
8.815543307086614
 20
5.370070866141733
 30
0.0
 10
8.815543307086614
 20
5.370070866141733
 30
0.0
 10
8.777393700787401
 20
5.383295275590551
 30
0.0
 10
8.757055118110236
 20
5.425468503937008
 30
0.0
 10
8.770307086614173
 20
5.463700787401574
 30
0.0
 10
8.770307086614173
 20
5.463700787401574
 30
0.0
 10
8.770307086614173
 20
5.463700787401574
 30
0.0
 10
8.92955905511811
 20
5.923094488188976
 30
0.0
 10
8.92955905511811
 20
5.923094488188976
 30
0.0
  0
SPLINE
  5
98
330
1F
100
AcDbEntity
  8
Layer 1
 62
     1
370
    70
100
AcDbSpline
210
0.0
220
0.0
230
1.0
 70
     8
 71
     3
 72
    32
 73
    28
 74
     0
 42
0.0000000001
 43
0.0000000001
 40
0.0
 40
0.0
 40
0.0
 40
0.0
 40
0.1428571428571428
 40
0.1428571428571428
 40
0.1428571428571428
 40
0.1428571428571428
 40
0.2857142857142857
 40
0.2857142857142857
 40
0.2857142857142857
 40
0.2857142857142857
 40
0.4285714285714285
 40
0.4285714285714285
 40
0.4285714285714285
 40
0.4285714285714285
 40
0.5714285714285714
 40
0.5714285714285714
 40
0.5714285714285714
 40
0.5714285714285714
 40
0.7142857142857142
 40
0.7142857142857142
 40
0.7142857142857142
 40
0.7142857142857142
 40
0.857142857142857
 40
0.857142857142857
 40
0.857142857142857
 40
0.857142857142857
 40
1.0
 40
1.0
 40
1.0
 40
1.0
 10
5.409228346456693
 20
4.594909448818898
 30
0.0
 10
5.384240157480315
 20
4.659846456692914
 30
0.0
 10
5.426326771653543
 20
4.993555118110236
 30
0.0
 10
5.535503937007874
 20
5.596035433070866
 30
0.0
 10
5.535503937007874
 20
5.596035433070866
 30
0.0
 10
5.535503937007874
 20
5.596035433070866
 30
0.0
 10
5.800275590551181
 20
6.359275590551182
 30
0.0
 10
5.800275590551181
 20
6.359275590551182
 30
0.0
 10
5.800275590551181
 20
6.359275590551182
 30
0.0
 10
5.813539370078741
 20
6.397523622047244
 30
0.0
 10
5.79321653543307
 20
6.439685039370079
 30
0.0
 10
5.755062992125985
 20
6.45292125984252
 30
0.0
 10
5.755062992125985
 20
6.45292125984252
 30
0.0
 10
5.755062992125985
 20
6.45292125984252
 30
0.0
 10
5.676464566929134
 20
6.480185039370078
 30
0.0
 10
5.676464566929134
 20
6.480185039370078
 30
0.0
 10
5.676464566929134
 20
6.480185039370078
 30
0.0
 10
5.638311023622047
 20
6.49342125984252
 30
0.0
 10
5.596255905511811
 20
6.47294094488189
 30
0.0
 10
5.582976377952756
 20
6.434661417322834
 30
0.0
 10
5.582976377952756
 20
6.434661417322834
 30
0.0
 10
5.582976377952756
 20
6.434661417322834
 30
0.0
 10
5.333779527559055
 20
5.716279527559055
 30
0.0
 10
5.333779527559055
 20
5.716279527559055
 30
0.0
 10
5.333779527559055
 20
5.716279527559055
 30
0.0
 10
5.161791338582677
 20
5.890858267716536
 30
0.0
 10
5.060161417322835
 20
5.993555118110236
 30
0.0
 10
4.890224409448819
 20
6.165267716535433
 30
0.0
  0
SPLINE
  5
99
330
1F
100
AcDbEntity
  8
Layer 1
 62
     1
370
    70
100
AcDbSpline
210
0.0
220
0.0
230
1.0
 70
     8
 71
     3
 72
     8
 73
     4
 74
     0
 42
0.0000000001
 43
0.0000000001
 40
0.0
 40
0.0
 40
0.0
 40
0.0
 40
1.0
 40
1.0
 40
1.0
 40
1.0
 10
4.341078740157481
 20
6.720925196850394
 30
0.0
 10
4.127279527559055
 20
6.937929133858268
 30
0.0
 10
3.90551968503937
 20
7.166035433070866
 30
0.0
 10
3.691696850393701
 20
7.383066929133858
 30
0.0
  0
SPLINE
  5
9A
330
1F
100
AcDbEntity
  8
Layer 1
 62
     1
370
    70
100
AcDbSpline
210
0.0
220
0.0
230
1.0
 70
     8
 71
     3
 72
    28
 73
    24
 74
     0
 42
0.0000000001
 43
0.0000000001
 40
0.0
 40
0.0
 40
0.0
 40
0.0
 40
0.1666666666666667
 40
0.1666666666666667
 40
0.1666666666666667
 40
0.1666666666666667
 40
0.3333333333333333
 40
0.3333333333333333
 40
0.3333333333333333
 40
0.3333333333333333
 40
0.5
 40
0.5
 40
0.5
 40
0.5
 40
0.6666666666666666
 40
0.6666666666666666
 40
0.6666666666666666
 40
0.6666666666666666
 40
0.8333333333333333
 40
0.8333333333333333
 40
0.8333333333333333
 40
0.8333333333333333
 40
1.0
 40
1.0
 40
1.0
 40
1.0
 10
8.371267716535433
 20
5.715145669291338
 30
0.0
 10
7.900035433070866
 20
5.591625984251968
 30
0.0
 10
7.397858267716535
 20
5.463208661417323
 30
0.0
 10
6.926625984251968
 20
5.339688976377952
 30
0.0
 10
6.926625984251968
 20
5.339688976377952
 30
0.0
 10
6.874909448818897
 20
5.337122047244095
 30
0.0
 10
6.821511811023622
 20
5.355476377952756
 30
0.0
 10
6.766429133858268
 20
5.394751968503937
 30
0.0
 10
6.766429133858268
 20
5.394751968503937
 30
0.0
 10
6.705818897637795
 20
5.4545
 30
0.0
 10
6.573456692913386
 20
5.412716535433071
 30
0.0
 10
6.36934251968504
 20
5.269397637795276
 30
0.0
 10
6.36934251968504
 20
5.269397637795276
 30
0.0
 10
6.318755905511811
 20
6.134464566929134
 30
0.0
 10
6.528732283464567
 20
6.82603937007874
 30
0.0
 10
6.999283464566929
 20
7.34411811023622
 30
0.0
 10
6.999283464566929
 20
7.34411811023622
 30
0.0
 10
7.051429133858267
 20
7.386240157480315
 30
0.0
 10
7.0708031496063
 20
7.480826771653543
 30
0.0
 10
7.057405511811024
 20
7.627874015748032
 30
0.0
 10
7.057405511811024
 20
7.627874015748032
 30
0.0
 10
6.993476377952756
 20
8.064661417322835
 30
0.0
 10
6.785318897637795
 20
8.357748031496063
 30
0.0
 10
6.432937007874016
 20
8.507133858267716
 30
0.0
  0
SPLINE
  5
9B
330
1F
100
AcDbEntity
  8
Layer 1
 62
     1
370
    70
100
AcDbSpline
210
0.0
220
0.0
230
1.0
 70
     8
 71
     3
 72
     8
 73
     4
 74
     0
 42
0.0000000001
 43
0.0000000001
 40
0.0
 40
0.0
 40
0.0
 40
0.0
 40
1.0
 40
1.0
 40
1.0
 40
1.0
 10
6.432937007874016
 20
8.507133858267716
 30
0.0
 10
6.290842519685039
 20
8.538125984251968
 30
0.0
 10
6.172704724409448
 20
8.471811023622047
 30
0.0
 10
6.078543307086615
 20
8.308192913385827
 30
0.0
  0
SPLINE
  5
9C
330
1F
100
AcDbEntity
  8
Layer 1
 62
     1
370
    70
100
AcDbSpline
210
0.0
220
0.0
230
1.0
 70
     8
 71
     3
 72
    24
 73
    20
 74
     0
 42
0.0000000001
 43
0.0000000001
 40
0.0
 40
0.0
 40
0.0
 40
0.0
 40
0.2
 40
0.2
 40
0.2
 40
0.2
 40
0.4
 40
0.4
 40
0.4
 40
0.4
 40
0.6000000000000001
 40
0.6000000000000001
 40
0.6000000000000001
 40
0.6000000000000001
 40
0.8
 40
0.8
 40
0.8
 40
0.8
 40
1.0
 40
1.0
 40
1.0
 40
1.0
 10
6.078543307086615
 20
8.308192913385827
 30
0.0
 10
5.974763779527559
 20
8.156342519685039
 30
0.0
 10
5.874145669291338
 20
7.864850393700787
 30
0.0
 10
5.776661417322835
 20
7.433704724409449
 30
0.0
 10
5.776661417322835
 20
7.433704724409449
 30
0.0
 10
5.475763779527559
 20
7.265307086614174
 30
0.0
 10
5.297314960629921
 20
7.159818897637796
 30
0.0
 10
5.241311023622047
 20
7.117244094488189
 30
0.0
 10
5.241311023622047
 20
7.117244094488189
 30
0.0
 10
5.071633858267717
 20
7.1665
 30
0.0
 10
4.901956692913386
 20
7.215755905511811
 30
0.0
 10
4.732283464566929
 20
7.265011811023622
 30
0.0
 10
4.732283464566929
 20
7.265011811023622
 30
0.0
 10
4.42986220472441
 20
7.634618110236221
 30
0.0
 10
4.166295275590551
 20
7.753779527559055
 30
0.0
 10
3.941598425196851
 20
7.622511811023622
 30
0.0
 10
3.941598425196851
 20
7.622511811023622
 30
0.0
 10
3.79644094488189
 20
7.52994094488189
 30
0.0
 10
3.71313779527559
 20
7.450125984251969
 30
0.0
 10
3.691696850393701
 20
7.383066929133858
 30
0.0
  0
SPLINE
  5
9D
330
1F
100
AcDbEntity
  8
Layer 1
 62
     1
370
    70
100
AcDbSpline
210
0.0
220
0.0
230
1.0
 70
     8
 71
     3
 72
     8
 73
     4
 74
     0
 42
0.0000000001
 43
0.0000000001
 40
0.0
 40
0.0
 40
0.0
 40
0.0
 40
1.0
 40
1.0
 40
1.0
 40
1.0
 10
6.924003937007874
 20
4.833661417322834
 30
0.0
 10
7.600511811023622
 20
4.947712598425197
 30
0.0
 10
7.616007874015748
 20
4.950314960629921
 30
0.0
 10
8.292515748031496
 20
5.064362204724409
 30
0.0
  0
SPLINE
  5
9E
330
1F
100
AcDbEntity
  8
Layer 1
 62
     1
370
    70
100
AcDbSpline
210
0.0
220
0.0
230
1.0
 70
     8
 71
     3
 72
    20
 73
    16
 74
     0
 42
0.0000000001
 43
0.0000000001
 40
0.0
 40
0.0
 40
0.0
 40
0.0
 40
0.25
 40
0.25
 40
0.25
 40
0.25
 40
0.5
 40
0.5
 40
0.5
 40
0.5
 40
0.75
 40
0.75
 40
0.75
 40
0.75
 40
1.0
 40
1.0
 40
1.0
 40
1.0
 10
6.924003937007874
 20
4.833661417322834
 30
0.0
 10
6.854125984251969
 20
4.629870078740158
 30
0.0
 10
6.681846456692913
 20
4.551704724409449
 30
0.0
 10
6.407165354330709
 20
4.599169291338582
 30
0.0
 10
6.407165354330709
 20
4.599169291338582
 30
0.0
 10
6.713625984251968
 20
3.570618110236221
 30
0.0
 10
7.254523622047244
 20
2.956082677165354
 30
0.0
 10
8.02985433070866
 20
2.755570866141732
 30
0.0
 10
8.02985433070866
 20
2.755570866141732
 30
0.0
 10
8.07403937007874
 20
2.742389763779527
 30
0.0
 10
8.09176377952756
 20
2.681507874015748
 30
0.0
 10
8.083035433070867
 20
2.57292125984252
 30
0.0
 10
8.083035433070867
 20
2.57292125984252
 30
0.0
 10
8.112692913385827
 20
2.329645669291339
 30
0.0
 10
8.012799212598425
 20
2.132866141732284
 30
0.0
 10
7.783358267716536
 20
1.982582677165354
 30
0.0
  0
SPLINE
  5
9F
330
1F
100
AcDbEntity
  8
Layer 1
 62
     1
370
    70
100
AcDbSpline
210
0.0
220
0.0
230
1.0
 70
     8
 71
     3
 72
    28
 73
    24
 74
     0
 42
0.0000000001
 43
0.0000000001
 40
0.0
 40
0.0
 40
0.0
 40
0.0
 40
0.1666666666666667
 40
0.1666666666666667
 40
0.1666666666666667
 40
0.1666666666666667
 40
0.3333333333333333
 40
0.3333333333333333
 40
0.3333333333333333
 40
0.3333333333333333
 40
0.5
 40
0.5
 40
0.5
 40
0.5
 40
0.6666666666666666
 40
0.6666666666666666
 40
0.6666666666666666
 40
0.6666666666666666
 40
0.8333333333333333
 40
0.8333333333333333
 40
0.8333333333333333
 40
0.8333333333333333
 40
1.0
 40
1.0
 40
1.0
 40
1.0
 10
7.642956692913386
 20
1.800350393700787
 30
0.0
 10
7.623496062992126
 20
1.655641732283465
 30
0.0
 10
7.553838582677165
 20
1.541555118110236
 30
0.0
 10
7.433976377952756
 20
1.458102362204724
 30
0.0
 10
7.433976377952756
 20
1.458102362204724
 30
0.0
 10
7.297255905511811
 20
1.373562992125984
 30
0.0
 10
7.120366141732283
 20
1.397720472440945
 30
0.0
 10
6.903299212598426
 20
1.530574803149606
 30
0.0
 10
6.903299212598426
 20
1.530574803149606
 30
0.0
 10
6.602358267716536
 20
1.738035433070866
 30
0.0
 10
6.375440944881889
 20
1.961248031496063
 30
0.0
 10
6.222547244094488
 20
2.200216535433071
 30
0.0
 10
6.222547244094488
 20
2.200216535433071
 30
0.0
 10
6.198263779527559
 20
2.24038188976378
 30
0.0
 10
6.196496062992126
 20
2.301972440944882
 30
0.0
 10
6.217224409448819
 20
2.38498031496063
 30
0.0
 10
6.217224409448819
 20
2.38498031496063
 30
0.0
 10
6.218259842519685
 20
2.449244094488189
 30
0.0
 10
6.187255905511811
 20
2.506610236220472
 30
0.0
 10
6.124220472440945
 20
2.55707874015748
 30
0.0
 10
6.124220472440945
 20
2.55707874015748
 30
0.0
 10
5.609842519685039
 20
3.103303149606299
 30
0.0
 10
5.371507874015748
 20
3.782570866141732
 30
0.0
 10
5.409228346456693
 20
4.594909448818898
 30
0.0
  0
SPLINE
  5
A0
330
1F
100
AcDbEntity
  8
Layer 1
 62
     1
370
    70
100
AcDbSpline
210
0.0
220
0.0
230
1.0
 70
     8
 71
     3
 72
    24
 73
    20
 74
     0
 42
0.0000000001
 43
0.0000000001
 40
0.0
 40
0.0
 40
0.0
 40
0.0
 40
0.2
 40
0.2
 40
0.2
 40
0.2
 40
0.4
 40
0.4
 40
0.4
 40
0.4
 40
0.6000000000000001
 40
0.6000000000000001
 40
0.6000000000000001
 40
0.6000000000000001
 40
0.8
 40
0.8
 40
0.8
 40
0.8
 40
1.0
 40
1.0
 40
1.0
 40
1.0
 10
9.95637401574803
 20
1.123665354330709
 30
0.0
 10
9.95637401574803
 20
1.123665354330709
 30
0.0
 10
10.64955118110236
 20
2.234248031496063
 30
0.0
 10
10.64955118110236
 20
2.234248031496063
 30
0.0
 10
10.64955118110236
 20
2.234248031496063
 30
0.0
 10
10.67100787401575
 20
2.268618110236221
 30
0.0
 10
10.66053543307087
 20
2.314208661417323
 30
0.0
 10
10.62628346456693
 20
2.335590551181102
 30
0.0
 10
10.62628346456693
 20
2.335590551181102
 30
0.0
 10
10.62628346456693
 20
2.335590551181102
 30
0.0
 10
10.55570472440945
 20
2.379645669291338
 30
0.0
 10
10.55570472440945
 20
2.379645669291338
 30
0.0
 10
10.55570472440945
 20
2.379645669291338
 30
0.0
 10
10.52145275590551
 20
2.401023622047244
 30
0.0
 10
10.47587401574803
 20
2.390366141732283
 30
0.0
 10
10.45444094488189
 20
2.356023622047244
 30
0.0
 10
10.45444094488189
 20
2.356023622047244
 30
0.0
 10
10.45444094488189
 20
2.356023622047244
 30
0.0
 10
9.758870078740157
 20
1.24161811023622
 30
0.0
 10
9.758870078740157
 20
1.24161811023622
 30
0.0
  0
SPLINE
  5
A1
330
1F
100
AcDbEntity
  8
Layer 1
 62
     1
370
    70
100
AcDbSpline
210
0.0
220
0.0
230
1.0
 70
     8
 71
     3
 72
    12
 73
     8
 74
     0
 42
0.0000000001
 43
0.0000000001
 40
0.0
 40
0.0
 40
0.0
 40
0.0
 40
0.5
 40
0.5
 40
0.5
 40
0.5
 40
1.0
 40
1.0
 40
1.0
 40
1.0
 10
11.31583070866142
 20
6.524696850393701
 30
0.0
 10
11.31583070866142
 20
6.524696850393701
 30
0.0
 10
11.44162598425197
 20
6.818393700787402
 30
0.0
 10
11.44162598425197
 20
6.818393700787402
 30
0.0
 10
11.44162598425197
 20
6.818393700787402
 30
0.0
 10
11.44162598425197
 20
6.818393700787402
 30
0.0
 10
11.22100787401575
 20
6.91288188976378
 30
0.0
 10
11.22100787401575
 20
6.91288188976378
 30
0.0
  0
SPLINE
  5
A2
330
1F
100
AcDbEntity
  8
Layer 1
 62
     1
370
    70
100
AcDbSpline
210
0.0
220
0.0
230
1.0
 70
     8
 71
     3
 72
    12
 73
     8
 74
     0
 42
0.0000000001
 43
0.0000000001
 40
0.0
 40
0.0
 40
0.0
 40
0.0
 40
0.5
 40
0.5
 40
0.5
 40
0.5
 40
1.0
 40
1.0
 40
1.0
 40
1.0
 10
10.91342913385827
 20
6.194759842519685
 30
0.0
 10
10.91342913385827
 20
6.194759842519685
 30
0.0
 10
11.13403937007874
 20
6.100263779527559
 30
0.0
 10
11.13403937007874
 20
6.100263779527559
 30
0.0
 10
11.13403937007874
 20
6.100263779527559
 30
0.0
 10
11.13403937007874
 20
6.100263779527559
 30
0.0
 10
11.31583070866142
 20
6.524696850393701
 30
0.0
 10
11.31583070866142
 20
6.524696850393701
 30
0.0
  0
SPLINE
  5
A3
330
1F
100
AcDbEntity
  8
Layer 1
 62
     1
370
    70
100
AcDbSpline
210
0.0
220
0.0
230
1.0
 70
     8
 71
     3
 72
    16
 73
    12
 74
     0
 42
0.0000000001
 43
0.0000000001
 40
0.0
 40
0.0
 40
0.0
 40
0.0
 40
0.3333333333333333
 40
0.3333333333333333
 40
0.3333333333333333
 40
0.3333333333333333
 40
0.6666666666666666
 40
0.6666666666666666
 40
0.6666666666666666
 40
0.6666666666666666
 40
1.0
 40
1.0
 40
1.0
 40
1.0
 10
7.075362204724409
 20
4.331661417322834
 30
0.0
 10
7.004763779527559
 20
4.240562992125985
 30
0.0
 10
6.965074803149606
 20
4.136031496062992
 30
0.0
 10
6.957137795275591
 20
4.010102362204725
 30
0.0
 10
6.957137795275591
 20
4.010102362204725
 30
0.0
 10
6.936287401574803
 20
3.679437007874016
 30
0.0
 10
7.18755905511811
 20
3.39438188976378
 30
0.0
 10
7.518208661417323
 20
3.373535433070866
 30
0.0
 10
7.518208661417323
 20
3.373535433070866
 30
0.0
 10
7.848858267716535
 20
3.352688976377953
 30
0.0
 10
8.132917322834645
 20
3.590551181102362
 30
0.0
 10
8.153763779527559
 20
3.921220472440945
 30
0.0
  0
SPLINE
  5
A4
330
1F
100
AcDbEntity
  8
Layer 1
 62
     1
370
    70
100
AcDbSpline
210
0.0
220
0.0
230
1.0
 70
     8
 71
     3
 72
    12
 73
     8
 74
     0
 42
0.0000000001
 43
0.0000000001
 40
0.0
 40
0.0
 40
0.0
 40
0.0
 40
0.5
 40
0.5
 40
0.5
 40
0.5
 40
1.0
 40
1.0
 40
1.0
 40
1.0
 10
7.836610236220473
 20
4.500385826771653
 30
0.0
 10
7.763716535433071
 20
4.540484251968504
 30
0.0
 10
7.681543307086614
 20
4.565618110236221
 30
0.0
 10
7.593716535433071
 20
4.571157480314961
 30
0.0
 10
7.593716535433071
 20
4.571157480314961
 30
0.0
 10
7.469712598425197
 20
4.578976377952756
 30
0.0
 10
7.345547244094488
 20
4.544602362204724
 30
0.0
 10
7.245933070866141
 20
4.486070866141732
 30
0.0
  0
SPLINE
  5
A5
330
1F
100
AcDbEntity
  8
Layer 1
 62
     1
370
    70
100
AcDbSpline
210
0.0
220
0.0
230
1.0
 70
     8
 71
     3
 72
    24
 73
    20
 74
     0
 42
0.0000000001
 43
0.0000000001
 40
0.0
 40
0.0
 40
0.0
 40
0.0
 40
0.2
 40
0.2
 40
0.2
 40
0.2
 40
0.4
 40
0.4
 40
0.4
 40
0.4
 40
0.6000000000000001
 40
0.6000000000000001
 40
0.6000000000000001
 40
0.6000000000000001
 40
0.8
 40
0.8
 40
0.8
 40
0.8
 40
1.0
 40
1.0
 40
1.0
 40
1.0
 10
7.075358267716536
 20
4.331653543307087
 30
0.0
 10
7.075358267716536
 20
4.331653543307087
 30
0.0
 10
7.388240157480315
 20
3.967377952755906
 30
0.0
 10
7.388240157480315
 20
3.967377952755906
 30
0.0
 10
7.388240157480315
 20
3.967377952755906
 30
0.0
 10
7.414641732283465
 20
3.936641732283464
 30
0.0
 10
7.461283464566929
 20
3.93301968503937
 30
0.0
 10
7.491913385826772
 20
3.959326771653543
 30
0.0
 10
7.491913385826772
 20
3.959326771653543
 30
0.0
 10
7.491913385826772
 20
3.959326771653543
 30
0.0
 10
7.555027559055118
 20
4.013543307086614
 30
0.0
 10
7.555027559055118
 20
4.013543307086614
 30
0.0
 10
7.555027559055118
 20
4.013543307086614
 30
0.0
 10
7.585653543307086
 20
4.039846456692914
 30
0.0
 10
7.589086614173229
 20
4.086543307086614
 30
0.0
 10
7.562724409448819
 20
4.117240157480315
 30
0.0
 10
7.562724409448819
 20
4.117240157480315
 30
0.0
 10
7.562724409448819
 20
4.117240157480315
 30
0.0
 10
7.245925196850393
 20
4.48607874015748
 30
0.0
 10
7.245925196850393
 20
4.48607874015748
 30
0.0
  0
SPLINE
  5
A6
330
1F
100
AcDbEntity
  8
Layer 1
 62
     1
370
    70
100
AcDbSpline
210
0.0
220
0.0
230
1.0
 70
     8
 71
     3
 72
    32
 73
    28
 74
     0
 42
0.0000000001
 43
0.0000000001
 40
0.0
 40
0.0
 40
0.0
 40
0.0
 40
0.1428571428571428
 40
0.1428571428571428
 40
0.1428571428571428
 40
0.1428571428571428
 40
0.2857142857142857
 40
0.2857142857142857
 40
0.2857142857142857
 40
0.2857142857142857
 40
0.4285714285714285
 40
0.4285714285714285
 40
0.4285714285714285
 40
0.4285714285714285
 40
0.5714285714285714
 40
0.5714285714285714
 40
0.5714285714285714
 40
0.5714285714285714
 40
0.7142857142857142
 40
0.7142857142857142
 40
0.7142857142857142
 40
0.7142857142857142
 40
0.857142857142857
 40
0.857142857142857
 40
0.857142857142857
 40
0.857142857142857
 40
1.0
 40
1.0
 40
1.0
 40
1.0
 10
11.00804724409449
 20
4.543177165354331
 30
0.0
 10
11.00744881889764
 20
4.612755905511811
 30
0.0
 10
10.84577165354331
 20
4.907700787401575
 30
0.0
 10
10.5230157480315
 20
5.42801968503937
 30
0.0
 10
10.5230157480315
 20
5.42801968503937
 30
0.0
 10
10.5230157480315
 20
5.42801968503937
 30
0.0
 10
9.996503937007875
 20
6.040740157480315
 30
0.0
 10
9.996503937007875
 20
6.040740157480315
 30
0.0
 10
9.996503937007875
 20
6.040740157480315
 30
0.0
 10
9.970122047244095
 20
6.071444881889764
 30
0.0
 10
9.973547244094489
 20
6.118125984251969
 30
0.0
 10
10.00417716535433
 20
6.144448818897637
 30
0.0
 10
10.00417716535433
 20
6.144448818897637
 30
0.0
 10
10.00417716535433
 20
6.144448818897637
 30
0.0
 10
10.06727559055118
 20
6.198665354330709
 30
0.0
 10
10.06727559055118
 20
6.198665354330709
 30
0.0
 10
10.06727559055118
 20
6.198665354330709
 30
0.0
 10
10.09790551181102
 20
6.224984251968504
 30
0.0
 10
10.14454330708661
 20
6.221374015748031
 30
0.0
 10
10.17095275590551
 20
6.190645669291339
 30
0.0
 10
10.17095275590551
 20
6.190645669291339
 30
0.0
 10
10.17095275590551
 20
6.190645669291339
 30
0.0
 10
10.66650393700787
 20
5.613933070866142
 30
0.0
 10
10.66650393700787
 20
5.613933070866142
 30
0.0
 10
10.66650393700787
 20
5.613933070866142
 30
0.0
 10
10.76238188976378
 20
5.839464566929134
 30
0.0
 10
10.81920472440945
 20
5.972303149606299
 30
0.0
 10
10.91422834645669
 20
6.194417322834646
 30
0.0
  0
SPLINE
  5
A7
330
1F
100
AcDbEntity
  8
Layer 1
 62
     1
370
    70
100
AcDbSpline
210
0.0
220
0.0
230
1.0
 70
     8
 71
     3
 72
     8
 73
     4
 74
     0
 42
0.0000000001
 43
0.0000000001
 40
0.0
 40
0.0
 40
0.0
 40
0.0
 40
1.0
 40
1.0
 40
1.0
 40
1.0
 10
11.22100787401575
 20
6.912889763779527
 30
0.0
 10
11.34020078740157
 20
7.193236220472441
 30
0.0
 10
11.46272047244094
 20
7.486834645669291
 30
0.0
 10
11.58192125984252
 20
7.767212598425197
 30
0.0
  0
SPLINE
  5
A8
330
1F
100
AcDbEntity
  8
Layer 1
 62
     1
370
    70
100
AcDbSpline
210
0.0
220
0.0
230
1.0
 70
     8
 71
     3
 72
    28
 73
    24
 74
     0
 42
0.0000000001
 43
0.0000000001
 40
0.0
 40
0.0
 40
0.0
 40
0.0
 40
0.1666666666666667
 40
0.1666666666666667
 40
0.1666666666666667
 40
0.1666666666666667
 40
0.3333333333333333
 40
0.3333333333333333
 40
0.3333333333333333
 40
0.3333333333333333
 40
0.5
 40
0.5
 40
0.5
 40
0.5
 40
0.6666666666666666
 40
0.6666666666666666
 40
0.6666666666666666
 40
0.6666666666666666
 40
0.8333333333333333
 40
0.8333333333333333
 40
0.8333333333333333
 40
0.8333333333333333
 40
1.0
 40
1.0
 40
1.0
 40
1.0
 10
7.841574803149606
 20
4.497633858267717
 30
0.0
 10
8.32524409448819
 20
4.555755905511811
 30
0.0
 10
8.8395
 20
4.620692913385827
 30
0.0
 10
9.323173228346457
 20
4.678811023622047
 30
0.0
 10
9.323173228346457
 20
4.678811023622047
 30
0.0
 10
9.372220472440945
 20
4.695413385826772
 30
0.0
 10
9.415145669291338
 20
4.732090551181102
 30
0.0
 10
9.451964566929133
 20
4.788846456692913
 30
0.0
 10
9.451964566929133
 20
4.788846456692913
 30
0.0
 10
9.48640157480315
 20
4.86667716535433
 30
0.0
 10
9.624866141732284
 20
4.876409448818897
 30
0.0
 10
9.867342519685039
 20
4.818043307086614
 30
0.0
 10
9.867342519685039
 20
4.818043307086614
 30
0.0
 10
9.596779527559056
 20
5.641267716535433
 30
0.0
 10
9.147547244094488
 20
6.207444881889764
 30
0.0
 10
8.51964566929134
 20
6.516574803149607
 30
0.0
 10
8.51964566929134
 20
6.516574803149607
 30
0.0
 10
8.45567716535433
 20
6.536610236220472
 30
0.0
 10
8.402929133858267
 20
6.617472440944882
 30
0.0
 10
8.36140157480315
 20
6.759173228346457
 30
0.0
 10
8.36140157480315
 20
6.759173228346457
 30
0.0
 10
8.260492125984252
 20
7.188925196850394
 30
0.0
 10
8.3465
 20
7.537968503937008
 30
0.0
 10
8.619425196850393
 20
7.8063031496063
 30
0.0
  0
SPLINE
  5
A9
330
1F
100
AcDbEntity
  8
Layer 1
 62
     1
370
    70
100
AcDbSpline
210
0.0
220
0.0
230
1.0
 70
     8
 71
     3
 72
     8
 73
     4
 74
     0
 42
0.0000000001
 43
0.0000000001
 40
0.0
 40
0.0
 40
0.0
 40
0.0
 40
1.0
 40
1.0
 40
1.0
 40
1.0
 10
8.619425196850393
 20
7.8063031496063
 30
0.0
 10
8.74021653543307
 20
7.887303149606299
 30
0.0
 10
8.874448818897637
 20
7.868992125984252
 30
0.0
 10
9.022110236220472
 20
7.751374015748032
 30
0.0
  0
SPLINE
  5
AA
330
1F
100
AcDbEntity
  8
Layer 1
 62
     1
370
    70
100
AcDbSpline
210
0.0
220
0.0
230
1.0
 70
     8
 71
     3
 72
    24
 73
    20
 74
     0
 42
0.0000000001
 43
0.0000000001
 40
0.0
 40
0.0
 40
0.0
 40
0.0
 40
0.2
 40
0.2
 40
0.2
 40
0.2
 40
0.4
 40
0.4
 40
0.4
 40
0.4
 40
0.6000000000000001
 40
0.6000000000000001
 40
0.6000000000000001
 40
0.6000000000000001
 40
0.8
 40
0.8
 40
0.8
 40
0.8
 40
1.0
 40
1.0
 40
1.0
 40
1.0
 10
9.022110236220472
 20
7.751374015748032
 30
0.0
 10
9.174393700787402
 20
7.648232283464567
 30
0.0
 10
9.375007874015749
 20
7.414043307086614
 30
0.0
 10
9.623984251968505
 20
7.048803149606299
 30
0.0
 10
9.623984251968505
 20
7.048803149606299
 30
0.0
 10
9.965692913385826
 20
7.002641732283465
 30
0.0
 10
10.1704094488189
 20
6.97003937007874
 30
0.0
 10
10.23813385826772
 20
6.951
 30
0.0
 10
10.23813385826772
 20
6.951
 30
0.0
 10
10.37787401574803
 20
7.059114173228346
 30
0.0
 10
10.51761811023622
 20
7.167228346456693
 30
0.0
 10
10.65735826771654
 20
7.275342519685039
 30
0.0
 10
10.65735826771654
 20
7.275342519685039
 30
0.0
 10
10.80295275590551
 20
7.730169291338583
 30
0.0
 10
11.00435826771654
 20
7.937783464566929
 30
0.0
 10
11.26155905511811
 20
7.898181102362205
 30
0.0
 10
11.26155905511811
 20
7.898181102362205
 30
0.0
 10
11.43057086614173
 20
7.865370078740158
 30
0.0
 10
11.53735826771654
 20
7.821712598425197
 30
0.0
 10
11.58192125984252
 20
7.767212598425197
 30
0.0
  0
SPLINE
  5
AB
330
1F
100
AcDbEntity
  8
Layer 1
 62
     1
370
    70
100
AcDbSpline
210
0.0
220
0.0
230
1.0
 70
     8
 71
     3
 72
     8
 73
     4
 74
     0
 42
0.0000000001
 43
0.0000000001
 40
0.0
 40
0.0
 40
0.0
 40
0.0
 40
1.0
 40
1.0
 40
1.0
 40
1.0
 10
9.511405511811024
 20
4.209094488188977
 30
0.0
 10
8.840271653543308
 20
4.066791338582677
 30
0.0
 10
8.82490157480315
 20
4.063523622047244
 30
0.0
 10
8.153763779527559
 20
3.921220472440945
 30
0.0
  0
SPLINE
  5
AC
330
1F
100
AcDbEntity
  8
Layer 1
 62
     1
370
    70
100
AcDbSpline
210
0.0
220
0.0
230
1.0
 70
     8
 71
     3
 72
    20
 73
    16
 74
     0
 42
0.0000000001
 43
0.0000000001
 40
0.0
 40
0.0
 40
0.0
 40
0.0
 40
0.25
 40
0.25
 40
0.25
 40
0.25
 40
0.5
 40
0.5
 40
0.5
 40
0.5
 40
0.75
 40
0.75
 40
0.75
 40
0.75
 40
1.0
 40
1.0
 40
1.0
 40
1.0
 10
9.511405511811024
 20
4.209094488188977
 30
0.0
 10
9.651228346456692
 20
4.045188976377953
 30
0.0
 10
9.840173228346456
 20
4.035740157480315
 30
0.0
 10
10.07824015748031
 20
4.180740157480315
 30
0.0
 10
10.07824015748031
 20
4.180740157480315
 30
0.0
 10
10.17082677165354
 20
3.111503937007874
 30
0.0
 10
9.893338582677165
 20
2.341295275590551
 30
0.0
 10
9.245779527559055
 20
1.870118110236221
 30
0.0
 10
9.245779527559055
 20
1.870118110236221
 30
0.0
 10
9.20951968503937
 20
1.841633858267717
 30
0.0
 10
9.215385826771653
 20
1.778492125984252
 30
0.0
 10
9.263374015748031
 20
1.680696850393701
 30
0.0
 10
9.263374015748031
 20
1.680696850393701
 30
0.0
 10
9.325106299212598
 20
1.443523622047244
 30
0.0
 10
9.490271653543306
 20
1.297165354330709
 30
0.0
 10
9.758870078740157
 20
1.24161811023622
 30
0.0
  0
SPLINE
  5
AD
330
1F
100
AcDbEntity
  8
Layer 1
 62
     1
370
    70
100
AcDbSpline
210
0.0
220
0.0
230
1.0
 70
     8
 71
     3
 72
    28
 73
    24
 74
     0
 42
0.0000000001
 43
0.0000000001
 40
0.0
 40
0.0
 40
0.0
 40
0.0
 40
0.1666666666666667
 40
0.1666666666666667
 40
0.1666666666666667
 40
0.1666666666666667
 40
0.3333333333333333
 40
0.3333333333333333
 40
0.3333333333333333
 40
0.3333333333333333
 40
0.5
 40
0.5
 40
0.5
 40
0.5
 40
0.6666666666666666
 40
0.6666666666666666
 40
0.6666666666666666
 40
0.6666666666666666
 40
0.8333333333333333
 40
0.8333333333333333
 40
0.8333333333333333
 40
0.8333333333333333
 40
1.0
 40
1.0
 40
1.0
 40
1.0
 10
9.95637401574803
 20
1.123665354330709
 30
0.0
 10
10.02760236220472
 20
0.9962047244094488
 30
0.0
 10
10.13428346456693
 20
0.9156614173228347
 30
0.0
 10
10.27641732283465
 20
0.8820472440944882
 30
0.0
 10
10.27641732283465
 20
0.8820472440944882
 30
0.0
 10
10.43462598425197
 20
0.8536102362204725
 30
0.0
 10
10.59029527559055
 20
0.9410275590551181
 30
0.0
 10
10.74342125984252
 20
1.144299212598425
 30
0.0
 10
10.74342125984252
 20
1.144299212598425
 30
0.0
 10
10.94717322834646
 20
1.447763779527559
 30
0.0
 10
11.0762874015748
 20
1.738704724409449
 30
0.0
 10
11.13076377952756
 20
2.017118110236221
 30
0.0
 10
11.13076377952756
 20
2.017118110236221
 30
0.0
 10
11.13860236220472
 20
2.063393700787401
 30
0.0
 10
11.11763385826772
 20
2.121330708661417
 30
0.0
 10
11.06787401574803
 20
2.190933070866142
 30
0.0
 10
11.06787401574803
 20
2.190933070866142
 30
0.0
 10
11.04331889763779
 20
2.250326771653543
 30
0.0
 10
11.05109448818898
 20
2.315066929133858
 30
0.0
 10
11.0911968503937
 20
2.385157480314961
 30
0.0
 10
11.0911968503937
 20
2.385157480314961
 30
0.0
 10
11.36909842519685
 20
3.082090551181103
 30
0.0
 10
11.34138582677165
 20
3.801425196850394
 30
0.0
 10
11.00804724409449
 20
4.543177165354331
 30
0.0
  0
SPLINE
  5
AE
330
1F
100
AcDbEntity
  8
Layer 1
 62
     1
370
    70
100
AcDbSpline
210
0.0
220
0.0
230
1.0
 70
     8
 71
     3
 72
    24
 73
    20
 74
     0
 42
0.0000000001
 43
0.0000000001
 40
0.0
 40
0.0
 40
0.0
 40
0.0
 40
0.2
 40
0.2
 40
0.2
 40
0.2
 40
0.4
 40
0.4
 40
0.4
 40
0.4
 40
0.6000000000000001
 40
0.6000000000000001
 40
0.6000000000000001
 40
0.6000000000000001
 40
0.8
 40
0.8
 40
0.8
 40
0.8
 40
1.0
 40
1.0
 40
1.0
 40
1.0
 10
-11.7277874015748
 20
1.239275590551181
 30
0.0
 10
-11.7277874015748
 20
1.239275590551181
 30
0.0
 10
-11.23773622047244
 20
1.429637795275591
 30
0.0
 10
-11.23773622047244
 20
1.429637795275591
 30
0.0
 10
-11.23773622047244
 20
1.429637795275591
 30
0.0
 10
-11.19996456692913
 20
1.444311023622047
 30
0.0
 10
-11.15712204724409
 20
1.425527559055118
 30
0.0
 10
-11.1425
 20
1.387893700787401
 30
0.0
 10
-11.1425
 20
1.387893700787401
 30
0.0
 10
-11.1425
 20
1.387893700787401
 30
0.0
 10
-11.11237401574803
 20
1.310338582677165
 30
0.0
 10
-11.11237401574803
 20
1.310338582677165
 30
0.0
 10
-11.11237401574803
 20
1.310338582677165
 30
0.0
 10
-11.09775196850394
 20
1.272700787401575
 30
0.0
 10
-11.11671653543307
 20
1.229905511811024
 30
0.0
 10
-11.15444881889764
 20
1.215248031496063
 30
0.0
 10
-11.15444881889764
 20
1.215248031496063
 30
0.0
 10
-11.15444881889764
 20
1.215248031496063
 30
0.0
 10
-11.64602362204724
 20
1.024287401574803
 30
0.0
 10
-11.64602362204724
 20
1.024287401574803
 30
0.0
  0
SPLINE
  5
AF
330
1F
100
AcDbEntity
  8
Layer 1
 62
     1
370
    70
100
AcDbSpline
210
0.0
220
0.0
230
1.0
 70
     8
 71
     3
 72
    40
 73
    36
 74
     0
 42
0.0000000001
 43
0.0000000001
 40
0.0
 40
0.0
 40
0.0
 40
0.0
 40
0.1111111111111111
 40
0.1111111111111111
 40
0.1111111111111111
 40
0.1111111111111111
 40
0.2222222222222222
 40
0.2222222222222222
 40
0.2222222222222222
 40
0.2222222222222222
 40
0.3333333333333333
 40
0.3333333333333333
 40
0.3333333333333333
 40
0.3333333333333333
 40
0.4444444444444444
 40
0.4444444444444444
 40
0.4444444444444444
 40
0.4444444444444444
 40
0.5555555555555556
 40
0.5555555555555556
 40
0.5555555555555556
 40
0.5555555555555556
 40
0.6666666666666667
 40
0.6666666666666667
 40
0.6666666666666667
 40
0.6666666666666667
 40
0.7777777777777779
 40
0.7777777777777779
 40
0.7777777777777779
 40
0.7777777777777779
 40
0.8888888888888891
 40
0.8888888888888891
 40
0.8888888888888891
 40
0.8888888888888891
 40
1.0
 40
1.0
 40
1.0
 40
1.0
 10
-11.72778346456693
 20
1.239267716535433
 30
0.0
 10
-11.77271653543307
 20
1.355992125984252
 30
0.0
 10
-11.81913385826772
 20
1.473996062992126
 30
0.0
 10
-11.86407086614173
 20
1.590724409448819
 30
0.0
 10
-11.86407086614173
 20
1.590724409448819
 30
0.0
 10
-11.28401968503937
 20
1.814007874015748
 30
0.0
 10
-11.30237401574803
 20
1.80696062992126
 30
0.0
 10
-10.72231496062992
 20
2.030248031496063
 30
0.0
 10
-10.72231496062992
 20
2.030248031496063
 30
0.0
 10
-10.18853937007874
 20
1.556547244094488
 30
0.0
 10
-9.58753937007874
 20
0.9902755905511811
 30
0.0
 10
-9.053771653543308
 20
0.5165787401574803
 30
0.0
 10
-9.053771653543308
 20
0.5165787401574803
 30
0.0
 10
-8.966393700787401
 20
0.2896023622047244
 30
0.0
 10
-8.900196850393701
 20
0.1176456692913386
 30
0.0
 10
-8.812826771653544
 20
-0.1093346456692913
 30
0.0
 10
-8.812826771653544
 20
-0.1093346456692913
 30
0.0
 10
-9.08865748031496
 20
-0.2168188976377953
 30
0.0
 10
-9.251988188976378
 20
-0.1994055118110236
 30
0.0
 10
-9.302822834645669
 20
-0.0570866141732283
 30
0.0
 10
-9.302822834645669
 20
-0.0570866141732283
 30
0.0
 10
-9.358586614173229
 20
0.0399055118110236
 30
0.0
 10
-9.341696850393701
 20
0.1806614173228346
 30
0.0
 10
-9.25214566929134
 20
0.3651811023622047
 30
0.0
 10
-9.25214566929134
 20
0.3651811023622047
 30
0.0
 10
-9.604185039370078
 20
0.6232086614173228
 30
0.0
 10
-9.956228346456692
 20
0.881248031496063
 30
0.0
 10
-10.30826771653543
 20
1.139279527559055
 30
0.0
 10
-10.30826771653543
 20
1.139279527559055
 30
0.0
 10
-10.7094842519685
 20
0.9848267716535433
 30
0.0
 10
-11.11070866141732
 20
0.8303858267716535
 30
0.0
 10
-11.51192913385827
 20
0.6759409448818897
 30
0.0
 10
-11.51192913385827
 20
0.6759409448818897
 30
0.0
 10
-11.58437795275591
 20
0.8641377952755905
 30
0.0
 10
-11.57358661417323
 20
0.8360866141732284
 30
0.0
 10
-11.64602362204724
 20
1.024283464566929
 30
0.0
  0
SPLINE
  5
B0
330
1F
100
AcDbEntity
  8
Layer 1
 62
     1
370
    70
100
AcDbSpline
210
0.0
220
0.0
230
1.0
 70
    11
 71
     3
 72
    20
 73
    16
 74
     0
 42
0.0000000001
 43
0.0000000001
 40
0.0
 40
0.0
 40
0.0
 40
0.0
 40
0.25
 40
0.25
 40
0.25
 40
0.25
 40
0.5
 40
0.5
 40
0.5
 40
0.5
 40
0.75
 40
0.75
 40
0.75
 40
0.75
 40
1.0
 40
1.0
 40
1.0
 40
1.0
 10
-8.80032283464567
 20
6.770472440944882
 30
0.0
 10
-7.342535433070866
 20
6.770472440944882
 30
0.0
 10
-6.160322834645669
 20
5.588251968503937
 30
0.0
 10
-6.160322834645669
 20
4.130472440944882
 30
0.0
 10
-6.160322834645669
 20
4.130472440944882
 30
0.0
 10
-6.160322834645669
 20
2.672685039370079
 30
0.0
 10
-7.342535433070866
 20
1.490472440944882
 30
0.0
 10
-8.80032283464567
 20
1.490472440944882
 30
0.0
 10
-8.80032283464567
 20
1.490472440944882
 30
0.0
 10
-10.25811811023622
 20
1.490472440944882
 30
0.0
 10
-11.44032283464567
 20
2.672685039370079
 30
0.0
 10
-11.44032283464567
 20
4.130472440944882
 30
0.0
 10
-11.44032283464567
 20
4.130472440944882
 30
0.0
 10
-11.44032283464567
 20
5.588251968503937
 30
0.0
 10
-10.25811811023622
 20
6.770472440944882
 30
0.0
 10
-8.80032283464567
 20
6.770472440944882
 30
0.0
  0
SPLINE
  5
B1
330
1F
100
AcDbEntity
  8
Layer 1
 62
     1
370
    70
100
AcDbSpline
210
0.0
220
0.0
230
1.0
 70
    11
 71
     3
 72
    20
 73
    16
 74
     0
 42
0.0000000001
 43
0.0000000001
 40
0.0
 40
0.0
 40
0.0
 40
0.0
 40
0.25
 40
0.25
 40
0.25
 40
0.25
 40
0.5
 40
0.5
 40
0.5
 40
0.5
 40
0.75
 40
0.75
 40
0.75
 40
0.75
 40
1.0
 40
1.0
 40
1.0
 40
1.0
 10
-8.80032283464567
 20
6.280472440944882
 30
0.0
 10
-7.613102362204724
 20
6.280472440944882
 30
0.0
 10
-6.650322834645669
 20
5.317685039370079
 30
0.0
 10
-6.650322834645669
 20
4.130472440944882
 30
0.0
 10
-6.650322834645669
 20
4.130472440944882
 30
0.0
 10
-6.650322834645669
 20
2.943251968503937
 30
0.0
 10
-7.613102362204724
 20
1.980472440944882
 30
0.0
 10
-8.80032283464567
 20
1.980472440944882
 30
0.0
 10
-8.80032283464567
 20
1.980472440944882
 30
0.0
 10
-9.987551181102361
 20
1.980472440944882
 30
0.0
 10
-10.95032283464567
 20
2.943251968503937
 30
0.0
 10
-10.95032283464567
 20
4.130472440944882
 30
0.0
 10
-10.95032283464567
 20
4.130472440944882
 30
0.0
 10
-10.95032283464567
 20
5.317685039370079
 30
0.0
 10
-9.987551181102361
 20
6.280472440944882
 30
0.0
 10
-8.80032283464567
 20
6.280472440944882
 30
0.0
  0
SPLINE
  5
B2
330
1F
100
AcDbEntity
  8
Layer 1
 62
     1
370
    70
100
AcDbSpline
210
0.0
220
0.0
230
1.0
 70
    11
 71
     3
 72
    20
 73
    16
 74
     0
 42
0.0000000001
 43
0.0000000001
 40
0.0
 40
0.0
 40
0.0
 40
0.0
 40
0.25
 40
0.25
 40
0.25
 40
0.25
 40
0.5
 40
0.5
 40
0.5
 40
0.5
 40
0.75
 40
0.75
 40
0.75
 40
0.75
 40
1.0
 40
1.0
 40
1.0
 40
1.0
 10
-2.537086614173228
 20
3.347228346456693
 30
0.0
 10
-2.205783464566929
 20
3.347228346456693
 30
0.0
 10
-1.937102362204724
 20
3.078547244094488
 30
0.0
 10
-1.937102362204724
 20
2.747228346456693
 30
0.0
 10
-1.937102362204724
 20
2.747228346456693
 30
0.0
 10
-1.937102362204724
 20
2.415909448818898
 30
0.0
 10
-2.205783464566929
 20
2.147228346456693
 30
0.0
 10
-2.537086614173228
 20
2.147228346456693
 30
0.0
 10
-2.537086614173228
 20
2.147228346456693
 30
0.0
 10
-2.868409448818898
 20
2.147228346456693
 30
0.0
 10
-3.137102362204724
 20
2.415909448818898
 30
0.0
 10
-3.137102362204724
 20
2.747228346456693
 30
0.0
 10
-3.137102362204724
 20
2.747228346456693
 30
0.0
 10
-3.137102362204724
 20
3.078547244094488
 30
0.0
 10
-2.868409448818898
 20
3.347228346456693
 30
0.0
 10
-2.537086614173228
 20
3.347228346456693
 30
0.0
  0
SPLINE
  5
B3
330
1F
100
AcDbEntity
  8
Layer 1
 62
     1
370
    70
100
AcDbSpline
210
0.0
220
0.0
230
1.0
 70
     8
 71
     3
 72
     8
 73
     4
 74
     0
 42
0.0000000001
 43
0.0000000001
 40
0.0
 40
0.0
 40
0.0
 40
0.0
 40
1.0
 40
1.0
 40
1.0
 40
1.0
 10
10.91153543307087
 20
-7.52744094488189
 30
0.0
 10
10.49361417322835
 20
-7.340732283464567
 30
0.0
 10
10.06643307086614
 20
-7.340732283464567
 30
0.0
 10
9.630007874015748
 20
-7.52744094488189
 30
0.0
  0
SPLINE
  5
B4
330
1F
100
AcDbEntity
  8
Layer 1
 62
     1
370
    70
100
AcDbSpline
210
0.0
220
0.0
230
1.0
 70
     8
 71
     3
 72
     8
 73
     4
 74
     0
 42
0.0000000001
 43
0.0000000001
 40
0.0
 40
0.0
 40
0.0
 40
0.0
 40
1.0
 40
1.0
 40
1.0
 40
1.0
 10
9.630007874015748
 20
-7.52744094488189
 30
0.0
 10
9.467866141732284
 20
-7.596228346456693
 30
0.0
 10
9.394165354330708
 20
-7.650283464566929
 30
0.0
 10
9.408905511811023
 20
-7.689574803149607
 30
0.0
  0
SPLINE
  5
B5
330
1F
100
AcDbEntity
  8
Layer 1
 62
     1
370
    70
100
AcDbSpline
210
0.0
220
0.0
230
1.0
 70
     8
 71
     3
 72
     8
 73
     4
 74
     0
 42
0.0000000001
 43
0.0000000001
 40
0.0
 40
0.0
 40
0.0
 40
0.0
 40
1.0
 40
1.0
 40
1.0
 40
1.0
 10
9.408905511811023
 20
-8.500433070866142
 30
0.0
 10
9.40276377952756
 20
-8.636574803149607
 30
0.0
 10
9.453133858267716
 20
-8.706606299212599
 30
0.0
 10
9.559992125984252
 20
-8.710488188976377
 30
0.0
  0
SPLINE
  5
B6
330
1F
100
AcDbEntity
  8
Layer 1
 62
     1
370
    70
100
AcDbSpline
210
0.0
220
0.0
230
1.0
 70
    24
 71
     3
 72
     8
 73
     4
 74
     0
 42
0.0000000001
 43
0.0000000001
 40
0.0
 40
0.0
 40
0.0
 40
0.0
 40
1.0
 40
1.0
 40
1.0
 40
1.0
 10
9.559992125984252
 20
-8.710488188976377
 30
0.0
 10
9.559992125984252
 20
-8.710488188976377
 30
0.0
 10
10.27077165354331
 20
-8.710488188976377
 30
0.0
 10
10.27077165354331
 20
-8.710488188976377
 30
0.0
  0
SPLINE
  5
B7
330
1F
100
AcDbEntity
  8
Layer 1
 62
     1
370
    70
100
AcDbSpline
210
0.0
220
0.0
230
1.0
 70
    24
 71
     3
 72
     8
 73
     4
 74
     0
 42
0.0000000001
 43
0.0000000001
 40
0.0
 40
0.0
 40
0.0
 40
0.0
 40
1.0
 40
1.0
 40
1.0
 40
1.0
 10
9.408905511811023
 20
-7.689574803149607
 30
0.0
 10
9.408905511811023
 20
-7.689574803149607
 30
0.0
 10
9.408905511811023
 20
-8.500433070866142
 30
0.0
 10
9.408905511811023
 20
-8.500433070866142
 30
0.0
  0
SPLINE
  5
B8
330
1F
100
AcDbEntity
  8
Layer 1
 62
     1
370
    70
100
AcDbSpline
210
0.0
220
0.0
230
1.0
 70
     8
 71
     3
 72
     8
 73
     4
 74
     0
 42
0.0000000001
 43
0.0000000001
 40
0.0
 40
0.0
 40
0.0
 40
0.0
 40
1.0
 40
1.0
 40
1.0
 40
1.0
 10
10.91153543307087
 20
-7.52744094488189
 30
0.0
 10
11.07367716535433
 20
-7.596228346456693
 30
0.0
 10
11.1473779527559
 20
-7.650283464566929
 30
0.0
 10
11.13263779527559
 20
-7.689574803149607
 30
0.0
  0
SPLINE
  5
B9
330
1F
100
AcDbEntity
  8
Layer 1
 62
     1
370
    70
100
AcDbSpline
210
0.0
220
0.0
230
1.0
 70
     8
 71
     3
 72
     8
 73
     4
 74
     0
 42
0.0000000001
 43
0.0000000001
 40
0.0
 40
0.0
 40
0.0
 40
0.0
 40
1.0
 40
1.0
 40
1.0
 40
1.0
 10
11.13263779527559
 20
-8.500433070866142
 30
0.0
 10
11.13877952755906
 20
-8.636574803149607
 30
0.0
 10
11.0884094488189
 20
-8.706606299212599
 30
0.0
 10
10.98155118110236
 20
-8.710488188976377
 30
0.0
  0
SPLINE
  5
BA
330
1F
100
AcDbEntity
  8
Layer 1
 62
     1
370
    70
100
AcDbSpline
210
0.0
220
0.0
230
1.0
 70
    24
 71
     3
 72
     8
 73
     4
 74
     0
 42
0.0000000001
 43
0.0000000001
 40
0.0
 40
0.0
 40
0.0
 40
0.0
 40
1.0
 40
1.0
 40
1.0
 40
1.0
 10
10.98155118110236
 20
-8.710488188976377
 30
0.0
 10
10.98155118110236
 20
-8.710488188976377
 30
0.0
 10
10.27077165354331
 20
-8.710488188976377
 30
0.0
 10
10.27077165354331
 20
-8.710488188976377
 30
0.0
  0
SPLINE
  5
BB
330
1F
100
AcDbEntity
  8
Layer 1
 62
     1
370
    70
100
AcDbSpline
210
0.0
220
0.0
230
1.0
 70
    24
 71
     3
 72
     8
 73
     4
 74
     0
 42
0.0000000001
 43
0.0000000001
 40
0.0
 40
0.0
 40
0.0
 40
0.0
 40
1.0
 40
1.0
 40
1.0
 40
1.0
 10
11.13263779527559
 20
-7.689574803149607
 30
0.0
 10
11.13263779527559
 20
-7.689574803149607
 30
0.0
 10
11.13263779527559
 20
-8.500433070866142
 30
0.0
 10
11.13263779527559
 20
-8.500433070866142
 30
0.0
  0
SPLINE
  5
BC
330
1F
100
AcDbEntity
  8
Layer 1
 62
     1
370
    70
100
AcDbSpline
210
0.0
220
0.0
230
1.0
 70
    11
 71
     3
 72
    20
 73
    16
 74
     0
 42
0.0000000001
 43
0.0000000001
 40
0.0
 40
0.0
 40
0.0
 40
0.0
 40
0.25
 40
0.25
 40
0.25
 40
0.25
 40
0.5
 40
0.5
 40
0.5
 40
0.5
 40
0.75
 40
0.75
 40
0.75
 40
0.75
 40
1.0
 40
1.0
 40
1.0
 40
1.0
 10
8.333803149606299
 20
-6.166070866141732
 30
0.0
 10
8.665106299212598
 20
-6.166070866141732
 30
0.0
 10
8.933787401574802
 20
-6.434751968503937
 30
0.0
 10
8.933787401574802
 20
-6.766070866141733
 30
0.0
 10
8.933787401574802
 20
-6.766070866141733
 30
0.0
 10
8.933787401574802
 20
-7.097389763779527
 30
0.0
 10
8.665106299212598
 20
-7.366070866141732
 30
0.0
 10
8.333803149606299
 20
-7.366070866141732
 30
0.0
 10
8.333803149606299
 20
-7.366070866141732
 30
0.0
 10
8.00248031496063
 20
-7.366070866141732
 30
0.0
 10
7.733787401574803
 20
-7.097389763779527
 30
0.0
 10
7.733787401574803
 20
-6.766070866141733
 30
0.0
 10
7.733787401574803
 20
-6.766070866141733
 30
0.0
 10
7.733787401574803
 20
-6.434751968503937
 30
0.0
 10
8.00248031496063
 20
-6.166070866141732
 30
0.0
 10
8.333803149606299
 20
-6.166070866141732
 30
0.0
  0
SPLINE
  5
BD
330
1F
100
AcDbEntity
  8
Layer 1
 62
     1
370
    70
100
AcDbSpline
210
0.0
220
0.0
230
1.0
 70
    11
 71
     3
 72
    20
 73
    16
 74
     0
 42
0.0000000001
 43
0.0000000001
 40
0.0
 40
0.0
 40
0.0
 40
0.0
 40
0.25
 40
0.25
 40
0.25
 40
0.25
 40
0.5
 40
0.5
 40
0.5
 40
0.5
 40
0.75
 40
0.75
 40
0.75
 40
0.75
 40
1.0
 40
1.0
 40
1.0
 40
1.0
 10
-0.9705354330708661
 20
-2.092346456692913
 30
0.0
 10
-0.9705354330708661
 20
-2.092346456692913
 30
0.0
 10
-0.9705354330708661
 20
-1.862346456692913
 30
0.0
 10
-0.9705354330708661
 20
-1.862346456692913
 30
0.0
 10
-0.9705354330708661
 20
-1.862346456692913
 30
0.0
 10
-0.9705354330708661
 20
-1.862346456692913
 30
0.0
 10
0.0874645669291339
 20
-1.862346456692913
 30
0.0
 10
0.0874645669291339
 20
-1.862346456692913
 30
0.0
 10
0.0874645669291339
 20
-1.862346456692913
 30
0.0
 10
0.0874645669291339
 20
-1.862346456692913
 30
0.0
 10
0.0874645669291339
 20
-2.092346456692913
 30
0.0
 10
0.0874645669291339
 20
-2.092346456692913
 30
0.0
 10
0.0874645669291339
 20
-2.092346456692913
 30
0.0
 10
0.0874645669291339
 20
-2.092346456692913
 30
0.0
 10
-0.9705354330708661
 20
-2.092346456692913
 30
0.0
 10
-0.9705354330708661
 20
-2.092346456692913
 30
0.0
  0
SPLINE
  5
BE
330
1F
100
AcDbEntity
  8
Layer 1
 62
     1
370
    70
100
AcDbSpline
210
0.0
220
0.0
230
1.0
 70
     8
 71
     3
 72
    16
 73
    12
 74
     0
 42
0.0000000001
 43
0.0000000001
 40
0.0
 40
0.0
 40
0.0
 40
0.0
 40
0.3333333333333333
 40
0.3333333333333333
 40
0.3333333333333333
 40
0.3333333333333333
 40
0.6666666666666666
 40
0.6666666666666666
 40
0.6666666666666666
 40
0.6666666666666666
 40
1.0
 40
1.0
 40
1.0
 40
1.0
 10
-0.6101338582677165
 20
-2.553937007874016
 30
0.0
 10
-0.6101338582677165
 20
-2.553937007874016
 30
0.0
 10
-1.300889763779528
 20
-2.553937007874016
 30
0.0
 10
-1.300889763779528
 20
-2.553937007874016
 30
0.0
 10
-1.300889763779528
 20
-2.553937007874016
 30
0.0
 10
-1.414385826771654
 20
-2.553937007874016
 30
0.0
 10
-1.507251968503937
 20
-2.44803937007874
 30
0.0
 10
-1.507251968503937
 20
-2.31859842519685
 30
0.0
 10
-1.507251968503937
 20
-2.31859842519685
 30
0.0
 10
-1.507251968503937
 20
-2.31859842519685
 30
0.0
 10
-1.507251968503937
 20
-1.947842519685039
 30
0.0
 10
-1.507251968503937
 20
-1.947842519685039
 30
0.0
  0
SPLINE
  5
BF
330
1F
100
AcDbEntity
  8
Layer 1
 62
     1
370
    70
100
AcDbSpline
210
0.0
220
0.0
230
1.0
 70
     8
 71
     3
 72
    12
 73
     8
 74
     0
 42
0.0000000001
 43
0.0000000001
 40
0.0
 40
0.0
 40
0.0
 40
0.0
 40
0.5
 40
0.5
 40
0.5
 40
0.5
 40
1.0
 40
1.0
 40
1.0
 40
1.0
 10
0.6186377952755906
 20
-1.947842519685039
 30
0.0
 10
0.6186377952755906
 20
-1.947842519685039
 30
0.0
 10
0.6186377952755906
 20
-2.31859842519685
 30
0.0
 10
0.6186377952755906
 20
-2.31859842519685
 30
0.0
 10
0.6186377952755906
 20
-2.31859842519685
 30
0.0
 10
0.6186377952755906
 20
-2.448031496062992
 30
0.0
 10
0.5257716535433071
 20
-2.553937007874016
 30
0.0
 10
0.4122755905511811
 20
-2.553937007874016
 30
0.0
  0
SPLINE
  5
C0
330
1F
100
AcDbEntity
  8
Layer 1
 62
     1
370
    70
100
AcDbSpline
210
0.0
220
0.0
230
1.0
 70
     8
 71
     3
 72
    16
 73
    12
 74
     0
 42
0.0000000001
 43
0.0000000001
 40
0.0
 40
0.0
 40
0.0
 40
0.0
 40
0.3333333333333333
 40
0.3333333333333333
 40
0.3333333333333333
 40
0.3333333333333333
 40
0.6666666666666666
 40
0.6666666666666666
 40
0.6666666666666666
 40
0.6666666666666666
 40
1.0
 40
1.0
 40
1.0
 40
1.0
 10
-0.6101338582677165
 20
-2.553937007874016
 30
0.0
 10
-0.6101338582677165
 20
-2.553937007874016
 30
0.0
 10
-0.6101338582677165
 20
-2.374566929133858
 30
0.0
 10
-0.6101338582677165
 20
-2.374566929133858
 30
0.0
 10
-0.6101338582677165
 20
-2.374566929133858
 30
0.0
 10
-0.6101338582677165
 20
-2.374566929133858
 30
0.0
 10
-0.2784803149606299
 20
-2.374566929133858
 30
0.0
 10
-0.2784803149606299
 20
-2.374566929133858
 30
0.0
 10
-0.2784803149606299
 20
-2.374566929133858
 30
0.0
 10
-0.2784803149606299
 20
-2.374566929133858
 30
0.0
 10
-0.2784803149606299
 20
-2.553937007874016
 30
0.0
 10
-0.2784803149606299
 20
-2.553937007874016
 30
0.0
  0
SPLINE
  5
C1
330
1F
100
AcDbEntity
  8
Layer 1
 62
     1
370
    70
100
AcDbSpline
210
0.0
220
0.0
230
1.0
 70
    24
 71
     3
 72
     8
 73
     4
 74
     0
 42
0.0000000001
 43
0.0000000001
 40
0.0
 40
0.0
 40
0.0
 40
0.0
 40
1.0
 40
1.0
 40
1.0
 40
1.0
 10
-0.2784803149606299
 20
-2.553937007874016
 30
0.0
 10
-0.0482283464566929
 20
-2.553937007874016
 30
0.0
 10
0.1820236220472441
 20
-2.553937007874016
 30
0.0
 10
0.4122755905511811
 20
-2.553937007874016
 30
0.0
  0
SPLINE
  5
C2
330
1F
100
AcDbEntity
  8
Layer 1
 62
     1
370
    70
100
AcDbSpline
210
0.0
220
0.0
230
1.0
 70
     8
 71
     3
 72
    16
 73
    12
 74
     0
 42
0.0000000001
 43
0.0000000001
 40
0.0
 40
0.0
 40
0.0
 40
0.0
 40
0.3333333333333333
 40
0.3333333333333333
 40
0.3333333333333333
 40
0.3333333333333333
 40
0.6666666666666666
 40
0.6666666666666666
 40
0.6666666666666666
 40
0.6666666666666666
 40
1.0
 40
1.0
 40
1.0
 40
1.0
 10
-0.6045905511811024
 20
-1.400755905511811
 30
0.0
 10
-0.6045905511811024
 20
-1.400755905511811
 30
0.0
 10
-1.295346456692913
 20
-1.400755905511811
 30
0.0
 10
-1.295346456692913
 20
-1.400755905511811
 30
0.0
 10
-1.295346456692913
 20
-1.400755905511811
 30
0.0
 10
-1.408842519685039
 20
-1.400755905511811
 30
0.0
 10
-1.499409448818898
 20
-1.506685039370079
 30
0.0
 10
-1.501708661417323
 20
-1.636094488188976
 30
0.0
 10
-1.501708661417323
 20
-1.636094488188976
 30
0.0
 10
-1.501708661417323
 20
-1.636094488188976
 30
0.0
 10
-1.507251968503937
 20
-1.947842519685039
 30
0.0
 10
-1.507251968503937
 20
-1.947842519685039
 30
0.0
  0
SPLINE
  5
C3
330
1F
100
AcDbEntity
  8
Layer 1
 62
     1
370
    70
100
AcDbSpline
210
0.0
220
0.0
230
1.0
 70
     8
 71
     3
 72
    12
 73
     8
 74
     0
 42
0.0000000001
 43
0.0000000001
 40
0.0
 40
0.0
 40
0.0
 40
0.0
 40
0.5
 40
0.5
 40
0.5
 40
0.5
 40
1.0
 40
1.0
 40
1.0
 40
1.0
 10
0.6186377952755906
 20
-1.947842519685039
 30
0.0
 10
0.6186377952755906
 20
-1.947842519685039
 30
0.0
 10
0.6241811023622047
 20
-1.636094488188976
 30
0.0
 10
0.6241811023622047
 20
-1.636094488188976
 30
0.0
 10
0.6241811023622047
 20
-1.636094488188976
 30
0.0
 10
0.6264724409448819
 20
-1.506685039370079
 30
0.0
 10
0.5313149606299212
 20
-1.400755905511811
 30
0.0
 10
0.4178188976377953
 20
-1.400755905511811
 30
0.0
  0
SPLINE
  5
C4
330
1F
100
AcDbEntity
  8
Layer 1
 62
     1
370
    70
100
AcDbSpline
210
0.0
220
0.0
230
1.0
 70
     8
 71
     3
 72
    16
 73
    12
 74
     0
 42
0.0000000001
 43
0.0000000001
 40
0.0
 40
0.0
 40
0.0
 40
0.0
 40
0.3333333333333333
 40
0.3333333333333333
 40
0.3333333333333333
 40
0.3333333333333333
 40
0.6666666666666666
 40
0.6666666666666666
 40
0.6666666666666666
 40
0.6666666666666666
 40
1.0
 40
1.0
 40
1.0
 40
1.0
 10
-0.6045905511811024
 20
-1.400755905511811
 30
0.0
 10
-0.6045905511811024
 20
-1.400755905511811
 30
0.0
 10
-0.6045905511811024
 20
-1.580125984251969
 30
0.0
 10
-0.6045905511811024
 20
-1.580125984251969
 30
0.0
 10
-0.6045905511811024
 20
-1.580125984251969
 30
0.0
 10
-0.6045905511811024
 20
-1.580125984251969
 30
0.0
 10
-0.2729370078740158
 20
-1.580125984251969
 30
0.0
 10
-0.2729370078740158
 20
-1.580125984251969
 30
0.0
 10
-0.2729370078740158
 20
-1.580125984251969
 30
0.0
 10
-0.2729370078740158
 20
-1.580125984251969
 30
0.0
 10
-0.2729370078740158
 20
-1.400755905511811
 30
0.0
 10
-0.2729370078740158
 20
-1.400755905511811
 30
0.0
  0
SPLINE
  5
C5
330
1F
100
AcDbEntity
  8
Layer 1
 62
     1
370
    70
100
AcDbSpline
210
0.0
220
0.0
230
1.0
 70
    24
 71
     3
 72
     8
 73
     4
 74
     0
 42
0.0000000001
 43
0.0000000001
 40
0.0
 40
0.0
 40
0.0
 40
0.0
 40
1.0
 40
1.0
 40
1.0
 40
1.0
 10
-0.2729370078740158
 20
-1.400755905511811
 30
0.0
 10
-0.0426850393700787
 20
-1.400755905511811
 30
0.0
 10
0.1875669291338583
 20
-1.400755905511811
 30
0.0
 10
0.4178188976377953
 20
-1.400755905511811
 30
0.0
  0
SPLINE
  5
C6
330
1F
100
AcDbEntity
  8
Layer 1
 62
     1
370
    70
100
AcDbSpline
210
0.0
220
0.0
230
1.0
 70
     8
 71
     3
 72
    16
 73
    12
 74
     0
 42
0.0000000001
 43
0.0000000001
 40
0.0
 40
0.0
 40
0.0
 40
0.0
 40
0.3333333333333333
 40
0.3333333333333333
 40
0.3333333333333333
 40
0.3333333333333333
 40
0.6666666666666666
 40
0.6666666666666666
 40
0.6666666666666666
 40
0.6666666666666666
 40
1.0
 40
1.0
 40
1.0
 40
1.0
 10
0.7312047244094488
 20
-0.332763779527559
 30
0.0
 10
0.7312047244094488
 20
-0.332763779527559
 30
0.0
 10
0.7312047244094488
 20
-1.02351968503937
 30
0.0
 10
0.7312047244094488
 20
-1.02351968503937
 30
0.0
 10
0.7312047244094488
 20
-1.02351968503937
 30
0.0
 10
0.7312047244094488
 20
-1.137015748031496
 30
0.0
 10
0.6253070866141732
 20
-1.22988188976378
 30
0.0
 10
0.4958661417322834
 20
-1.22988188976378
 30
0.0
 10
0.4958661417322834
 20
-1.22988188976378
 30
0.0
 10
0.4958661417322834
 20
-1.22988188976378
 30
0.0
 10
0.1251102362204724
 20
-1.22988188976378
 30
0.0
 10
0.1251102362204724
 20
-1.22988188976378
 30
0.0
  0
SPLINE
  5
C7
330
1F
100
AcDbEntity
  8
Layer 1
 62
     1
370
    70
100
AcDbSpline
210
0.0
220
0.0
230
1.0
 70
     8
 71
     3
 72
    12
 73
     8
 74
     0
 42
0.0000000001
 43
0.0000000001
 40
0.0
 40
0.0
 40
0.0
 40
0.0
 40
0.5
 40
0.5
 40
0.5
 40
0.5
 40
1.0
 40
1.0
 40
1.0
 40
1.0
 10
0.1251102362204724
 20
0.896007874015748
 30
0.0
 10
0.1251102362204724
 20
0.896007874015748
 30
0.0
 10
0.4958661417322834
 20
0.896007874015748
 30
0.0
 10
0.4958661417322834
 20
0.896007874015748
 30
0.0
 10
0.4958661417322834
 20
0.896007874015748
 30
0.0
 10
0.6252992125984252
 20
0.896007874015748
 30
0.0
 10
0.7312047244094488
 20
0.8031417322834645
 30
0.0
 10
0.7312047244094488
 20
0.6896456692913386
 30
0.0
  0
SPLINE
  5
C8
330
1F
100
AcDbEntity
  8
Layer 1
 62
     1
370
    70
100
AcDbSpline
210
0.0
220
0.0
230
1.0
 70
     8
 71
     3
 72
    16
 73
    12
 74
     0
 42
0.0000000001
 43
0.0000000001
 40
0.0
 40
0.0
 40
0.0
 40
0.0
 40
0.3333333333333333
 40
0.3333333333333333
 40
0.3333333333333333
 40
0.3333333333333333
 40
0.6666666666666666
 40
0.6666666666666666
 40
0.6666666666666666
 40
0.6666666666666666
 40
1.0
 40
1.0
 40
1.0
 40
1.0
 10
0.7312047244094488
 20
-0.332763779527559
 30
0.0
 10
0.7312047244094488
 20
-0.332763779527559
 30
0.0
 10
0.5518346456692913
 20
-0.332763779527559
 30
0.0
 10
0.5518346456692913
 20
-0.332763779527559
 30
0.0
 10
0.5518346456692913
 20
-0.332763779527559
 30
0.0
 10
0.5518346456692913
 20
-0.332763779527559
 30
0.0
 10
0.5518346456692913
 20
-0.0011102362204724
 30
0.0
 10
0.5518346456692913
 20
-0.0011102362204724
 30
0.0
 10
0.5518346456692913
 20
-0.0011102362204724
 30
0.0
 10
0.5518346456692913
 20
-0.0011102362204724
 30
0.0
 10
0.7312047244094488
 20
-0.0011102362204724
 30
0.0
 10
0.7312047244094488
 20
-0.0011102362204724
 30
0.0
  0
SPLINE
  5
C9
330
1F
100
AcDbEntity
  8
Layer 1
 62
     1
370
    70
100
AcDbSpline
210
0.0
220
0.0
230
1.0
 70
    24
 71
     3
 72
     8
 73
     4
 74
     0
 42
0.0000000001
 43
0.0000000001
 40
0.0
 40
0.0
 40
0.0
 40
0.0
 40
1.0
 40
1.0
 40
1.0
 40
1.0
 10
0.7312047244094488
 20
-0.0011102362204724
 30
0.0
 10
0.7312047244094488
 20
0.2291417322834646
 30
0.0
 10
0.7312047244094488
 20
0.4593937007874015
 30
0.0
 10
0.7312047244094488
 20
0.6896456692913386
 30
0.0
  0
SPLINE
  5
CA
330
1F
100
AcDbEntity
  8
Layer 1
 62
     1
370
    70
100
AcDbSpline
210
0.0
220
0.0
230
1.0
 70
     8
 71
     3
 72
    16
 73
    12
 74
     0
 42
0.0000000001
 43
0.0000000001
 40
0.0
 40
0.0
 40
0.0
 40
0.0
 40
0.3333333333333333
 40
0.3333333333333333
 40
0.3333333333333333
 40
0.3333333333333333
 40
0.6666666666666666
 40
0.6666666666666666
 40
0.6666666666666666
 40
0.6666666666666666
 40
1.0
 40
1.0
 40
1.0
 40
1.0
 10
-0.4809842519685039
 20
-0.332763779527559
 30
0.0
 10
-0.4809842519685039
 20
-0.332763779527559
 30
0.0
 10
-0.4809842519685039
 20
-1.02351968503937
 30
0.0
 10
-0.4809842519685039
 20
-1.02351968503937
 30
0.0
 10
-0.4809842519685039
 20
-1.02351968503937
 30
0.0
 10
-0.4809842519685039
 20
-1.137015748031496
 30
0.0
 10
-0.3750866141732284
 20
-1.22988188976378
 30
0.0
 10
-0.2456456692913386
 20
-1.22988188976378
 30
0.0
 10
-0.2456456692913386
 20
-1.22988188976378
 30
0.0
 10
-0.2456456692913386
 20
-1.22988188976378
 30
0.0
 10
0.1251102362204724
 20
-1.22988188976378
 30
0.0
 10
0.1251102362204724
 20
-1.22988188976378
 30
0.0
  0
SPLINE
  5
CB
330
1F
100
AcDbEntity
  8
Layer 1
 62
     1
370
    70
100
AcDbSpline
210
0.0
220
0.0
230
1.0
 70
     8
 71
     3
 72
    12
 73
     8
 74
     0
 42
0.0000000001
 43
0.0000000001
 40
0.0
 40
0.0
 40
0.0
 40
0.0
 40
0.5
 40
0.5
 40
0.5
 40
0.5
 40
1.0
 40
1.0
 40
1.0
 40
1.0
 10
0.1251102362204724
 20
0.896007874015748
 30
0.0
 10
0.1251102362204724
 20
0.896007874015748
 30
0.0
 10
-0.2456456692913386
 20
0.896007874015748
 30
0.0
 10
-0.2456456692913386
 20
0.896007874015748
 30
0.0
 10
-0.2456456692913386
 20
0.896007874015748
 30
0.0
 10
-0.3750787401574803
 20
0.896007874015748
 30
0.0
 10
-0.4809842519685039
 20
0.8031417322834645
 30
0.0
 10
-0.4809842519685039
 20
0.6896456692913386
 30
0.0
  0
SPLINE
  5
CC
330
1F
100
AcDbEntity
  8
Layer 1
 62
     1
370
    70
100
AcDbSpline
210
0.0
220
0.0
230
1.0
 70
     8
 71
     3
 72
    16
 73
    12
 74
     0
 42
0.0000000001
 43
0.0000000001
 40
0.0
 40
0.0
 40
0.0
 40
0.0
 40
0.3333333333333333
 40
0.3333333333333333
 40
0.3333333333333333
 40
0.3333333333333333
 40
0.6666666666666666
 40
0.6666666666666666
 40
0.6666666666666666
 40
0.6666666666666666
 40
1.0
 40
1.0
 40
1.0
 40
1.0
 10
-0.4809842519685039
 20
-0.332763779527559
 30
0.0
 10
-0.4809842519685039
 20
-0.332763779527559
 30
0.0
 10
-0.3016141732283464
 20
-0.332763779527559
 30
0.0
 10
-0.3016141732283464
 20
-0.332763779527559
 30
0.0
 10
-0.3016141732283464
 20
-0.332763779527559
 30
0.0
 10
-0.3016141732283464
 20
-0.332763779527559
 30
0.0
 10
-0.3016141732283464
 20
-0.0011102362204724
 30
0.0
 10
-0.3016141732283464
 20
-0.0011102362204724
 30
0.0
 10
-0.3016141732283464
 20
-0.0011102362204724
 30
0.0
 10
-0.3016141732283464
 20
-0.0011102362204724
 30
0.0
 10
-0.4809842519685039
 20
-0.0011102362204724
 30
0.0
 10
-0.4809842519685039
 20
-0.0011102362204724
 30
0.0
  0
SPLINE
  5
CD
330
1F
100
AcDbEntity
  8
Layer 1
 62
     1
370
    70
100
AcDbSpline
210
0.0
220
0.0
230
1.0
 70
    24
 71
     3
 72
     8
 73
     4
 74
     0
 42
0.0000000001
 43
0.0000000001
 40
0.0
 40
0.0
 40
0.0
 40
0.0
 40
1.0
 40
1.0
 40
1.0
 40
1.0
 10
-0.4809842519685039
 20
-0.0011102362204724
 30
0.0
 10
-0.4809842519685039
 20
0.2291417322834646
 30
0.0
 10
-0.4809842519685039
 20
0.4593937007874015
 30
0.0
 10
-0.4809842519685039
 20
0.6896456692913386
 30
0.0
  0
SPLINE
  5
CE
330
1F
100
AcDbEntity
  8
Layer 1
 62
     1
370
    70
100
AcDbSpline
210
0.0
220
0.0
230
1.0
 70
    11
 71
     3
 72
    20
 73
    16
 74
     0
 42
0.0000000001
 43
0.0000000001
 40
0.0
 40
0.0
 40
0.0
 40
0.0
 40
0.25
 40
0.25
 40
0.25
 40
0.25
 40
0.5
 40
0.5
 40
0.5
 40
0.5
 40
0.75
 40
0.75
 40
0.75
 40
0.75
 40
1.0
 40
1.0
 40
1.0
 40
1.0
 10
0.2401102362204725
 20
-0.6959370078740158
 30
0.0
 10
0.2401102362204725
 20
-0.6959370078740158
 30
0.0
 10
0.0101102362204724
 20
-0.6959370078740158
 30
0.0
 10
0.0101102362204724
 20
-0.6959370078740158
 30
0.0
 10
0.0101102362204724
 20
-0.6959370078740158
 30
0.0
 10
0.0101102362204724
 20
-0.6959370078740158
 30
0.0
 10
0.0101102362204724
 20
0.3620629921259843
 30
0.0
 10
0.0101102362204724
 20
0.3620629921259843
 30
0.0
 10
0.0101102362204724
 20
0.3620629921259843
 30
0.0
 10
0.0101102362204724
 20
0.3620629921259843
 30
0.0
 10
0.2401102362204725
 20
0.3620629921259843
 30
0.0
 10
0.2401102362204725
 20
0.3620629921259843
 30
0.0
 10
0.2401102362204725
 20
0.3620629921259843
 30
0.0
 10
0.2401102362204725
 20
0.3620629921259843
 30
0.0
 10
0.2401102362204725
 20
-0.6959370078740158
 30
0.0
 10
0.2401102362204725
 20
-0.6959370078740158
 30
0.0
  0
SPLINE
  5
CF
330
1F
100
AcDbEntity
  8
Layer 1
 62
     1
370
    70
100
AcDbSpline
210
0.0
220
0.0
230
1.0
 70
     8
 71
     3
 72
    12
 73
     8
 74
     0
 42
0.0000000001
 43
0.0000000001
 40
0.0
 40
0.0
 40
0.0
 40
0.0
 40
0.5
 40
0.5
 40
0.5
 40
0.5
 40
1.0
 40
1.0
 40
1.0
 40
1.0
 10
-0.4809842519685039
 20
-1.02351968503937
 30
0.0
 10
-0.4809842519685039
 20
-1.137015748031496
 30
0.0
 10
-0.5868818897637795
 20
-1.22988188976378
 30
0.0
 10
-0.7163228346456693
 20
-1.22988188976378
 30
0.0
 10
-0.7163228346456693
 20
-1.22988188976378
 30
0.0
 10
-0.7163228346456693
 20
-1.22988188976378
 30
0.0
 10
-1.08707874015748
 20
-1.22988188976378
 30
0.0
 10
-1.08707874015748
 20
-1.22988188976378
 30
0.0
  0
SPLINE
  5
D0
330
1F
100
AcDbEntity
  8
Layer 1
 62
     1
370
    70
100
AcDbSpline
210
0.0
220
0.0
230
1.0
 70
     8
 71
     3
 72
    12
 73
     8
 74
     0
 42
0.0000000001
 43
0.0000000001
 40
0.0
 40
0.0
 40
0.0
 40
0.0
 40
0.5
 40
0.5
 40
0.5
 40
0.5
 40
1.0
 40
1.0
 40
1.0
 40
1.0
 10
-1.08707874015748
 20
0.896007874015748
 30
0.0
 10
-1.08707874015748
 20
0.896007874015748
 30
0.0
 10
-0.7163228346456693
 20
0.896007874015748
 30
0.0
 10
-0.7163228346456693
 20
0.896007874015748
 30
0.0
 10
-0.7163228346456693
 20
0.896007874015748
 30
0.0
 10
-0.5868897637795275
 20
0.896007874015748
 30
0.0
 10
-0.4809842519685039
 20
0.8031417322834645
 30
0.0
 10
-0.4809842519685039
 20
0.6896456692913386
 30
0.0
  0
SPLINE
  5
D1
330
1F
100
AcDbEntity
  8
Layer 1
 62
     1
370
    70
100
AcDbSpline
210
0.0
220
0.0
230
1.0
 70
     8
 71
     3
 72
    16
 73
    12
 74
     0
 42
0.0000000001
 43
0.0000000001
 40
0.0
 40
0.0
 40
0.0
 40
0.0
 40
0.3333333333333333
 40
0.3333333333333333
 40
0.3333333333333333
 40
0.3333333333333333
 40
0.6666666666666666
 40
0.6666666666666666
 40
0.6666666666666666
 40
0.6666666666666666
 40
1.0
 40
1.0
 40
1.0
 40
1.0
 10
-0.4809842519685039
 20
-0.332763779527559
 30
0.0
 10
-0.4809842519685039
 20
-0.332763779527559
 30
0.0
 10
-0.6603543307086615
 20
-0.332763779527559
 30
0.0
 10
-0.6603543307086615
 20
-0.332763779527559
 30
0.0
 10
-0.6603543307086615
 20
-0.332763779527559
 30
0.0
 10
-0.6603543307086615
 20
-0.332763779527559
 30
0.0
 10
-0.6603543307086615
 20
-0.0011102362204724
 30
0.0
 10
-0.6603543307086615
 20
-0.0011102362204724
 30
0.0
 10
-0.6603543307086615
 20
-0.0011102362204724
 30
0.0
 10
-0.6603543307086615
 20
-0.0011102362204724
 30
0.0
 10
-0.4809842519685039
 20
-0.0011102362204724
 30
0.0
 10
-0.4809842519685039
 20
-0.0011102362204724
 30
0.0
  0
SPLINE
  5
D2
330
1F
100
AcDbEntity
  8
Layer 1
 62
     1
370
    70
100
AcDbSpline
210
0.0
220
0.0
230
1.0
 70
     8
 71
     3
 72
    16
 73
    12
 74
     0
 42
0.0000000001
 43
0.0000000001
 40
0.0
 40
0.0
 40
0.0
 40
0.0
 40
0.3333333333333333
 40
0.3333333333333333
 40
0.3333333333333333
 40
0.3333333333333333
 40
0.6666666666666666
 40
0.6666666666666666
 40
0.6666666666666666
 40
0.6666666666666666
 40
1.0
 40
1.0
 40
1.0
 40
1.0
 10
-1.693173228346457
 20
-0.332763779527559
 30
0.0
 10
-1.693173228346457
 20
-0.332763779527559
 30
0.0
 10
-1.693173228346457
 20
-1.02351968503937
 30
0.0
 10
-1.693173228346457
 20
-1.02351968503937
 30
0.0
 10
-1.693173228346457
 20
-1.02351968503937
 30
0.0
 10
-1.693173228346457
 20
-1.137015748031496
 30
0.0
 10
-1.587275590551181
 20
-1.22988188976378
 30
0.0
 10
-1.457834645669291
 20
-1.22988188976378
 30
0.0
 10
-1.457834645669291
 20
-1.22988188976378
 30
0.0
 10
-1.457834645669291
 20
-1.22988188976378
 30
0.0
 10
-1.08707874015748
 20
-1.22988188976378
 30
0.0
 10
-1.08707874015748
 20
-1.22988188976378
 30
0.0
  0
SPLINE
  5
D3
330
1F
100
AcDbEntity
  8
Layer 1
 62
     1
370
    70
100
AcDbSpline
210
0.0
220
0.0
230
1.0
 70
     8
 71
     3
 72
    12
 73
     8
 74
     0
 42
0.0000000001
 43
0.0000000001
 40
0.0
 40
0.0
 40
0.0
 40
0.0
 40
0.5
 40
0.5
 40
0.5
 40
0.5
 40
1.0
 40
1.0
 40
1.0
 40
1.0
 10
-1.08707874015748
 20
0.896007874015748
 30
0.0
 10
-1.08707874015748
 20
0.896007874015748
 30
0.0
 10
-1.457834645669291
 20
0.896007874015748
 30
0.0
 10
-1.457834645669291
 20
0.896007874015748
 30
0.0
 10
-1.457834645669291
 20
0.896007874015748
 30
0.0
 10
-1.587267716535433
 20
0.896007874015748
 30
0.0
 10
-1.693173228346457
 20
0.8031417322834645
 30
0.0
 10
-1.693173228346457
 20
0.6896456692913386
 30
0.0
  0
SPLINE
  5
D4
330
1F
100
AcDbEntity
  8
Layer 1
 62
     1
370
    70
100
AcDbSpline
210
0.0
220
0.0
230
1.0
 70
     8
 71
     3
 72
    16
 73
    12
 74
     0
 42
0.0000000001
 43
0.0000000001
 40
0.0
 40
0.0
 40
0.0
 40
0.0
 40
0.3333333333333333
 40
0.3333333333333333
 40
0.3333333333333333
 40
0.3333333333333333
 40
0.6666666666666666
 40
0.6666666666666666
 40
0.6666666666666666
 40
0.6666666666666666
 40
1.0
 40
1.0
 40
1.0
 40
1.0
 10
-1.693173228346457
 20
-0.332763779527559
 30
0.0
 10
-1.693173228346457
 20
-0.332763779527559
 30
0.0
 10
-1.513803149606299
 20
-0.332763779527559
 30
0.0
 10
-1.513803149606299
 20
-0.332763779527559
 30
0.0
 10
-1.513803149606299
 20
-0.332763779527559
 30
0.0
 10
-1.513803149606299
 20
-0.332763779527559
 30
0.0
 10
-1.513803149606299
 20
-0.0011102362204724
 30
0.0
 10
-1.513803149606299
 20
-0.0011102362204724
 30
0.0
 10
-1.513803149606299
 20
-0.0011102362204724
 30
0.0
 10
-1.513803149606299
 20
-0.0011102362204724
 30
0.0
 10
-1.693173228346457
 20
-0.0011102362204724
 30
0.0
 10
-1.693173228346457
 20
-0.0011102362204724
 30
0.0
  0
SPLINE
  5
D5
330
1F
100
AcDbEntity
  8
Layer 1
 62
     1
370
    70
100
AcDbSpline
210
0.0
220
0.0
230
1.0
 70
    24
 71
     3
 72
     8
 73
     4
 74
     0
 42
0.0000000001
 43
0.0000000001
 40
0.0
 40
0.0
 40
0.0
 40
0.0
 40
1.0
 40
1.0
 40
1.0
 40
1.0
 10
-1.693173228346457
 20
-0.0011102362204724
 30
0.0
 10
-1.693173228346457
 20
0.2291417322834646
 30
0.0
 10
-1.693173228346457
 20
0.4593937007874015
 30
0.0
 10
-1.693173228346457
 20
0.6896456692913386
 30
0.0
  0
SPLINE
  5
D6
330
1F
100
AcDbEntity
  8
Layer 1
 62
     1
370
    70
100
AcDbSpline
210
0.0
220
0.0
230
1.0
 70
    11
 71
     3
 72
    20
 73
    16
 74
     0
 42
0.0000000001
 43
0.0000000001
 40
0.0
 40
0.0
 40
0.0
 40
0.0
 40
0.25
 40
0.25
 40
0.25
 40
0.25
 40
0.5
 40
0.5
 40
0.5
 40
0.5
 40
0.75
 40
0.75
 40
0.75
 40
0.75
 40
1.0
 40
1.0
 40
1.0
 40
1.0
 10
-0.9720787401574803
 20
-0.6959370078740158
 30
0.0
 10
-0.9720787401574803
 20
-0.6959370078740158
 30
0.0
 10
-1.20207874015748
 20
-0.6959370078740158
 30
0.0
 10
-1.20207874015748
 20
-0.6959370078740158
 30
0.0
 10
-1.20207874015748
 20
-0.6959370078740158
 30
0.0
 10
-1.20207874015748
 20
-0.6959370078740158
 30
0.0
 10
-1.20207874015748
 20
0.3620629921259843
 30
0.0
 10
-1.20207874015748
 20
0.3620629921259843
 30
0.0
 10
-1.20207874015748
 20
0.3620629921259843
 30
0.0
 10
-1.20207874015748
 20
0.3620629921259843
 30
0.0
 10
-0.9720787401574803
 20
0.3620629921259843
 30
0.0
 10
-0.9720787401574803
 20
0.3620629921259843
 30
0.0
 10
-0.9720787401574803
 20
0.3620629921259843
 30
0.0
 10
-0.9720787401574803
 20
0.3620629921259843
 30
0.0
 10
-0.9720787401574803
 20
-0.6959370078740158
 30
0.0
 10
-0.9720787401574803
 20
-0.6959370078740158
 30
0.0
  0
SPLINE
  5
D7
330
1F
100
AcDbEntity
  8
Layer 1
 62
     1
370
    70
100
AcDbSpline
210
0.0
220
0.0
230
1.0
 70
     8
 71
     3
 72
    16
 73
    12
 74
     0
 42
0.0000000001
 43
0.0000000001
 40
0.0
 40
0.0
 40
0.0
 40
0.0
 40
0.3333333333333333
 40
0.3333333333333333
 40
0.3333333333333333
 40
0.3333333333333333
 40
0.6666666666666666
 40
0.6666666666666666
 40
0.6666666666666666
 40
0.6666666666666666
 40
1.0
 40
1.0
 40
1.0
 40
1.0
 10
3.637937007874016
 20
-0.2023464566929134
 30
0.0
 10
3.637937007874016
 20
-0.2023464566929134
 30
0.0
 10
3.637937007874016
 20
0.4884094488188976
 30
0.0
 10
3.637937007874016
 20
0.4884094488188976
 30
0.0
 10
3.637937007874016
 20
0.4884094488188976
 30
0.0
 10
3.637937007874016
 20
0.6019055118110236
 30
0.0
 10
3.743834645669291
 20
0.694771653543307
 30
0.0
 10
3.873275590551181
 20
0.694771653543307
 30
0.0
 10
3.873275590551181
 20
0.694771653543307
 30
0.0
 10
3.873275590551181
 20
0.694771653543307
 30
0.0
 10
4.244031496062992
 20
0.694771653543307
 30
0.0
 10
4.244031496062992
 20
0.694771653543307
 30
0.0
  0
SPLINE
  5
D8
330
1F
100
AcDbEntity
  8
Layer 1
 62
     1
370
    70
100
AcDbSpline
210
0.0
220
0.0
230
1.0
 70
     8
 71
     3
 72
    12
 73
     8
 74
     0
 42
0.0000000001
 43
0.0000000001
 40
0.0
 40
0.0
 40
0.0
 40
0.0
 40
0.5
 40
0.5
 40
0.5
 40
0.5
 40
1.0
 40
1.0
 40
1.0
 40
1.0
 10
4.244031496062992
 20
-1.43111811023622
 30
0.0
 10
4.244031496062992
 20
-1.43111811023622
 30
0.0
 10
3.873275590551181
 20
-1.43111811023622
 30
0.0
 10
3.873275590551181
 20
-1.43111811023622
 30
0.0
 10
3.873275590551181
 20
-1.43111811023622
 30
0.0
 10
3.743842519685039
 20
-1.43111811023622
 30
0.0
 10
3.637937007874016
 20
-1.338251968503937
 30
0.0
 10
3.637937007874016
 20
-1.224755905511811
 30
0.0
  0
SPLINE
  5
D9
330
1F
100
AcDbEntity
  8
Layer 1
 62
     1
370
    70
100
AcDbSpline
210
0.0
220
0.0
230
1.0
 70
     8
 71
     3
 72
    16
 73
    12
 74
     0
 42
0.0000000001
 43
0.0000000001
 40
0.0
 40
0.0
 40
0.0
 40
0.0
 40
0.3333333333333333
 40
0.3333333333333333
 40
0.3333333333333333
 40
0.3333333333333333
 40
0.6666666666666666
 40
0.6666666666666666
 40
0.6666666666666666
 40
0.6666666666666666
 40
1.0
 40
1.0
 40
1.0
 40
1.0
 10
3.637937007874016
 20
-0.2023464566929134
 30
0.0
 10
3.637937007874016
 20
-0.2023464566929134
 30
0.0
 10
3.817307086614173
 20
-0.2023464566929134
 30
0.0
 10
3.817307086614173
 20
-0.2023464566929134
 30
0.0
 10
3.817307086614173
 20
-0.2023464566929134
 30
0.0
 10
3.817307086614173
 20
-0.2023464566929134
 30
0.0
 10
3.817307086614173
 20
-0.534
 30
0.0
 10
3.817307086614173
 20
-0.534
 30
0.0
 10
3.817307086614173
 20
-0.534
 30
0.0
 10
3.817307086614173
 20
-0.534
 30
0.0
 10
3.637937007874016
 20
-0.534
 30
0.0
 10
3.637937007874016
 20
-0.534
 30
0.0
  0
SPLINE
  5
DA
330
1F
100
AcDbEntity
  8
Layer 1
 62
     1
370
    70
100
AcDbSpline
210
0.0
220
0.0
230
1.0
 70
    24
 71
     3
 72
     8
 73
     4
 74
     0
 42
0.0000000001
 43
0.0000000001
 40
0.0
 40
0.0
 40
0.0
 40
0.0
 40
1.0
 40
1.0
 40
1.0
 40
1.0
 10
3.637937007874016
 20
-0.534
 30
0.0
 10
3.637937007874016
 20
-0.7642519685039371
 30
0.0
 10
3.637937007874016
 20
-0.994503937007874
 30
0.0
 10
3.637937007874016
 20
-1.224755905511811
 30
0.0
  0
SPLINE
  5
DB
330
1F
100
AcDbEntity
  8
Layer 1
 62
     1
370
    70
100
AcDbSpline
210
0.0
220
0.0
230
1.0
 70
     8
 71
     3
 72
    12
 73
     8
 74
     0
 42
0.0000000001
 43
0.0000000001
 40
0.0
 40
0.0
 40
0.0
 40
0.0
 40
0.5
 40
0.5
 40
0.5
 40
0.5
 40
1.0
 40
1.0
 40
1.0
 40
1.0
 10
4.946007874015748
 20
0.4828661417322835
 30
0.0
 10
4.946007874015748
 20
0.5963622047244095
 30
0.0
 10
4.84007874015748
 20
0.6876929133858267
 30
0.0
 10
4.710669291338583
 20
0.689228346456693
 30
0.0
 10
4.710669291338583
 20
0.689228346456693
 30
0.0
 10
4.710669291338583
 20
0.689228346456693
 30
0.0
 10
4.244031496062992
 20
0.694771653543307
 30
0.0
 10
4.244031496062992
 20
0.694771653543307
 30
0.0
  0
SPLINE
  5
DC
330
1F
100
AcDbEntity
  8
Layer 1
 62
     1
370
    70
100
AcDbSpline
210
0.0
220
0.0
230
1.0
 70
     8
 71
     3
 72
    12
 73
     8
 74
     0
 42
0.0000000001
 43
0.0000000001
 40
0.0
 40
0.0
 40
0.0
 40
0.0
 40
0.5
 40
0.5
 40
0.5
 40
0.5
 40
1.0
 40
1.0
 40
1.0
 40
1.0
 10
4.244031496062992
 20
-1.43111811023622
 30
0.0
 10
4.244031496062992
 20
-1.43111811023622
 30
0.0
 10
4.710669291338583
 20
-1.436661417322835
 30
0.0
 10
4.710669291338583
 20
-1.436661417322835
 30
0.0
 10
4.710669291338583
 20
-1.436661417322835
 30
0.0
 10
4.840086614173228
 20
-1.438188976377953
 30
0.0
 10
4.946007874015748
 20
-1.343795275590551
 30
0.0
 10
4.946007874015748
 20
-1.230299212598425
 30
0.0
  0
SPLINE
  5
DD
330
1F
100
AcDbEntity
  8
Layer 1
 62
     1
370
    70
100
AcDbSpline
210
0.0
220
0.0
230
1.0
 70
     8
 71
     3
 72
    16
 73
    12
 74
     0
 42
0.0000000001
 43
0.0000000001
 40
0.0
 40
0.0
 40
0.0
 40
0.0
 40
0.3333333333333333
 40
0.3333333333333333
 40
0.3333333333333333
 40
0.3333333333333333
 40
0.6666666666666666
 40
0.6666666666666666
 40
0.6666666666666666
 40
0.6666666666666666
 40
1.0
 40
1.0
 40
1.0
 40
1.0
 10
4.946007874015748
 20
-0.2078897637795276
 30
0.0
 10
4.946007874015748
 20
-0.2078897637795276
 30
0.0
 10
4.766637795275591
 20
-0.2078897637795276
 30
0.0
 10
4.766637795275591
 20
-0.2078897637795276
 30
0.0
 10
4.766637795275591
 20
-0.2078897637795276
 30
0.0
 10
4.766637795275591
 20
-0.2078897637795276
 30
0.0
 10
4.766637795275591
 20
-0.5395433070866141
 30
0.0
 10
4.766637795275591
 20
-0.5395433070866141
 30
0.0
 10
4.766637795275591
 20
-0.5395433070866141
 30
0.0
 10
4.766637795275591
 20
-0.5395433070866141
 30
0.0
 10
4.946007874015748
 20
-0.5395433070866141
 30
0.0
 10
4.946007874015748
 20
-0.5395433070866141
 30
0.0
  0
SPLINE
  5
DE
330
1F
100
AcDbEntity
  8
Layer 1
 62
     1
370
    70
100
AcDbSpline
210
0.0
220
0.0
230
1.0
 70
    11
 71
     3
 72
    20
 73
    16
 74
     0
 42
0.0000000001
 43
0.0000000001
 40
0.0
 40
0.0
 40
0.0
 40
0.0
 40
0.25
 40
0.25
 40
0.25
 40
0.25
 40
0.5
 40
0.5
 40
0.5
 40
0.5
 40
0.75
 40
0.75
 40
0.75
 40
0.75
 40
1.0
 40
1.0
 40
1.0
 40
1.0
 10
4.176976377952756
 20
0.1580551181102362
 30
0.0
 10
4.176976377952756
 20
0.1580551181102362
 30
0.0
 10
4.406976377952756
 20
0.1580551181102362
 30
0.0
 10
4.406976377952756
 20
0.1580551181102362
 30
0.0
 10
4.406976377952756
 20
0.1580551181102362
 30
0.0
 10
4.406976377952756
 20
0.1580551181102362
 30
0.0
 10
4.406976377952756
 20
-0.8999448818897637
 30
0.0
 10
4.406976377952756
 20
-0.8999448818897637
 30
0.0
 10
4.406976377952756
 20
-0.8999448818897637
 30
0.0
 10
4.406976377952756
 20
-0.8999448818897637
 30
0.0
 10
4.176976377952756
 20
-0.8999448818897637
 30
0.0
 10
4.176976377952756
 20
-0.8999448818897637
 30
0.0
 10
4.176976377952756
 20
-0.8999448818897637
 30
0.0
 10
4.176976377952756
 20
-0.8999448818897637
 30
0.0
 10
4.176976377952756
 20
0.1580551181102362
 30
0.0
 10
4.176976377952756
 20
0.1580551181102362
 30
0.0
  0
SPLINE
  5
DF
330
1F
100
AcDbEntity
  8
Layer 1
 62
     1
370
    70
100
AcDbSpline
210
0.0
220
0.0
230
1.0
 70
     8
 71
     3
 72
    16
 73
    12
 74
     0
 42
0.0000000001
 43
0.0000000001
 40
0.0
 40
0.0
 40
0.0
 40
0.0
 40
0.3333333333333333
 40
0.3333333333333333
 40
0.3333333333333333
 40
0.3333333333333333
 40
0.6666666666666666
 40
0.6666666666666666
 40
0.6666666666666666
 40
0.6666666666666666
 40
1.0
 40
1.0
 40
1.0
 40
1.0
 10
4.946007874015748
 20
-0.2078897637795276
 30
0.0
 10
4.946007874015748
 20
-0.2078897637795276
 30
0.0
 10
4.946007874015748
 20
0.4828661417322835
 30
0.0
 10
4.946007874015748
 20
0.4828661417322835
 30
0.0
 10
4.946007874015748
 20
0.4828661417322835
 30
0.0
 10
4.946007874015748
 20
0.5963622047244095
 30
0.0
 10
5.051905511811023
 20
0.689228346456693
 30
0.0
 10
5.181346456692913
 20
0.689228346456693
 30
0.0
 10
5.181346456692913
 20
0.689228346456693
 30
0.0
 10
5.181346456692913
 20
0.689228346456693
 30
0.0
 10
5.552102362204725
 20
0.689228346456693
 30
0.0
 10
5.552102362204725
 20
0.689228346456693
 30
0.0
  0
SPLINE
  5
E0
330
1F
100
AcDbEntity
  8
Layer 1
 62
     1
370
    70
100
AcDbSpline
210
0.0
220
0.0
230
1.0
 70
     8
 71
     3
 72
    12
 73
     8
 74
     0
 42
0.0000000001
 43
0.0000000001
 40
0.0
 40
0.0
 40
0.0
 40
0.0
 40
0.5
 40
0.5
 40
0.5
 40
0.5
 40
1.0
 40
1.0
 40
1.0
 40
1.0
 10
5.552102362204725
 20
-1.436661417322835
 30
0.0
 10
5.552102362204725
 20
-1.436661417322835
 30
0.0
 10
5.181346456692913
 20
-1.436661417322835
 30
0.0
 10
5.181346456692913
 20
-1.436661417322835
 30
0.0
 10
5.181346456692913
 20
-1.436661417322835
 30
0.0
 10
5.051913385826771
 20
-1.436661417322835
 30
0.0
 10
4.946007874015748
 20
-1.343795275590551
 30
0.0
 10
4.946007874015748
 20
-1.230299212598425
 30
0.0
  0
SPLINE
  5
E1
330
1F
100
AcDbEntity
  8
Layer 1
 62
     1
370
    70
100
AcDbSpline
210
0.0
220
0.0
230
1.0
 70
     8
 71
     3
 72
    16
 73
    12
 74
     0
 42
0.0000000001
 43
0.0000000001
 40
0.0
 40
0.0
 40
0.0
 40
0.0
 40
0.3333333333333333
 40
0.3333333333333333
 40
0.3333333333333333
 40
0.3333333333333333
 40
0.6666666666666666
 40
0.6666666666666666
 40
0.6666666666666666
 40
0.6666666666666666
 40
1.0
 40
1.0
 40
1.0
 40
1.0
 10
4.946007874015748
 20
-0.2078897637795276
 30
0.0
 10
4.946007874015748
 20
-0.2078897637795276
 30
0.0
 10
5.125377952755906
 20
-0.2078897637795276
 30
0.0
 10
5.125377952755906
 20
-0.2078897637795276
 30
0.0
 10
5.125377952755906
 20
-0.2078897637795276
 30
0.0
 10
5.125377952755906
 20
-0.2078897637795276
 30
0.0
 10
5.125377952755906
 20
-0.5395433070866141
 30
0.0
 10
5.125377952755906
 20
-0.5395433070866141
 30
0.0
 10
5.125377952755906
 20
-0.5395433070866141
 30
0.0
 10
5.125377952755906
 20
-0.5395433070866141
 30
0.0
 10
4.946007874015748
 20
-0.5395433070866141
 30
0.0
 10
4.946007874015748
 20
-0.5395433070866141
 30
0.0
  0
SPLINE
  5
E2
330
1F
100
AcDbEntity
  8
Layer 1
 62
     1
370
    70
100
AcDbSpline
210
0.0
220
0.0
230
1.0
 70
    24
 71
     3
 72
     8
 73
     4
 74
     0
 42
0.0000000001
 43
0.0000000001
 40
0.0
 40
0.0
 40
0.0
 40
0.0
 40
1.0
 40
1.0
 40
1.0
 40
1.0
 10
4.946007874015748
 20
-0.5395433070866141
 30
0.0
 10
4.946007874015748
 20
-0.7697952755905512
 30
0.0
 10
4.946007874015748
 20
-1.000047244094488
 30
0.0
 10
4.946007874015748
 20
-1.230299212598425
 30
0.0
  0
SPLINE
  5
E3
330
1F
100
AcDbEntity
  8
Layer 1
 62
     1
370
    70
100
AcDbSpline
210
0.0
220
0.0
230
1.0
 70
     8
 71
     3
 72
    16
 73
    12
 74
     0
 42
0.0000000001
 43
0.0000000001
 40
0.0
 40
0.0
 40
0.0
 40
0.0
 40
0.3333333333333333
 40
0.3333333333333333
 40
0.3333333333333333
 40
0.3333333333333333
 40
0.6666666666666666
 40
0.6666666666666666
 40
0.6666666666666666
 40
0.6666666666666666
 40
1.0
 40
1.0
 40
1.0
 40
1.0
 10
6.25407874015748
 20
-0.2134330708661417
 30
0.0
 10
6.25407874015748
 20
-0.2134330708661417
 30
0.0
 10
6.25407874015748
 20
0.4773228346456693
 30
0.0
 10
6.25407874015748
 20
0.4773228346456693
 30
0.0
 10
6.25407874015748
 20
0.4773228346456693
 30
0.0
 10
6.25407874015748
 20
0.5908188976377953
 30
0.0
 10
6.148149606299213
 20
0.6821496062992126
 30
0.0
 10
6.018740157480315
 20
0.6836850393700787
 30
0.0
 10
6.018740157480315
 20
0.6836850393700787
 30
0.0
 10
6.018740157480315
 20
0.6836850393700787
 30
0.0
 10
5.552102362204725
 20
0.689228346456693
 30
0.0
 10
5.552102362204725
 20
0.689228346456693
 30
0.0
  0
SPLINE
  5
E4
330
1F
100
AcDbEntity
  8
Layer 1
 62
     1
370
    70
100
AcDbSpline
210
0.0
220
0.0
230
1.0
 70
     8
 71
     3
 72
    12
 73
     8
 74
     0
 42
0.0000000001
 43
0.0000000001
 40
0.0
 40
0.0
 40
0.0
 40
0.0
 40
0.5
 40
0.5
 40
0.5
 40
0.5
 40
1.0
 40
1.0
 40
1.0
 40
1.0
 10
5.552102362204725
 20
-1.436661417322835
 30
0.0
 10
5.552102362204725
 20
-1.436661417322835
 30
0.0
 10
6.018740157480315
 20
-1.442204724409449
 30
0.0
 10
6.018740157480315
 20
-1.442204724409449
 30
0.0
 10
6.018740157480315
 20
-1.442204724409449
 30
0.0
 10
6.148157480314961
 20
-1.443732283464567
 30
0.0
 10
6.25407874015748
 20
-1.349338582677165
 30
0.0
 10
6.25407874015748
 20
-1.235842519685039
 30
0.0
  0
SPLINE
  5
E5
330
1F
100
AcDbEntity
  8
Layer 1
 62
     1
370
    70
100
AcDbSpline
210
0.0
220
0.0
230
1.0
 70
     8
 71
     3
 72
    16
 73
    12
 74
     0
 42
0.0000000001
 43
0.0000000001
 40
0.0
 40
0.0
 40
0.0
 40
0.0
 40
0.3333333333333333
 40
0.3333333333333333
 40
0.3333333333333333
 40
0.3333333333333333
 40
0.6666666666666666
 40
0.6666666666666666
 40
0.6666666666666666
 40
0.6666666666666666
 40
1.0
 40
1.0
 40
1.0
 40
1.0
 10
6.25407874015748
 20
-0.2134330708661417
 30
0.0
 10
6.25407874015748
 20
-0.2134330708661417
 30
0.0
 10
6.074708661417323
 20
-0.2134330708661417
 30
0.0
 10
6.074708661417323
 20
-0.2134330708661417
 30
0.0
 10
6.074708661417323
 20
-0.2134330708661417
 30
0.0
 10
6.074708661417323
 20
-0.2134330708661417
 30
0.0
 10
6.074708661417323
 20
-0.5450866141732283
 30
0.0
 10
6.074708661417323
 20
-0.5450866141732283
 30
0.0
 10
6.074708661417323
 20
-0.5450866141732283
 30
0.0
 10
6.074708661417323
 20
-0.5450866141732283
 30
0.0
 10
6.25407874015748
 20
-0.5450866141732283
 30
0.0
 10
6.25407874015748
 20
-0.5450866141732283
 30
0.0
  0
SPLINE
  5
E6
330
1F
100
AcDbEntity
  8
Layer 1
 62
     1
370
    70
100
AcDbSpline
210
0.0
220
0.0
230
1.0
 70
    24
 71
     3
 72
     8
 73
     4
 74
     0
 42
0.0000000001
 43
0.0000000001
 40
0.0
 40
0.0
 40
0.0
 40
0.0
 40
1.0
 40
1.0
 40
1.0
 40
1.0
 10
6.25407874015748
 20
-0.5450866141732283
 30
0.0
 10
6.25407874015748
 20
-0.7753385826771654
 30
0.0
 10
6.25407874015748
 20
-1.005590551181102
 30
0.0
 10
6.25407874015748
 20
-1.235842519685039
 30
0.0
  0
SPLINE
  5
E7
330
1F
100
AcDbEntity
  8
Layer 1
 62
     1
370
    70
100
AcDbSpline
210
0.0
220
0.0
230
1.0
 70
    11
 71
     3
 72
    20
 73
    16
 74
     0
 42
0.0000000001
 43
0.0000000001
 40
0.0
 40
0.0
 40
0.0
 40
0.0
 40
0.25
 40
0.25
 40
0.25
 40
0.25
 40
0.5
 40
0.5
 40
0.5
 40
0.5
 40
0.75
 40
0.75
 40
0.75
 40
0.75
 40
1.0
 40
1.0
 40
1.0
 40
1.0
 10
5.485047244094488
 20
0.152511811023622
 30
0.0
 10
5.485047244094488
 20
0.152511811023622
 30
0.0
 10
5.715047244094488
 20
0.152511811023622
 30
0.0
 10
5.715047244094488
 20
0.152511811023622
 30
0.0
 10
5.715047244094488
 20
0.152511811023622
 30
0.0
 10
5.715047244094488
 20
0.152511811023622
 30
0.0
 10
5.715047244094488
 20
-0.905488188976378
 30
0.0
 10
5.715047244094488
 20
-0.905488188976378
 30
0.0
 10
5.715047244094488
 20
-0.905488188976378
 30
0.0
 10
5.715047244094488
 20
-0.905488188976378
 30
0.0
 10
5.485047244094488
 20
-0.905488188976378
 30
0.0
 10
5.485047244094488
 20
-0.905488188976378
 30
0.0
 10
5.485047244094488
 20
-0.905488188976378
 30
0.0
 10
5.485047244094488
 20
-0.905488188976378
 30
0.0
 10
5.485047244094488
 20
0.152511811023622
 30
0.0
 10
5.485047244094488
 20
0.152511811023622
 30
0.0
  0
SPLINE
  5
E8
330
1F
100
AcDbEntity
  8
Layer 1
 62
     1
370
    70
100
AcDbSpline
210
0.0
220
0.0
230
1.0
 70
     8
 71
     3
 72
    12
 73
     8
 74
     0
 42
0.0000000001
 43
0.0000000001
 40
0.0
 40
0.0
 40
0.0
 40
0.0
 40
0.5
 40
0.5
 40
0.5
 40
0.5
 40
1.0
 40
1.0
 40
1.0
 40
1.0
 10
-6.118889763779528
 20
-1.086503937007874
 30
0.0
 10
-6.118889763779528
 20
-1.2
 30
0.0
 10
-6.224787401574803
 20
-1.292866141732284
 30
0.0
 10
-6.354228346456693
 20
-1.292866141732284
 30
0.0
 10
-6.354228346456693
 20
-1.292866141732284
 30
0.0
 10
-6.354228346456693
 20
-1.292866141732284
 30
0.0
 10
-6.724984251968504
 20
-1.292866141732284
 30
0.0
 10
-6.724984251968504
 20
-1.292866141732284
 30
0.0
  0
SPLINE
  5
E9
330
1F
100
AcDbEntity
  8
Layer 1
 62
     1
370
    70
100
AcDbSpline
210
0.0
220
0.0
230
1.0
 70
     8
 71
     3
 72
    12
 73
     8
 74
     0
 42
0.0000000001
 43
0.0000000001
 40
0.0
 40
0.0
 40
0.0
 40
0.0
 40
0.5
 40
0.5
 40
0.5
 40
0.5
 40
1.0
 40
1.0
 40
1.0
 40
1.0
 10
-6.724984251968504
 20
0.8330236220472441
 30
0.0
 10
-6.724984251968504
 20
0.8330236220472441
 30
0.0
 10
-6.354228346456693
 20
0.8330236220472441
 30
0.0
 10
-6.354228346456693
 20
0.8330236220472441
 30
0.0
 10
-6.354228346456693
 20
0.8330236220472441
 30
0.0
 10
-6.224795275590552
 20
0.8330236220472441
 30
0.0
 10
-6.118889763779528
 20
0.7401574803149606
 30
0.0
 10
-6.118889763779528
 20
0.6266614173228346
 30
0.0
  0
SPLINE
  5
EA
330
1F
100
AcDbEntity
  8
Layer 1
 62
     1
370
    70
100
AcDbSpline
210
0.0
220
0.0
230
1.0
 70
     8
 71
     3
 72
    16
 73
    12
 74
     0
 42
0.0000000001
 43
0.0000000001
 40
0.0
 40
0.0
 40
0.0
 40
0.0
 40
0.3333333333333333
 40
0.3333333333333333
 40
0.3333333333333333
 40
0.3333333333333333
 40
0.6666666666666666
 40
0.6666666666666666
 40
0.6666666666666666
 40
0.6666666666666666
 40
1.0
 40
1.0
 40
1.0
 40
1.0
 10
-6.118889763779528
 20
-0.395748031496063
 30
0.0
 10
-6.118889763779528
 20
-0.395748031496063
 30
0.0
 10
-6.298259842519685
 20
-0.395748031496063
 30
0.0
 10
-6.298259842519685
 20
-0.395748031496063
 30
0.0
 10
-6.298259842519685
 20
-0.395748031496063
 30
0.0
 10
-6.298259842519685
 20
-0.395748031496063
 30
0.0
 10
-6.298259842519685
 20
-0.0640944881889764
 30
0.0
 10
-6.298259842519685
 20
-0.0640944881889764
 30
0.0
 10
-6.298259842519685
 20
-0.0640944881889764
 30
0.0
 10
-6.298259842519685
 20
-0.0640944881889764
 30
0.0
 10
-6.118889763779528
 20
-0.0640944881889764
 30
0.0
 10
-6.118889763779528
 20
-0.0640944881889764
 30
0.0
  0
SPLINE
  5
EB
330
1F
100
AcDbEntity
  8
Layer 1
 62
     1
370
    70
100
AcDbSpline
210
0.0
220
0.0
230
1.0
 70
     8
 71
     3
 72
    16
 73
    12
 74
     0
 42
0.0000000001
 43
0.0000000001
 40
0.0
 40
0.0
 40
0.0
 40
0.0
 40
0.3333333333333333
 40
0.3333333333333333
 40
0.3333333333333333
 40
0.3333333333333333
 40
0.6666666666666666
 40
0.6666666666666666
 40
0.6666666666666666
 40
0.6666666666666666
 40
1.0
 40
1.0
 40
1.0
 40
1.0
 10
-7.548590551181102
 20
-0.3865196850393701
 30
0.0
 10
-7.548590551181102
 20
-0.3865196850393701
 30
0.0
 10
-7.548590551181102
 20
-1.077275590551181
 30
0.0
 10
-7.548590551181102
 20
-1.077275590551181
 30
0.0
 10
-7.548590551181102
 20
-1.077275590551181
 30
0.0
 10
-7.548590551181102
 20
-1.190771653543307
 30
0.0
 10
-7.442637795275591
 20
-1.281606299212598
 30
0.0
 10
-7.313251968503937
 20
-1.283637795275591
 30
0.0
 10
-7.313251968503937
 20
-1.283637795275591
 30
0.0
 10
-7.313251968503937
 20
-1.283637795275591
 30
0.0
 10
-6.724984251968504
 20
-1.292866141732284
 30
0.0
 10
-6.724984251968504
 20
-1.292866141732284
 30
0.0
  0
SPLINE
  5
EC
330
1F
100
AcDbEntity
  8
Layer 1
 62
     1
370
    70
100
AcDbSpline
210
0.0
220
0.0
230
1.0
 70
     8
 71
     3
 72
    12
 73
     8
 74
     0
 42
0.0000000001
 43
0.0000000001
 40
0.0
 40
0.0
 40
0.0
 40
0.0
 40
0.5
 40
0.5
 40
0.5
 40
0.5
 40
1.0
 40
1.0
 40
1.0
 40
1.0
 10
-6.724984251968504
 20
0.8330236220472441
 30
0.0
 10
-6.724984251968504
 20
0.8330236220472441
 30
0.0
 10
-7.313251968503937
 20
0.842251968503937
 30
0.0
 10
-7.313251968503937
 20
0.842251968503937
 30
0.0
 10
-7.313251968503937
 20
0.842251968503937
 30
0.0
 10
-7.442661417322834
 20
0.8442755905511811
 30
0.0
 10
-7.548590551181102
 20
0.7493858267716536
 30
0.0
 10
-7.548590551181102
 20
0.6358897637795276
 30
0.0
  0
SPLINE
  5
ED
330
1F
100
AcDbEntity
  8
Layer 1
 62
     1
370
    70
100
AcDbSpline
210
0.0
220
0.0
230
1.0
 70
     8
 71
     3
 72
    16
 73
    12
 74
     0
 42
0.0000000001
 43
0.0000000001
 40
0.0
 40
0.0
 40
0.0
 40
0.0
 40
0.3333333333333333
 40
0.3333333333333333
 40
0.3333333333333333
 40
0.3333333333333333
 40
0.6666666666666666
 40
0.6666666666666666
 40
0.6666666666666666
 40
0.6666666666666666
 40
1.0
 40
1.0
 40
1.0
 40
1.0
 10
-7.548590551181102
 20
-0.3865196850393701
 30
0.0
 10
-7.548590551181102
 20
-0.3865196850393701
 30
0.0
 10
-7.369220472440944
 20
-0.3865196850393701
 30
0.0
 10
-7.369220472440944
 20
-0.3865196850393701
 30
0.0
 10
-7.369220472440944
 20
-0.3865196850393701
 30
0.0
 10
-7.369220472440944
 20
-0.3865196850393701
 30
0.0
 10
-7.369220472440944
 20
-0.0548661417322835
 30
0.0
 10
-7.369220472440944
 20
-0.0548661417322835
 30
0.0
 10
-7.369220472440944
 20
-0.0548661417322835
 30
0.0
 10
-7.369220472440944
 20
-0.0548661417322835
 30
0.0
 10
-7.548590551181102
 20
-0.0548661417322835
 30
0.0
 10
-7.548590551181102
 20
-0.0548661417322835
 30
0.0
  0
SPLINE
  5
EE
330
1F
100
AcDbEntity
  8
Layer 1
 62
     1
370
    70
100
AcDbSpline
210
0.0
220
0.0
230
1.0
 70
    24
 71
     3
 72
     8
 73
     4
 74
     0
 42
0.0000000001
 43
0.0000000001
 40
0.0
 40
0.0
 40
0.0
 40
0.0
 40
1.0
 40
1.0
 40
1.0
 40
1.0
 10
-7.548590551181102
 20
-0.0548661417322835
 30
0.0
 10
-7.548590551181102
 20
0.1753858267716535
 30
0.0
 10
-7.548590551181102
 20
0.4056377952755906
 30
0.0
 10
-7.548590551181102
 20
0.6358897637795276
 30
0.0
  0
SPLINE
  5
EF
330
1F
100
AcDbEntity
  8
Layer 1
 62
     1
370
    70
100
AcDbSpline
210
0.0
220
0.0
230
1.0
 70
    11
 71
     3
 72
    20
 73
    16
 74
     0
 42
0.0000000001
 43
0.0000000001
 40
0.0
 40
0.0
 40
0.0
 40
0.0
 40
0.25
 40
0.25
 40
0.25
 40
0.25
 40
0.5
 40
0.5
 40
0.5
 40
0.5
 40
0.75
 40
0.75
 40
0.75
 40
0.75
 40
1.0
 40
1.0
 40
1.0
 40
1.0
 10
-6.718740157480315
 20
-0.7543070866141732
 30
0.0
 10
-6.718740157480315
 20
-0.7543070866141732
 30
0.0
 10
-6.948740157480315
 20
-0.7543070866141732
 30
0.0
 10
-6.948740157480315
 20
-0.7543070866141732
 30
0.0
 10
-6.948740157480315
 20
-0.7543070866141732
 30
0.0
 10
-6.948740157480315
 20
-0.7543070866141732
 30
0.0
 10
-6.948740157480315
 20
0.3036929133858268
 30
0.0
 10
-6.948740157480315
 20
0.3036929133858268
 30
0.0
 10
-6.948740157480315
 20
0.3036929133858268
 30
0.0
 10
-6.948740157480315
 20
0.3036929133858268
 30
0.0
 10
-6.718740157480315
 20
0.3036929133858268
 30
0.0
 10
-6.718740157480315
 20
0.3036929133858268
 30
0.0
 10
-6.718740157480315
 20
0.3036929133858268
 30
0.0
 10
-6.718740157480315
 20
0.3036929133858268
 30
0.0
 10
-6.718740157480315
 20
-0.7543070866141732
 30
0.0
 10
-6.718740157480315
 20
-0.7543070866141732
 30
0.0
  0
SPLINE
  5
F0
330
1F
100
AcDbEntity
  8
Layer 1
 62
     1
370
    70
100
AcDbSpline
210
0.0
220
0.0
230
1.0
 70
     8
 71
     3
 72
    16
 73
    12
 74
     0
 42
0.0000000001
 43
0.0000000001
 40
0.0
 40
0.0
 40
0.0
 40
0.0
 40
0.3333333333333333
 40
0.3333333333333333
 40
0.3333333333333333
 40
0.3333333333333333
 40
0.6666666666666666
 40
0.6666666666666666
 40
0.6666666666666666
 40
0.6666666666666666
 40
1.0
 40
1.0
 40
1.0
 40
1.0
 10
-4.689188976377952
 20
-0.4049763779527559
 30
0.0
 10
-4.689188976377952
 20
-0.4049763779527559
 30
0.0
 10
-4.689188976377952
 20
-1.095732283464567
 30
0.0
 10
-4.689188976377952
 20
-1.095732283464567
 30
0.0
 10
-4.689188976377952
 20
-1.095732283464567
 30
0.0
 10
-4.689188976377952
 20
-1.209228346456693
 30
0.0
 10
-4.795086614173228
 20
-1.302094488188976
 30
0.0
 10
-4.924527559055118
 20
-1.302094488188976
 30
0.0
 10
-4.924527559055118
 20
-1.302094488188976
 30
0.0
 10
-4.924527559055118
 20
-1.302094488188976
 30
0.0
 10
-5.295283464566929
 20
-1.302094488188976
 30
0.0
 10
-5.295283464566929
 20
-1.302094488188976
 30
0.0
  0
SPLINE
  5
F1
330
1F
100
AcDbEntity
  8
Layer 1
 62
     1
370
    70
100
AcDbSpline
210
0.0
220
0.0
230
1.0
 70
     8
 71
     3
 72
    12
 73
     8
 74
     0
 42
0.0000000001
 43
0.0000000001
 40
0.0
 40
0.0
 40
0.0
 40
0.0
 40
0.5
 40
0.5
 40
0.5
 40
0.5
 40
1.0
 40
1.0
 40
1.0
 40
1.0
 10
-5.295283464566929
 20
0.8237952755905512
 30
0.0
 10
-5.295283464566929
 20
0.8237952755905512
 30
0.0
 10
-4.924527559055118
 20
0.8237952755905512
 30
0.0
 10
-4.924527559055118
 20
0.8237952755905512
 30
0.0
 10
-4.924527559055118
 20
0.8237952755905512
 30
0.0
 10
-4.795094488188976
 20
0.8237952755905512
 30
0.0
 10
-4.689188976377952
 20
0.7309291338582677
 30
0.0
 10
-4.689188976377952
 20
0.6174330708661417
 30
0.0
  0
SPLINE
  5
F2
330
1F
100
AcDbEntity
  8
Layer 1
 62
     1
370
    70
100
AcDbSpline
210
0.0
220
0.0
230
1.0
 70
     8
 71
     3
 72
    16
 73
    12
 74
     0
 42
0.0000000001
 43
0.0000000001
 40
0.0
 40
0.0
 40
0.0
 40
0.0
 40
0.3333333333333333
 40
0.3333333333333333
 40
0.3333333333333333
 40
0.3333333333333333
 40
0.6666666666666666
 40
0.6666666666666666
 40
0.6666666666666666
 40
0.6666666666666666
 40
1.0
 40
1.0
 40
1.0
 40
1.0
 10
-4.689188976377952
 20
-0.4049763779527559
 30
0.0
 10
-4.689188976377952
 20
-0.4049763779527559
 30
0.0
 10
-4.86855905511811
 20
-0.4049763779527559
 30
0.0
 10
-4.86855905511811
 20
-0.4049763779527559
 30
0.0
 10
-4.86855905511811
 20
-0.4049763779527559
 30
0.0
 10
-4.86855905511811
 20
-0.4049763779527559
 30
0.0
 10
-4.86855905511811
 20
-0.0733228346456693
 30
0.0
 10
-4.86855905511811
 20
-0.0733228346456693
 30
0.0
 10
-4.86855905511811
 20
-0.0733228346456693
 30
0.0
 10
-4.86855905511811
 20
-0.0733228346456693
 30
0.0
 10
-4.689188976377952
 20
-0.0733228346456693
 30
0.0
 10
-4.689188976377952
 20
-0.0733228346456693
 30
0.0
  0
SPLINE
  5
F3
330
1F
100
AcDbEntity
  8
Layer 1
 62
     1
370
    70
100
AcDbSpline
210
0.0
220
0.0
230
1.0
 70
    24
 71
     3
 72
     8
 73
     4
 74
     0
 42
0.0000000001
 43
0.0000000001
 40
0.0
 40
0.0
 40
0.0
 40
0.0
 40
1.0
 40
1.0
 40
1.0
 40
1.0
 10
-4.689188976377952
 20
-0.0733228346456693
 30
0.0
 10
-4.689188976377952
 20
0.1569291338582677
 30
0.0
 10
-4.689188976377952
 20
0.3871811023622047
 30
0.0
 10
-4.689188976377952
 20
0.6174330708661417
 30
0.0
  0
SPLINE
  5
F4
330
1F
100
AcDbEntity
  8
Layer 1
 62
     1
370
    70
100
AcDbSpline
210
0.0
220
0.0
230
1.0
 70
     8
 71
     3
 72
    16
 73
    12
 74
     0
 42
0.0000000001
 43
0.0000000001
 40
0.0
 40
0.0
 40
0.0
 40
0.0
 40
0.3333333333333333
 40
0.3333333333333333
 40
0.3333333333333333
 40
0.3333333333333333
 40
0.6666666666666666
 40
0.6666666666666666
 40
0.6666666666666666
 40
0.6666666666666666
 40
1.0
 40
1.0
 40
1.0
 40
1.0
 10
-6.118889763779528
 20
-0.395748031496063
 30
0.0
 10
-6.118889763779528
 20
-0.395748031496063
 30
0.0
 10
-6.118889763779528
 20
-1.086503937007874
 30
0.0
 10
-6.118889763779528
 20
-1.086503937007874
 30
0.0
 10
-6.118889763779528
 20
-1.086503937007874
 30
0.0
 10
-6.118889763779528
 20
-1.2
 30
0.0
 10
-6.012937007874016
 20
-1.290834645669291
 30
0.0
 10
-5.883551181102362
 20
-1.292866141732284
 30
0.0
 10
-5.883551181102362
 20
-1.292866141732284
 30
0.0
 10
-5.883551181102362
 20
-1.292866141732284
 30
0.0
 10
-5.295283464566929
 20
-1.302094488188976
 30
0.0
 10
-5.295283464566929
 20
-1.302094488188976
 30
0.0
  0
SPLINE
  5
F5
330
1F
100
AcDbEntity
  8
Layer 1
 62
     1
370
    70
100
AcDbSpline
210
0.0
220
0.0
230
1.0
 70
     8
 71
     3
 72
    12
 73
     8
 74
     0
 42
0.0000000001
 43
0.0000000001
 40
0.0
 40
0.0
 40
0.0
 40
0.0
 40
0.5
 40
0.5
 40
0.5
 40
0.5
 40
1.0
 40
1.0
 40
1.0
 40
1.0
 10
-5.295283464566929
 20
0.8237952755905512
 30
0.0
 10
-5.295283464566929
 20
0.8237952755905512
 30
0.0
 10
-5.883551181102362
 20
0.8330236220472441
 30
0.0
 10
-5.883551181102362
 20
0.8330236220472441
 30
0.0
 10
-5.883551181102362
 20
0.8330236220472441
 30
0.0
 10
-6.01296062992126
 20
0.8350472440944882
 30
0.0
 10
-6.118889763779528
 20
0.7401574803149606
 30
0.0
 10
-6.118889763779528
 20
0.6266614173228346
 30
0.0
  0
SPLINE
  5
F6
330
1F
100
AcDbEntity
  8
Layer 1
 62
     1
370
    70
100
AcDbSpline
210
0.0
220
0.0
230
1.0
 70
     8
 71
     3
 72
    16
 73
    12
 74
     0
 42
0.0000000001
 43
0.0000000001
 40
0.0
 40
0.0
 40
0.0
 40
0.0
 40
0.3333333333333333
 40
0.3333333333333333
 40
0.3333333333333333
 40
0.3333333333333333
 40
0.6666666666666666
 40
0.6666666666666666
 40
0.6666666666666666
 40
0.6666666666666666
 40
1.0
 40
1.0
 40
1.0
 40
1.0
 10
-6.118889763779528
 20
-0.395748031496063
 30
0.0
 10
-6.118889763779528
 20
-0.395748031496063
 30
0.0
 10
-5.93951968503937
 20
-0.395748031496063
 30
0.0
 10
-5.93951968503937
 20
-0.395748031496063
 30
0.0
 10
-5.93951968503937
 20
-0.395748031496063
 30
0.0
 10
-5.93951968503937
 20
-0.395748031496063
 30
0.0
 10
-5.93951968503937
 20
-0.0640944881889764
 30
0.0
 10
-5.93951968503937
 20
-0.0640944881889764
 30
0.0
 10
-5.93951968503937
 20
-0.0640944881889764
 30
0.0
 10
-5.93951968503937
 20
-0.0640944881889764
 30
0.0
 10
-6.118889763779528
 20
-0.0640944881889764
 30
0.0
 10
-6.118889763779528
 20
-0.0640944881889764
 30
0.0
  0
SPLINE
  5
F7
330
1F
100
AcDbEntity
  8
Layer 1
 62
     1
370
    70
100
AcDbSpline
210
0.0
220
0.0
230
1.0
 70
    24
 71
     3
 72
     8
 73
     4
 74
     0
 42
0.0000000001
 43
0.0000000001
 40
0.0
 40
0.0
 40
0.0
 40
0.0
 40
1.0
 40
1.0
 40
1.0
 40
1.0
 10
-6.118889763779528
 20
-0.0640944881889764
 30
0.0
 10
-6.118889763779528
 20
0.1661574803149606
 30
0.0
 10
-6.118889763779528
 20
0.3964094488188976
 30
0.0
 10
-6.118889763779528
 20
0.6266614173228346
 30
0.0
  0
SPLINE
  5
F8
330
1F
100
AcDbEntity
  8
Layer 1
 62
     1
370
    70
100
AcDbSpline
210
0.0
220
0.0
230
1.0
 70
    11
 71
     3
 72
    20
 73
    16
 74
     0
 42
0.0000000001
 43
0.0000000001
 40
0.0
 40
0.0
 40
0.0
 40
0.0
 40
0.25
 40
0.25
 40
0.25
 40
0.25
 40
0.5
 40
0.5
 40
0.5
 40
0.5
 40
0.75
 40
0.75
 40
0.75
 40
0.75
 40
1.0
 40
1.0
 40
1.0
 40
1.0
 10
-5.28903937007874
 20
-0.7635354330708661
 30
0.0
 10
-5.28903937007874
 20
-0.7635354330708661
 30
0.0
 10
-5.51903937007874
 20
-0.7635354330708661
 30
0.0
 10
-5.51903937007874
 20
-0.7635354330708661
 30
0.0
 10
-5.51903937007874
 20
-0.7635354330708661
 30
0.0
 10
-5.51903937007874
 20
-0.7635354330708661
 30
0.0
 10
-5.51903937007874
 20
0.2944645669291339
 30
0.0
 10
-5.51903937007874
 20
0.2944645669291339
 30
0.0
 10
-5.51903937007874
 20
0.2944645669291339
 30
0.0
 10
-5.51903937007874
 20
0.2944645669291339
 30
0.0
 10
-5.28903937007874
 20
0.2944645669291339
 30
0.0
 10
-5.28903937007874
 20
0.2944645669291339
 30
0.0
 10
-5.28903937007874
 20
0.2944645669291339
 30
0.0
 10
-5.28903937007874
 20
0.2944645669291339
 30
0.0
 10
-5.28903937007874
 20
-0.7635354330708661
 30
0.0
 10
-5.28903937007874
 20
-0.7635354330708661
 30
0.0
  0
SPLINE
  5
F9
330
1F
100
AcDbEntity
  8
Layer 1
 62
     1
370
    70
100
AcDbSpline
210
0.0
220
0.0
230
1.0
 70
    11
 71
     3
 72
    20
 73
    16
 74
     0
 42
0.0000000001
 43
0.0000000001
 40
0.0
 40
0.0
 40
0.0
 40
0.0
 40
0.25
 40
0.25
 40
0.25
 40
0.25
 40
0.5
 40
0.5
 40
0.5
 40
0.5
 40
0.75
 40
0.75
 40
0.75
 40
0.75
 40
1.0
 40
1.0
 40
1.0
 40
1.0
 10
-6.718196850393701
 20
-2.100811023622047
 30
0.0
 10
-6.718196850393701
 20
-2.100811023622047
 30
0.0
 10
-6.718196850393701
 20
-1.870811023622047
 30
0.0
 10
-6.718196850393701
 20
-1.870811023622047
 30
0.0
 10
-6.718196850393701
 20
-1.870811023622047
 30
0.0
 10
-6.718196850393701
 20
-1.870811023622047
 30
0.0
 10
-5.6601968503937
 20
-1.870811023622047
 30
0.0
 10
-5.6601968503937
 20
-1.870811023622047
 30
0.0
 10
-5.6601968503937
 20
-1.870811023622047
 30
0.0
 10
-5.6601968503937
 20
-1.870811023622047
 30
0.0
 10
-5.6601968503937
 20
-2.100811023622047
 30
0.0
 10
-5.6601968503937
 20
-2.100811023622047
 30
0.0
 10
-5.6601968503937
 20
-2.100811023622047
 30
0.0
 10
-5.6601968503937
 20
-2.100811023622047
 30
0.0
 10
-6.718196850393701
 20
-2.100811023622047
 30
0.0
 10
-6.718196850393701
 20
-2.100811023622047
 30
0.0
  0
SPLINE
  5
FA
330
1F
100
AcDbEntity
  8
Layer 1
 62
     1
370
    70
100
AcDbSpline
210
0.0
220
0.0
230
1.0
 70
     8
 71
     3
 72
    16
 73
    12
 74
     0
 42
0.0000000001
 43
0.0000000001
 40
0.0
 40
0.0
 40
0.0
 40
0.0
 40
0.3333333333333333
 40
0.3333333333333333
 40
0.3333333333333333
 40
0.3333333333333333
 40
0.6666666666666666
 40
0.6666666666666666
 40
0.6666666666666666
 40
0.6666666666666666
 40
1.0
 40
1.0
 40
1.0
 40
1.0
 10
-6.357795275590552
 20
-2.562401574803149
 30
0.0
 10
-6.357795275590552
 20
-2.562401574803149
 30
0.0
 10
-7.048551181102362
 20
-2.562401574803149
 30
0.0
 10
-7.048551181102362
 20
-2.562401574803149
 30
0.0
 10
-7.048551181102362
 20
-2.562401574803149
 30
0.0
 10
-7.162047244094488
 20
-2.562401574803149
 30
0.0
 10
-7.254913385826772
 20
-2.456503937007874
 30
0.0
 10
-7.254913385826772
 20
-2.327062992125984
 30
0.0
 10
-7.254913385826772
 20
-2.327062992125984
 30
0.0
 10
-7.254913385826772
 20
-2.327062992125984
 30
0.0
 10
-7.254913385826772
 20
-1.956307086614173
 30
0.0
 10
-7.254913385826772
 20
-1.956307086614173
 30
0.0
  0
SPLINE
  5
FB
330
1F
100
AcDbEntity
  8
Layer 1
 62
     1
370
    70
100
AcDbSpline
210
0.0
220
0.0
230
1.0
 70
     8
 71
     3
 72
    12
 73
     8
 74
     0
 42
0.0000000001
 43
0.0000000001
 40
0.0
 40
0.0
 40
0.0
 40
0.0
 40
0.5
 40
0.5
 40
0.5
 40
0.5
 40
1.0
 40
1.0
 40
1.0
 40
1.0
 10
-5.129023622047244
 20
-1.956307086614173
 30
0.0
 10
-5.129023622047244
 20
-1.956307086614173
 30
0.0
 10
-5.129023622047244
 20
-2.327062992125984
 30
0.0
 10
-5.129023622047244
 20
-2.327062992125984
 30
0.0
 10
-5.129023622047244
 20
-2.327062992125984
 30
0.0
 10
-5.129023622047244
 20
-2.456496062992126
 30
0.0
 10
-5.221889763779528
 20
-2.562401574803149
 30
0.0
 10
-5.335385826771653
 20
-2.562401574803149
 30
0.0
  0
SPLINE
  5
FC
330
1F
100
AcDbEntity
  8
Layer 1
 62
     1
370
    70
100
AcDbSpline
210
0.0
220
0.0
230
1.0
 70
     8
 71
     3
 72
    16
 73
    12
 74
     0
 42
0.0000000001
 43
0.0000000001
 40
0.0
 40
0.0
 40
0.0
 40
0.0
 40
0.3333333333333333
 40
0.3333333333333333
 40
0.3333333333333333
 40
0.3333333333333333
 40
0.6666666666666666
 40
0.6666666666666666
 40
0.6666666666666666
 40
0.6666666666666666
 40
1.0
 40
1.0
 40
1.0
 40
1.0
 10
-6.357795275590552
 20
-2.562401574803149
 30
0.0
 10
-6.357795275590552
 20
-2.562401574803149
 30
0.0
 10
-6.357795275590552
 20
-2.383031496062992
 30
0.0
 10
-6.357795275590552
 20
-2.383031496062992
 30
0.0
 10
-6.357795275590552
 20
-2.383031496062992
 30
0.0
 10
-6.357795275590552
 20
-2.383031496062992
 30
0.0
 10
-6.026141732283465
 20
-2.383031496062992
 30
0.0
 10
-6.026141732283465
 20
-2.383031496062992
 30
0.0
 10
-6.026141732283465
 20
-2.383031496062992
 30
0.0
 10
-6.026141732283465
 20
-2.383031496062992
 30
0.0
 10
-6.026141732283465
 20
-2.562401574803149
 30
0.0
 10
-6.026141732283465
 20
-2.562401574803149
 30
0.0
  0
SPLINE
  5
FD
330
1F
100
AcDbEntity
  8
Layer 1
 62
     1
370
    70
100
AcDbSpline
210
0.0
220
0.0
230
1.0
 70
    24
 71
     3
 72
     8
 73
     4
 74
     0
 42
0.0000000001
 43
0.0000000001
 40
0.0
 40
0.0
 40
0.0
 40
0.0
 40
1.0
 40
1.0
 40
1.0
 40
1.0
 10
-6.026141732283465
 20
-2.562401574803149
 30
0.0
 10
-5.795889763779527
 20
-2.562401574803149
 30
0.0
 10
-5.565637795275591
 20
-2.562401574803149
 30
0.0
 10
-5.335385826771653
 20
-2.562401574803149
 30
0.0
  0
SPLINE
  5
FE
330
1F
100
AcDbEntity
  8
Layer 1
 62
     1
370
    70
100
AcDbSpline
210
0.0
220
0.0
230
1.0
 70
     8
 71
     3
 72
    16
 73
    12
 74
     0
 42
0.0000000001
 43
0.0000000001
 40
0.0
 40
0.0
 40
0.0
 40
0.0
 40
0.3333333333333333
 40
0.3333333333333333
 40
0.3333333333333333
 40
0.3333333333333333
 40
0.6666666666666666
 40
0.6666666666666666
 40
0.6666666666666666
 40
0.6666666666666666
 40
1.0
 40
1.0
 40
1.0
 40
1.0
 10
-6.352251968503937
 20
-1.409220472440945
 30
0.0
 10
-6.352251968503937
 20
-1.409220472440945
 30
0.0
 10
-7.043007874015748
 20
-1.409220472440945
 30
0.0
 10
-7.043007874015748
 20
-1.409220472440945
 30
0.0
 10
-7.043007874015748
 20
-1.409220472440945
 30
0.0
 10
-7.156503937007874
 20
-1.409220472440945
 30
0.0
 10
-7.247070866141732
 20
-1.515149606299213
 30
0.0
 10
-7.249370078740157
 20
-1.64455905511811
 30
0.0
 10
-7.249370078740157
 20
-1.64455905511811
 30
0.0
 10
-7.249370078740157
 20
-1.64455905511811
 30
0.0
 10
-7.254913385826772
 20
-1.956307086614173
 30
0.0
 10
-7.254913385826772
 20
-1.956307086614173
 30
0.0
  0
SPLINE
  5
FF
330
1F
100
AcDbEntity
  8
Layer 1
 62
     1
370
    70
100
AcDbSpline
210
0.0
220
0.0
230
1.0
 70
     8
 71
     3
 72
    12
 73
     8
 74
     0
 42
0.0000000001
 43
0.0000000001
 40
0.0
 40
0.0
 40
0.0
 40
0.0
 40
0.5
 40
0.5
 40
0.5
 40
0.5
 40
1.0
 40
1.0
 40
1.0
 40
1.0
 10
-5.129023622047244
 20
-1.956307086614173
 30
0.0
 10
-5.129023622047244
 20
-1.956307086614173
 30
0.0
 10
-5.12348031496063
 20
-1.64455905511811
 30
0.0
 10
-5.12348031496063
 20
-1.64455905511811
 30
0.0
 10
-5.12348031496063
 20
-1.64455905511811
 30
0.0
 10
-5.121188976377953
 20
-1.515149606299213
 30
0.0
 10
-5.216346456692913
 20
-1.409220472440945
 30
0.0
 10
-5.329842519685039
 20
-1.409220472440945
 30
0.0
  0
SPLINE
  5
100
330
1F
100
AcDbEntity
  8
Layer 1
 62
     1
370
    70
100
AcDbSpline
210
0.0
220
0.0
230
1.0
 70
     8
 71
     3
 72
    16
 73
    12
 74
     0
 42
0.0000000001
 43
0.0000000001
 40
0.0
 40
0.0
 40
0.0
 40
0.0
 40
0.3333333333333333
 40
0.3333333333333333
 40
0.3333333333333333
 40
0.3333333333333333
 40
0.6666666666666666
 40
0.6666666666666666
 40
0.6666666666666666
 40
0.6666666666666666
 40
1.0
 40
1.0
 40
1.0
 40
1.0
 10
-6.352251968503937
 20
-1.409220472440945
 30
0.0
 10
-6.352251968503937
 20
-1.409220472440945
 30
0.0
 10
-6.352251968503937
 20
-1.588590551181102
 30
0.0
 10
-6.352251968503937
 20
-1.588590551181102
 30
0.0
 10
-6.352251968503937
 20
-1.588590551181102
 30
0.0
 10
-6.352251968503937
 20
-1.588590551181102
 30
0.0
 10
-6.020598425196851
 20
-1.588590551181102
 30
0.0
 10
-6.020598425196851
 20
-1.588590551181102
 30
0.0
 10
-6.020598425196851
 20
-1.588590551181102
 30
0.0
 10
-6.020598425196851
 20
-1.588590551181102
 30
0.0
 10
-6.020598425196851
 20
-1.409220472440945
 30
0.0
 10
-6.020598425196851
 20
-1.409220472440945
 30
0.0
  0
SPLINE
  5
101
330
1F
100
AcDbEntity
  8
Layer 1
 62
     1
370
    70
100
AcDbSpline
210
0.0
220
0.0
230
1.0
 70
    24
 71
     3
 72
     8
 73
     4
 74
     0
 42
0.0000000001
 43
0.0000000001
 40
0.0
 40
0.0
 40
0.0
 40
0.0
 40
1.0
 40
1.0
 40
1.0
 40
1.0
 10
-6.020598425196851
 20
-1.409220472440945
 30
0.0
 10
-5.790346456692913
 20
-1.409220472440945
 30
0.0
 10
-5.560094488188977
 20
-1.409220472440945
 30
0.0
 10
-5.329842519685039
 20
-1.409220472440945
 30
0.0
  0
SPLINE
  5
102
330
1F
100
AcDbEntity
  8
Layer 1
 62
     1
370
    70
100
AcDbSpline
210
0.0
220
0.0
230
1.0
 70
    11
 71
     3
 72
    36
 73
    32
 74
     0
 42
0.0000000001
 43
0.0000000001
 40
0.0
 40
0.0
 40
0.0
 40
0.0
 40
0.125
 40
0.125
 40
0.125
 40
0.125
 40
0.25
 40
0.25
 40
0.25
 40
0.25
 40
0.375
 40
0.375
 40
0.375
 40
0.375
 40
0.5
 40
0.5
 40
0.5
 40
0.5
 40
0.625
 40
0.625
 40
0.625
 40
0.625
 40
0.75
 40
0.75
 40
0.75
 40
0.75
 40
0.875
 40
0.875
 40
0.875
 40
0.875
 40
1.0
 40
1.0
 40
1.0
 40
1.0
 10
-6.975094488188977
 20
-8.333897637795275
 30
0.0
 10
-6.975094488188977
 20
-8.333897637795275
 30
0.0
 10
-6.975094488188977
 20
-7.58951968503937
 30
0.0
 10
-6.975094488188977
 20
-7.58951968503937
 30
0.0
 10
-6.975094488188977
 20
-7.58951968503937
 30
0.0
 10
-6.975094488188977
 20
-7.43548031496063
 30
0.0
 10
-6.827897637795275
 20
-7.309456692913386
 30
0.0
 10
-6.647976377952756
 20
-7.309456692913386
 30
0.0
 10
-6.647976377952756
 20
-7.309456692913386
 30
0.0
 10
-6.647976377952756
 20
-7.309456692913386
 30
0.0
 10
-5.750826771653544
 20
-7.309456692913386
 30
0.0
 10
-5.750826771653544
 20
-7.309456692913386
 30
0.0
 10
-5.750826771653544
 20
-7.309456692913386
 30
0.0
 10
-5.570905511811024
 20
-7.309456692913386
 30
0.0
 10
-5.423708661417323
 20
-7.43548031496063
 30
0.0
 10
-5.423708661417323
 20
-7.58951968503937
 30
0.0
 10
-5.423708661417323
 20
-7.58951968503937
 30
0.0
 10
-5.423708661417323
 20
-7.58951968503937
 30
0.0
 10
-5.423708661417323
 20
-8.333897637795275
 30
0.0
 10
-5.423708661417323
 20
-8.333897637795275
 30
0.0
 10
-5.423708661417323
 20
-8.333897637795275
 30
0.0
 10
-5.423708661417323
 20
-8.487937007874017
 30
0.0
 10
-5.570905511811024
 20
-8.61396062992126
 30
0.0
 10
-5.750826771653544
 20
-8.61396062992126
 30
0.0
 10
-5.750826771653544
 20
-8.61396062992126
 30
0.0
 10
-5.750826771653544
 20
-8.61396062992126
 30
0.0
 10
-6.647976377952756
 20
-8.61396062992126
 30
0.0
 10
-6.647976377952756
 20
-8.61396062992126
 30
0.0
 10
-6.647976377952756
 20
-8.61396062992126
 30
0.0
 10
-6.827897637795275
 20
-8.61396062992126
 30
0.0
 10
-6.975094488188977
 20
-8.487937007874017
 30
0.0
 10
-6.975094488188977
 20
-8.333897637795275
 30
0.0
  0
SPLINE
  5
103
330
1F
100
AcDbEntity
  8
Layer 1
 62
     1
370
    70
100
AcDbSpline
210
0.0
220
0.0
230
1.0
 70
    24
 71
     3
 72
     8
 73
     4
 74
     0
 42
0.0000000001
 43
0.0000000001
 40
0.0
 40
0.0
 40
0.0
 40
0.0
 40
1.0
 40
1.0
 40
1.0
 40
1.0
 10
-5.626275590551181
 20
-8.363377952755906
 30
0.0
 10
-5.626275590551181
 20
-8.363377952755906
 30
0.0
 10
-6.702307086614173
 20
-8.363377952755906
 30
0.0
 10
-6.702307086614173
 20
-8.363377952755906
 30
0.0
  0
SPLINE
  5
104
330
1F
100
AcDbEntity
  8
Layer 1
 62
     1
370
    70
100
AcDbSpline
210
0.0
220
0.0
230
1.0
 70
    24
 71
     3
 72
     8
 73
     4
 74
     0
 42
0.0000000001
 43
0.0000000001
 40
0.0
 40
0.0
 40
0.0
 40
0.0
 40
1.0
 40
1.0
 40
1.0
 40
1.0
 10
-5.626275590551181
 20
-8.105425196850394
 30
0.0
 10
-5.626275590551181
 20
-8.105425196850394
 30
0.0
 10
-6.702307086614173
 20
-8.105425196850394
 30
0.0
 10
-6.702307086614173
 20
-8.105425196850394
 30
0.0
  0
SPLINE
  5
105
330
1F
100
AcDbEntity
  8
Layer 1
 62
     1
370
    70
100
AcDbSpline
210
0.0
220
0.0
230
1.0
 70
    24
 71
     3
 72
     8
 73
     4
 74
     0
 42
0.0000000001
 43
0.0000000001
 40
0.0
 40
0.0
 40
0.0
 40
0.0
 40
1.0
 40
1.0
 40
1.0
 40
1.0
 10
-5.622590551181102
 20
-7.829047244094488
 30
0.0
 10
-5.622590551181102
 20
-7.829047244094488
 30
0.0
 10
-6.698622047244094
 20
-7.829047244094488
 30
0.0
 10
-6.698622047244094
 20
-7.829047244094488
 30
0.0
  0
SPLINE
  5
106
330
1F
100
AcDbEntity
  8
Layer 1
 62
     1
370
    70
100
AcDbSpline
210
0.0
220
0.0
230
1.0
 70
    24
 71
     3
 72
     8
 73
     4
 74
     0
 42
0.0000000001
 43
0.0000000001
 40
0.0
 40
0.0
 40
0.0
 40
0.0
 40
1.0
 40
1.0
 40
1.0
 40
1.0
 10
-5.62996062992126
 20
-7.548984251968504
 30
0.0
 10
-5.62996062992126
 20
-7.548984251968504
 30
0.0
 10
-6.705992125984252
 20
-7.548984251968504
 30
0.0
 10
-6.705992125984252
 20
-7.548984251968504
 30
0.0
  0
SPLINE
  5
107
330
1F
100
AcDbEntity
  8
Layer 1
 62
     1
370
    70
100
AcDbSpline
210
0.0
220
0.0
230
1.0
 70
    11
 71
     3
 72
    20
 73
    16
 74
     0
 42
0.0000000001
 43
0.0000000001
 40
0.0
 40
0.0
 40
0.0
 40
0.0
 40
0.25
 40
0.25
 40
0.25
 40
0.25
 40
0.5
 40
0.5
 40
0.5
 40
0.5
 40
0.75
 40
0.75
 40
0.75
 40
0.75
 40
1.0
 40
1.0
 40
1.0
 40
1.0
 10
7.555417322834646
 20
-2.874417322834645
 30
0.0
 10
9.032535433070866
 20
-2.874417322834645
 30
0.0
 10
10.23041732283465
 20
-4.072307086614173
 30
0.0
 10
10.23041732283465
 20
-5.549417322834645
 30
0.0
 10
10.23041732283465
 20
-5.549417322834645
 30
0.0
 10
10.23041732283465
 20
-7.026535433070866
 30
0.0
 10
9.032535433070866
 20
-8.224417322834645
 30
0.0
 10
7.555417322834646
 20
-8.224417322834645
 30
0.0
 10
7.555417322834646
 20
-8.224417322834645
 30
0.0
 10
6.078291338582678
 20
-8.224417322834645
 30
0.0
 10
4.880417322834646
 20
-7.026535433070866
 30
0.0
 10
4.880417322834646
 20
-5.549417322834645
 30
0.0
 10
4.880417322834646
 20
-5.549417322834645
 30
0.0
 10
4.880417322834646
 20
-4.072307086614173
 30
0.0
 10
6.078291338582678
 20
-2.874417322834645
 30
0.0
 10
7.555417322834646
 20
-2.874417322834645
 30
0.0
  0
SPLINE
  5
108
330
1F
100
AcDbEntity
  8
Layer 1
 62
     1
370
    70
100
AcDbSpline
210
0.0
220
0.0
230
1.0
 70
    11
 71
     3
 72
    20
 73
    16
 74
     0
 42
0.0000000001
 43
0.0000000001
 40
0.0
 40
0.0
 40
0.0
 40
0.0
 40
0.25
 40
0.25
 40
0.25
 40
0.25
 40
0.5
 40
0.5
 40
0.5
 40
0.5
 40
0.75
 40
0.75
 40
0.75
 40
0.75
 40
1.0
 40
1.0
 40
1.0
 40
1.0
 10
7.555425196850393
 20
-3.449417322834646
 30
0.0
 10
8.715031496062991
 20
-3.449417322834646
 30
0.0
 10
9.655417322834646
 20
-4.389818897637795
 30
0.0
 10
9.655417322834646
 20
-5.549417322834645
 30
0.0
 10
9.655417322834646
 20
-5.549417322834645
 30
0.0
 10
9.655417322834646
 20
-6.709023622047244
 30
0.0
 10
8.715031496062991
 20
-7.649417322834646
 30
0.0
 10
7.555425196850393
 20
-7.649417322834646
 30
0.0
 10
7.555425196850393
 20
-7.649417322834646
 30
0.0
 10
6.395811023622048
 20
-7.649417322834646
 30
0.0
 10
5.455417322834646
 20
-6.709023622047244
 30
0.0
 10
5.455417322834646
 20
-5.549417322834645
 30
0.0
 10
5.455417322834646
 20
-5.549417322834645
 30
0.0
 10
5.455417322834646
 20
-4.389818897637795
 30
0.0
 10
6.395811023622048
 20
-3.449417322834646
 30
0.0
 10
7.555425196850393
 20
-3.449417322834646
 30
0.0
  0
SPLINE
  5
109
330
1F
100
AcDbEntity
  8
Layer 1
 62
     1
370
    70
100
AcDbSpline
210
0.0
220
0.0
230
1.0
 70
    11
 71
     3
 72
    20
 73
    16
 74
     0
 42
0.0000000001
 43
0.0000000001
 40
0.0
 40
0.0
 40
0.0
 40
0.0
 40
0.25
 40
0.25
 40
0.25
 40
0.25
 40
0.5
 40
0.5
 40
0.5
 40
0.5
 40
0.75
 40
0.75
 40
0.75
 40
0.75
 40
1.0
 40
1.0
 40
1.0
 40
1.0
 10
4.926748031496063
 20
1.827850393700788
 30
0.0
 10
6.384535433070866
 20
1.827850393700788
 30
0.0
 10
7.566748031496063
 20
0.6456299212598425
 30
0.0
 10
7.566748031496063
 20
-0.8121496062992126
 30
0.0
 10
7.566748031496063
 20
-0.8121496062992126
 30
0.0
 10
7.566748031496063
 20
-2.269937007874016
 30
0.0
 10
6.384535433070866
 20
-3.452149606299213
 30
0.0
 10
4.926748031496063
 20
-3.452149606299213
 30
0.0
 10
4.926748031496063
 20
-3.452149606299213
 30
0.0
 10
3.468952755905512
 20
-3.452149606299213
 30
0.0
 10
2.286748031496063
 20
-2.269937007874016
 30
0.0
 10
2.286748031496063
 20
-0.8121496062992126
 30
0.0
 10
2.286748031496063
 20
-0.8121496062992126
 30
0.0
 10
2.286748031496063
 20
0.6456299212598425
 30
0.0
 10
3.468952755905512
 20
1.827850393700788
 30
0.0
 10
4.926748031496063
 20
1.827850393700788
 30
0.0
  0
SPLINE
  5
10A
330
1F
100
AcDbEntity
  8
Layer 1
 62
     1
370
    70
100
AcDbSpline
210
0.0
220
0.0
230
1.0
 70
    11
 71
     3
 72
    20
 73
    16
 74
     0
 42
0.0000000001
 43
0.0000000001
 40
0.0
 40
0.0
 40
0.0
 40
0.0
 40
0.25
 40
0.25
 40
0.25
 40
0.25
 40
0.5
 40
0.5
 40
0.5
 40
0.5
 40
0.75
 40
0.75
 40
0.75
 40
0.75
 40
1.0
 40
1.0
 40
1.0
 40
1.0
 10
4.926748031496063
 20
1.337850393700788
 30
0.0
 10
6.113968503937008
 20
1.337850393700788
 30
0.0
 10
7.076748031496063
 20
0.3750629921259843
 30
0.0
 10
7.076748031496063
 20
-0.8121496062992126
 30
0.0
 10
7.076748031496063
 20
-0.8121496062992126
 30
0.0
 10
7.076748031496063
 20
-1.999370078740157
 30
0.0
 10
6.113968503937008
 20
-2.962149606299213
 30
0.0
 10
4.926748031496063
 20
-2.962149606299213
 30
0.0
 10
4.926748031496063
 20
-2.962149606299213
 30
0.0
 10
3.73951968503937
 20
-2.962149606299213
 30
0.0
 10
2.776748031496063
 20
-1.999370078740157
 30
0.0
 10
2.776748031496063
 20
-0.8121496062992126
 30
0.0
 10
2.776748031496063
 20
-0.8121496062992126
 30
0.0
 10
2.776748031496063
 20
0.3750629921259843
 30
0.0
 10
3.73951968503937
 20
1.337850393700788
 30
0.0
 10
4.926748031496063
 20
1.337850393700788
 30
0.0
  0
SPLINE
  5
10B
330
1F
100
AcDbEntity
  8
Layer 1
 62
     1
370
    70
100
AcDbSpline
210
0.0
220
0.0
230
1.0
 70
    11
 71
     3
 72
    20
 73
    16
 74
     0
 42
0.0000000001
 43
0.0000000001
 40
0.0
 40
0.0
 40
0.0
 40
0.0
 40
0.25
 40
0.25
 40
0.25
 40
0.25
 40
0.5
 40
0.5
 40
0.5
 40
0.5
 40
0.75
 40
0.75
 40
0.75
 40
0.75
 40
1.0
 40
1.0
 40
1.0
 40
1.0
 10
-11.73458267716535
 20
-5.454417322834646
 30
0.0
 10
-11.73458267716535
 20
-3.924842519685039
 30
0.0
 10
-10.49414960629921
 20
-2.684417322834646
 30
0.0
 10
-8.964582677165355
 20
-2.684417322834646
 30
0.0
 10
-8.964582677165355
 20
-2.684417322834646
 30
0.0
 10
-7.435007874015748
 20
-2.684417322834646
 30
0.0
 10
-6.194582677165354
 20
-3.924842519685039
 30
0.0
 10
-6.194582677165354
 20
-5.454417322834646
 30
0.0
 10
-6.194582677165354
 20
-5.454417322834646
 30
0.0
 10
-6.194582677165354
 20
-6.984
 30
0.0
 10
-7.435007874015748
 20
-8.224417322834645
 30
0.0
 10
-8.964582677165355
 20
-8.224417322834645
 30
0.0
 10
-8.964582677165355
 20
-8.224417322834645
 30
0.0
 10
-10.49414960629921
 20
-8.224417322834645
 30
0.0
 10
-11.73458267716535
 20
-6.984
 30
0.0
 10
-11.73458267716535
 20
-5.454417322834646
 30
0.0
  0
SPLINE
  5
10C
330
1F
100
AcDbEntity
  8
Layer 1
 62
     1
370
    70
100
AcDbSpline
210
0.0
220
0.0
230
1.0
 70
     8
 71
     3
 72
    12
 73
     8
 74
     0
 42
0.0000000001
 43
0.0000000001
 40
0.0
 40
0.0
 40
0.0
 40
0.0
 40
0.5
 40
0.5
 40
0.5
 40
0.5
 40
1.0
 40
1.0
 40
1.0
 40
1.0
 10
-8.488606299212599
 20
-7.253716535433071
 30
0.0
 10
-8.650905511811024
 20
-7.299842519685039
 30
0.0
 10
-8.821417322834646
 20
-7.324425196850394
 30
0.0
 10
-8.998149606299213
 20
-7.324425196850394
 30
0.0
 10
-8.998149606299213
 20
-7.324425196850394
 30
0.0
 10
-9.861338582677165
 20
-7.324425196850394
 30
0.0
 10
-10.58579527559055
 20
-6.747826771653544
 30
0.0
 10
-10.8010157480315
 20
-5.952629921259843
 30
0.0
  0
SPLINE
  5
10D
330
1F
100
AcDbEntity
  8
Layer 1
 62
     1
370
    70
100
AcDbSpline
210
0.0
220
0.0
230
1.0
 70
     8
 71
     3
 72
    12
 73
     8
 74
     0
 42
0.0000000001
 43
0.0000000001
 40
0.0
 40
0.0
 40
0.0
 40
0.0
 40
0.5
 40
0.5
 40
0.5
 40
0.5
 40
1.0
 40
1.0
 40
1.0
 40
1.0
 10
-10.80036220472441
 20
-4.953811023622047
 30
0.0
 10
-10.58122834645669
 20
-4.164559055118111
 30
0.0
 10
-9.85711811023622
 20
-3.584417322834646
 30
0.0
 10
-8.998149606299213
 20
-3.584417322834646
 30
0.0
 10
-8.998149606299213
 20
-3.584417322834646
 30
0.0
 10
-8.816551181102362
 20
-3.584417322834646
 30
0.0
 10
-8.641244094488188
 20
-3.611275590551181
 30
0.0
 10
-8.474952755905512
 20
-3.658629921259843
 30
0.0
  0
SPLINE
  5
10E
330
1F
100
AcDbEntity
  8
Layer 1
 62
     1
370
    70
100
AcDbSpline
210
0.0
220
0.0
230
1.0
 70
     8
 71
     3
 72
    12
 73
     8
 74
     0
 42
0.0000000001
 43
0.0000000001
 40
0.0
 40
0.0
 40
0.0
 40
0.0
 40
0.5
 40
0.5
 40
0.5
 40
0.5
 40
1.0
 40
1.0
 40
1.0
 40
1.0
 10
-7.634566929133858
 20
-4.174874015748031
 30
0.0
 10
-7.324
 20
-4.50851968503937
 30
0.0
 10
-7.129708661417323
 20
-4.95996062992126
 30
0.0
 10
-7.128149606299212
 20
-5.454417322834646
 30
0.0
 10
-7.128149606299212
 20
-5.454417322834646
 30
0.0
 10
-7.126590551181103
 20
-5.94840157480315
 30
0.0
 10
-7.31751968503937
 20
-6.395661417322835
 30
0.0
 10
-7.630842519685039
 20
-6.729976377952756
 30
0.0
  0
SPLINE
  5
10F
330
1F
100
AcDbEntity
  8
Layer 1
 62
     1
370
    70
100
AcDbSpline
210
0.0
220
0.0
230
1.0
 70
     8
 71
     3
 72
    12
 73
     8
 74
     0
 42
0.0000000001
 43
0.0000000001
 40
0.0
 40
0.0
 40
0.0
 40
0.0
 40
0.5
 40
0.5
 40
0.5
 40
0.5
 40
1.0
 40
1.0
 40
1.0
 40
1.0
 10
-8.032952755905512
 20
-4.82903937007874
 30
0.0
 10
-7.906055118110237
 20
-5.01488188976378
 30
0.0
 10
-7.848149606299213
 20
-5.218
 30
0.0
 10
-7.848149606299213
 20
-5.454417322834646
 30
0.0
 10
-7.848149606299213
 20
-5.454417322834646
 30
0.0
 10
-7.848149606299213
 20
-5.682629921259842
 30
0.0
 10
-7.914661417322835
 20
-5.895346456692914
 30
0.0
 10
-8.029346456692913
 20
-6.074212598425197
 30
0.0
  0
SPLINE
  5
110
330
1F
100
AcDbEntity
  8
Layer 1
 62
     1
370
    70
100
AcDbSpline
210
0.0
220
0.0
230
1.0
 70
     8
 71
     3
 72
    12
 73
     8
 74
     0
 42
0.0000000001
 43
0.0000000001
 40
0.0
 40
0.0
 40
0.0
 40
0.0
 40
0.5
 40
0.5
 40
0.5
 40
0.5
 40
1.0
 40
1.0
 40
1.0
 40
1.0
 10
-8.88511811023622
 20
-6.598937007874015
 30
0.0
 10
-8.922307086614174
 20
-6.60255905511811
 30
0.0
 10
-8.960007874015748
 20
-6.604425196850394
 30
0.0
 10
-8.998149606299213
 20
-6.604425196850394
 30
0.0
 10
-8.998149606299213
 20
-6.604425196850394
 30
0.0
 10
-9.454566929133858
 20
-6.604425196850394
 30
0.0
 10
-9.850055118110236
 20
-6.334669291338582
 30
0.0
 10
-10.0358031496063
 20
-5.949244094488189
 30
0.0
  0
SPLINE
  5
111
330
1F
100
AcDbEntity
  8
Layer 1
 62
     1
370
    70
100
AcDbSpline
210
0.0
220
0.0
230
1.0
 70
     8
 71
     3
 72
    12
 73
     8
 74
     0
 42
0.0000000001
 43
0.0000000001
 40
0.0
 40
0.0
 40
0.0
 40
0.0
 40
0.5
 40
0.5
 40
0.5
 40
0.5
 40
1.0
 40
1.0
 40
1.0
 40
1.0
 10
-10.03414960629921
 20
-4.953811023622047
 30
0.0
 10
-9.84840157480315
 20
-4.568393700787402
 30
0.0
 10
-9.454566929133858
 20
-4.304417322834646
 30
0.0
 10
-8.998149606299213
 20
-4.304417322834646
 30
0.0
 10
-8.998149606299213
 20
-4.304417322834646
 30
0.0
 10
-8.958464566929134
 20
-4.304417322834646
 30
0.0
 10
-8.919236220472442
 20
-4.306433070866142
 30
0.0
 10
-8.880582677165354
 20
-4.310354330708662
 30
0.0
  0
SPLINE
  5
112
330
1F
100
AcDbEntity
  8
Layer 1
 62
     1
370
    70
100
AcDbSpline
210
0.0
220
0.0
230
1.0
 70
     8
 71
     3
 72
     8
 73
     4
 74
     0
 42
0.0000000001
 43
0.0000000001
 40
0.0
 40
0.0
 40
0.0
 40
0.0
 40
1.0
 40
1.0
 40
1.0
 40
1.0
 10
-10.80036220472441
 20
-4.953811023622047
 30
0.0
 10
-10.03415748031496
 20
-4.953818897637795
 30
0.0
 10
-10.03414960629921
 20
-4.953811023622047
 30
0.0
 10
-10.03414960629921
 20
-4.953811023622047
 30
0.0
  0
SPLINE
  5
113
330
1F
100
AcDbEntity
  8
Layer 1
 62
     1
370
    70
100
AcDbSpline
210
0.0
220
0.0
230
1.0
 70
     8
 71
     3
 72
     8
 73
     4
 74
     0
 42
0.0000000001
 43
0.0000000001
 40
0.0
 40
0.0
 40
0.0
 40
0.0
 40
1.0
 40
1.0
 40
1.0
 40
1.0
 10
-7.630842519685039
 20
-6.729976377952756
 30
0.0
 10
-8.032889763779528
 20
-6.079708661417323
 30
0.0
 10
-8.039488188976378
 20
-6.06903937007874
 30
0.0
 10
-8.032889763779528
 20
-6.079708661417323
 30
0.0
  0
SPLINE
  5
114
330
1F
100
AcDbEntity
  8
Layer 1
 62
     1
370
    70
100
AcDbSpline
210
0.0
220
0.0
230
1.0
 70
     8
 71
     3
 72
     8
 73
     4
 74
     0
 42
0.0000000001
 43
0.0000000001
 40
0.0
 40
0.0
 40
0.0
 40
0.0
 40
1.0
 40
1.0
 40
1.0
 40
1.0
 10
-8.032952755905512
 20
-4.82903937007874
 30
0.0
 10
-7.993267716535433
 20
-4.76388188976378
 30
0.0
 10
-7.822440944881889
 20
-4.483370078740157
 30
0.0
 10
-7.634566929133858
 20
-4.174874015748031
 30
0.0
  0
SPLINE
  5
115
330
1F
100
AcDbEntity
  8
Layer 1
 62
     1
370
    70
100
AcDbSpline
210
0.0
220
0.0
230
1.0
 70
     8
 71
     3
 72
     8
 73
     4
 74
     0
 42
0.0000000001
 43
0.0000000001
 40
0.0
 40
0.0
 40
0.0
 40
0.0
 40
1.0
 40
1.0
 40
1.0
 40
1.0
 10
-8.490984251968504
 20
-7.249724409448818
 30
0.0
 10
-8.621740157480314
 20
-7.031188976377953
 30
0.0
 10
-8.752488188976377
 20
-6.812669291338582
 30
0.0
 10
-8.88324409448819
 20
-6.594133858267717
 30
0.0
  0
SPLINE
  5
116
330
1F
100
AcDbEntity
  8
Layer 1
 62
     1
370
    70
100
AcDbSpline
210
0.0
220
0.0
230
1.0
 70
     8
 71
     3
 72
     8
 73
     4
 74
     0
 42
0.0000000001
 43
0.0000000001
 40
0.0
 40
0.0
 40
0.0
 40
0.0
 40
1.0
 40
1.0
 40
1.0
 40
1.0
 10
-8.479629921259843
 20
-3.657259842519685
 30
0.0
 10
-8.615732283464567
 20
-3.874724409448819
 30
0.0
 10
-8.751834645669291
 20
-4.092181102362205
 30
0.0
 10
-8.887944881889764
 20
-4.309637795275591
 30
0.0
  0
SPLINE
  5
117
330
1F
100
AcDbEntity
  8
Layer 1
 62
     1
370
    70
100
AcDbSpline
210
0.0
220
0.0
230
1.0
 70
    24
 71
     3
 72
     8
 73
     4
 74
     0
 42
0.0000000001
 43
0.0000000001
 40
0.0
 40
0.0
 40
0.0
 40
0.0
 40
1.0
 40
1.0
 40
1.0
 40
1.0
 10
-10.0358031496063
 20
-5.949244094488189
 30
0.0
 10
-10.28451181102362
 20
-5.949244094488189
 30
0.0
 10
-10.53322047244095
 20
-5.949244094488189
 30
0.0
 10
-10.78192913385827
 20
-5.949244094488189
 30
0.0
  0
SPLINE
  5
118
330
1F
100
AcDbEntity
  8
Layer 1
 62
     1
370
    70
100
AcDbSpline
210
0.0
220
0.0
230
1.0
 70
    11
 71
     3
 72
    20
 73
    16
 74
     0
 42
0.0000000001
 43
0.0000000001
 40
0.0
 40
0.0
 40
0.0
 40
0.0
 40
0.25
 40
0.25
 40
0.25
 40
0.25
 40
0.5
 40
0.5
 40
0.5
 40
0.5
 40
0.75
 40
0.75
 40
0.75
 40
0.75
 40
1.0
 40
1.0
 40
1.0
 40
1.0
 10
-9.364582677165354
 20
-5.454417322834646
 30
0.0
 10
-9.364582677165354
 20
-5.233543307086614
 30
0.0
 10
-9.185456692913386
 20
-5.054417322834646
 30
0.0
 10
-8.964582677165355
 20
-5.054417322834646
 30
0.0
 10
-8.964582677165355
 20
-5.054417322834646
 30
0.0
 10
-8.743708661417323
 20
-5.054417322834646
 30
0.0
 10
-8.564582677165355
 20
-5.233543307086614
 30
0.0
 10
-8.564582677165355
 20
-5.454417322834646
 30
0.0
 10
-8.564582677165355
 20
-5.454417322834646
 30
0.0
 10
-8.564582677165355
 20
-5.675291338582677
 30
0.0
 10
-8.743708661417323
 20
-5.854417322834646
 30
0.0
 10
-8.964582677165355
 20
-5.854417322834646
 30
0.0
 10
-8.964582677165355
 20
-5.854417322834646
 30
0.0
 10
-9.185456692913386
 20
-5.854417322834646
 30
0.0
 10
-9.364582677165354
 20
-5.675291338582677
 30
0.0
 10
-9.364582677165354
 20
-5.454417322834646
 30
0.0
  0
SPLINE
  5
119
330
1F
100
AcDbEntity
  8
Layer 1
 62
     1
370
    70
100
AcDbSpline
210
0.0
220
0.0
230
1.0
 70
    11
 71
     3
 72
    20
 73
    16
 74
     0
 42
0.0000000001
 43
0.0000000001
 40
0.0
 40
0.0
 40
0.0
 40
0.0
 40
0.25
 40
0.25
 40
0.25
 40
0.25
 40
0.5
 40
0.5
 40
0.5
 40
0.5
 40
0.75
 40
0.75
 40
0.75
 40
0.75
 40
1.0
 40
1.0
 40
1.0
 40
1.0
 10
-6.129582677165354
 20
-5.454417322834646
 30
0.0
 10
-6.129582677165354
 20
-3.924842519685039
 30
0.0
 10
-4.889149606299212
 20
-2.684417322834646
 30
0.0
 10
-3.359582677165355
 20
-2.684417322834646
 30
0.0
 10
-3.359582677165355
 20
-2.684417322834646
 30
0.0
 10
-1.830007874015748
 20
-2.684417322834646
 30
0.0
 10
-0.5895826771653543
 20
-3.924842519685039
 30
0.0
 10
-0.5895826771653543
 20
-5.454417322834646
 30
0.0
 10
-0.5895826771653543
 20
-5.454417322834646
 30
0.0
 10
-0.5895826771653543
 20
-6.984
 30
0.0
 10
-1.830007874015748
 20
-8.224417322834645
 30
0.0
 10
-3.359582677165355
 20
-8.224417322834645
 30
0.0
 10
-3.359582677165355
 20
-8.224417322834645
 30
0.0
 10
-4.889149606299212
 20
-8.224417322834645
 30
0.0
 10
-6.129582677165354
 20
-6.984
 30
0.0
 10
-6.129582677165354
 20
-5.454417322834646
 30
0.0
  0
SPLINE
  5
11A
330
1F
100
AcDbEntity
  8
Layer 1
 62
     1
370
    70
100
AcDbSpline
210
0.0
220
0.0
230
1.0
 70
     8
 71
     3
 72
    12
 73
     8
 74
     0
 42
0.0000000001
 43
0.0000000001
 40
0.0
 40
0.0
 40
0.0
 40
0.0
 40
0.5
 40
0.5
 40
0.5
 40
0.5
 40
1.0
 40
1.0
 40
1.0
 40
1.0
 10
-2.883606299212599
 20
-7.253716535433071
 30
0.0
 10
-3.045905511811024
 20
-7.299842519685039
 30
0.0
 10
-3.216417322834646
 20
-7.324425196850394
 30
0.0
 10
-3.393149606299213
 20
-7.324425196850394
 30
0.0
 10
-3.393149606299213
 20
-7.324425196850394
 30
0.0
 10
-4.256338582677166
 20
-7.324425196850394
 30
0.0
 10
-4.980795275590551
 20
-6.747826771653544
 30
0.0
 10
-5.196015748031496
 20
-5.952629921259843
 30
0.0
  0
SPLINE
  5
11B
330
1F
100
AcDbEntity
  8
Layer 1
 62
     1
370
    70
100
AcDbSpline
210
0.0
220
0.0
230
1.0
 70
     8
 71
     3
 72
    12
 73
     8
 74
     0
 42
0.0000000001
 43
0.0000000001
 40
0.0
 40
0.0
 40
0.0
 40
0.0
 40
0.5
 40
0.5
 40
0.5
 40
0.5
 40
1.0
 40
1.0
 40
1.0
 40
1.0
 10
-5.195362204724409
 20
-4.953811023622047
 30
0.0
 10
-4.976228346456693
 20
-4.164559055118111
 30
0.0
 10
-4.25211811023622
 20
-3.584417322834646
 30
0.0
 10
-3.393149606299213
 20
-3.584417322834646
 30
0.0
 10
-3.393149606299213
 20
-3.584417322834646
 30
0.0
 10
-3.211551181102362
 20
-3.584417322834646
 30
0.0
 10
-3.036244094488189
 20
-3.611275590551181
 30
0.0
 10
-2.869952755905512
 20
-3.658629921259843
 30
0.0
  0
SPLINE
  5
11C
330
1F
100
AcDbEntity
  8
Layer 1
 62
     1
370
    70
100
AcDbSpline
210
0.0
220
0.0
230
1.0
 70
     8
 71
     3
 72
    12
 73
     8
 74
     0
 42
0.0000000001
 43
0.0000000001
 40
0.0
 40
0.0
 40
0.0
 40
0.0
 40
0.5
 40
0.5
 40
0.5
 40
0.5
 40
1.0
 40
1.0
 40
1.0
 40
1.0
 10
-2.029566929133858
 20
-4.174874015748031
 30
0.0
 10
-1.719
 20
-4.50851968503937
 30
0.0
 10
-1.524708661417323
 20
-4.95996062992126
 30
0.0
 10
-1.523149606299213
 20
-5.454417322834646
 30
0.0
 10
-1.523149606299213
 20
-5.454417322834646
 30
0.0
 10
-1.521590551181102
 20
-5.94840157480315
 30
0.0
 10
-1.71251968503937
 20
-6.395661417322835
 30
0.0
 10
-2.025842519685039
 20
-6.729976377952756
 30
0.0
  0
SPLINE
  5
11D
330
1F
100
AcDbEntity
  8
Layer 1
 62
     1
370
    70
100
AcDbSpline
210
0.0
220
0.0
230
1.0
 70
     8
 71
     3
 72
    12
 73
     8
 74
     0
 42
0.0000000001
 43
0.0000000001
 40
0.0
 40
0.0
 40
0.0
 40
0.0
 40
0.5
 40
0.5
 40
0.5
 40
0.5
 40
1.0
 40
1.0
 40
1.0
 40
1.0
 10
-2.427952755905512
 20
-4.82903937007874
 30
0.0
 10
-2.301055118110236
 20
-5.01488188976378
 30
0.0
 10
-2.243149606299212
 20
-5.218
 30
0.0
 10
-2.243149606299212
 20
-5.454417322834646
 30
0.0
 10
-2.243149606299212
 20
-5.454417322834646
 30
0.0
 10
-2.243149606299212
 20
-5.682629921259842
 30
0.0
 10
-2.309661417322835
 20
-5.895346456692914
 30
0.0
 10
-2.424346456692914
 20
-6.074212598425197
 30
0.0
  0
SPLINE
  5
11E
330
1F
100
AcDbEntity
  8
Layer 1
 62
     1
370
    70
100
AcDbSpline
210
0.0
220
0.0
230
1.0
 70
     8
 71
     3
 72
    12
 73
     8
 74
     0
 42
0.0000000001
 43
0.0000000001
 40
0.0
 40
0.0
 40
0.0
 40
0.0
 40
0.5
 40
0.5
 40
0.5
 40
0.5
 40
1.0
 40
1.0
 40
1.0
 40
1.0
 10
-3.28011811023622
 20
-6.598937007874015
 30
0.0
 10
-3.317307086614173
 20
-6.60255905511811
 30
0.0
 10
-3.355007874015748
 20
-6.604425196850394
 30
0.0
 10
-3.393149606299213
 20
-6.604425196850394
 30
0.0
 10
-3.393149606299213
 20
-6.604425196850394
 30
0.0
 10
-3.849566929133858
 20
-6.604425196850394
 30
0.0
 10
-4.245055118110236
 20
-6.334669291338582
 30
0.0
 10
-4.430803149606299
 20
-5.949244094488189
 30
0.0
  0
SPLINE
  5
11F
330
1F
100
AcDbEntity
  8
Layer 1
 62
     1
370
    70
100
AcDbSpline
210
0.0
220
0.0
230
1.0
 70
     8
 71
     3
 72
    12
 73
     8
 74
     0
 42
0.0000000001
 43
0.0000000001
 40
0.0
 40
0.0
 40
0.0
 40
0.0
 40
0.5
 40
0.5
 40
0.5
 40
0.5
 40
1.0
 40
1.0
 40
1.0
 40
1.0
 10
-4.429149606299212
 20
-4.953811023622047
 30
0.0
 10
-4.24340157480315
 20
-4.568393700787402
 30
0.0
 10
-3.849566929133858
 20
-4.304417322834646
 30
0.0
 10
-3.393149606299213
 20
-4.304417322834646
 30
0.0
 10
-3.393149606299213
 20
-4.304417322834646
 30
0.0
 10
-3.353464566929134
 20
-4.304417322834646
 30
0.0
 10
-3.314236220472441
 20
-4.306433070866142
 30
0.0
 10
-3.275582677165354
 20
-4.310354330708662
 30
0.0
  0
SPLINE
  5
120
330
1F
100
AcDbEntity
  8
Layer 1
 62
     1
370
    70
100
AcDbSpline
210
0.0
220
0.0
230
1.0
 70
     8
 71
     3
 72
     8
 73
     4
 74
     0
 42
0.0000000001
 43
0.0000000001
 40
0.0
 40
0.0
 40
0.0
 40
0.0
 40
1.0
 40
1.0
 40
1.0
 40
1.0
 10
-5.195362204724409
 20
-4.953811023622047
 30
0.0
 10
-4.42915748031496
 20
-4.953818897637795
 30
0.0
 10
-4.429149606299212
 20
-4.953811023622047
 30
0.0
 10
-4.429149606299212
 20
-4.953811023622047
 30
0.0
  0
SPLINE
  5
121
330
1F
100
AcDbEntity
  8
Layer 1
 62
     1
370
    70
100
AcDbSpline
210
0.0
220
0.0
230
1.0
 70
     8
 71
     3
 72
     8
 73
     4
 74
     0
 42
0.0000000001
 43
0.0000000001
 40
0.0
 40
0.0
 40
0.0
 40
0.0
 40
1.0
 40
1.0
 40
1.0
 40
1.0
 10
-2.025842519685039
 20
-6.729976377952756
 30
0.0
 10
-2.427889763779528
 20
-6.079708661417323
 30
0.0
 10
-2.434488188976378
 20
-6.06903937007874
 30
0.0
 10
-2.427889763779528
 20
-6.079708661417323
 30
0.0
  0
SPLINE
  5
122
330
1F
100
AcDbEntity
  8
Layer 1
 62
     1
370
    70
100
AcDbSpline
210
0.0
220
0.0
230
1.0
 70
     8
 71
     3
 72
     8
 73
     4
 74
     0
 42
0.0000000001
 43
0.0000000001
 40
0.0
 40
0.0
 40
0.0
 40
0.0
 40
1.0
 40
1.0
 40
1.0
 40
1.0
 10
-2.427952755905512
 20
-4.82903937007874
 30
0.0
 10
-2.388267716535433
 20
-4.76388188976378
 30
0.0
 10
-2.21744094488189
 20
-4.483370078740157
 30
0.0
 10
-2.029566929133858
 20
-4.174874015748031
 30
0.0
  0
SPLINE
  5
123
330
1F
100
AcDbEntity
  8
Layer 1
 62
     1
370
    70
100
AcDbSpline
210
0.0
220
0.0
230
1.0
 70
     8
 71
     3
 72
     8
 73
     4
 74
     0
 42
0.0000000001
 43
0.0000000001
 40
0.0
 40
0.0
 40
0.0
 40
0.0
 40
1.0
 40
1.0
 40
1.0
 40
1.0
 10
-2.885984251968504
 20
-7.249724409448818
 30
0.0
 10
-3.016740157480315
 20
-7.031188976377953
 30
0.0
 10
-3.147488188976378
 20
-6.812669291338582
 30
0.0
 10
-3.278244094488189
 20
-6.594133858267717
 30
0.0
  0
SPLINE
  5
124
330
1F
100
AcDbEntity
  8
Layer 1
 62
     1
370
    70
100
AcDbSpline
210
0.0
220
0.0
230
1.0
 70
     8
 71
     3
 72
     8
 73
     4
 74
     0
 42
0.0000000001
 43
0.0000000001
 40
0.0
 40
0.0
 40
0.0
 40
0.0
 40
1.0
 40
1.0
 40
1.0
 40
1.0
 10
-2.874629921259843
 20
-3.657259842519685
 30
0.0
 10
-3.010732283464567
 20
-3.874724409448819
 30
0.0
 10
-3.146834645669291
 20
-4.092181102362205
 30
0.0
 10
-3.282944881889764
 20
-4.309637795275591
 30
0.0
  0
SPLINE
  5
125
330
1F
100
AcDbEntity
  8
Layer 1
 62
     1
370
    70
100
AcDbSpline
210
0.0
220
0.0
230
1.0
 70
    24
 71
     3
 72
     8
 73
     4
 74
     0
 42
0.0000000001
 43
0.0000000001
 40
0.0
 40
0.0
 40
0.0
 40
0.0
 40
1.0
 40
1.0
 40
1.0
 40
1.0
 10
-4.430803149606299
 20
-5.949244094488189
 30
0.0
 10
-4.679511811023622
 20
-5.949244094488189
 30
0.0
 10
-4.928220472440945
 20
-5.949244094488189
 30
0.0
 10
-5.176929133858268
 20
-5.949244094488189
 30
0.0
  0
SPLINE
  5
126
330
1F
100
AcDbEntity
  8
Layer 1
 62
     1
370
    70
100
AcDbSpline
210
0.0
220
0.0
230
1.0
 70
    11
 71
     3
 72
    20
 73
    16
 74
     0
 42
0.0000000001
 43
0.0000000001
 40
0.0
 40
0.0
 40
0.0
 40
0.0
 40
0.25
 40
0.25
 40
0.25
 40
0.25
 40
0.5
 40
0.5
 40
0.5
 40
0.5
 40
0.75
 40
0.75
 40
0.75
 40
0.75
 40
1.0
 40
1.0
 40
1.0
 40
1.0
 10
-3.759582677165354
 20
-5.454417322834646
 30
0.0
 10
-3.759582677165354
 20
-5.233543307086614
 30
0.0
 10
-3.580456692913386
 20
-5.054417322834646
 30
0.0
 10
-3.359582677165355
 20
-5.054417322834646
 30
0.0
 10
-3.359582677165355
 20
-5.054417322834646
 30
0.0
 10
-3.138708661417323
 20
-5.054417322834646
 30
0.0
 10
-2.959582677165354
 20
-5.233543307086614
 30
0.0
 10
-2.959582677165354
 20
-5.454417322834646
 30
0.0
 10
-2.959582677165354
 20
-5.454417322834646
 30
0.0
 10
-2.959582677165354
 20
-5.675291338582677
 30
0.0
 10
-3.138708661417323
 20
-5.854417322834646
 30
0.0
 10
-3.359582677165355
 20
-5.854417322834646
 30
0.0
 10
-3.359582677165355
 20
-5.854417322834646
 30
0.0
 10
-3.580456692913386
 20
-5.854417322834646
 30
0.0
 10
-3.759582677165354
 20
-5.675291338582677
 30
0.0
 10
-3.759582677165354
 20
-5.454417322834646
 30
0.0
  0
SPLINE
  5
127
330
1F
100
AcDbEntity
  8
Layer 1
 62
     1
370
    70
100
AcDbSpline
210
0.0
220
0.0
230
1.0
 70
    11
 71
     3
 72
    20
 73
    16
 74
     0
 42
0.0000000001
 43
0.0000000001
 40
0.0
 40
0.0
 40
0.0
 40
0.0
 40
0.25
 40
0.25
 40
0.25
 40
0.25
 40
0.5
 40
0.5
 40
0.5
 40
0.5
 40
0.75
 40
0.75
 40
0.75
 40
0.75
 40
1.0
 40
1.0
 40
1.0
 40
1.0
 10
2.127417322834646
 20
-2.874417322834645
 30
0.0
 10
3.604535433070866
 20
-2.874417322834645
 30
0.0
 10
4.802417322834645
 20
-4.072307086614173
 30
0.0
 10
4.802417322834645
 20
-5.549417322834645
 30
0.0
 10
4.802417322834645
 20
-5.549417322834645
 30
0.0
 10
4.802417322834645
 20
-7.026535433070866
 30
0.0
 10
3.604535433070866
 20
-8.224417322834645
 30
0.0
 10
2.127417322834646
 20
-8.224417322834645
 30
0.0
 10
2.127417322834646
 20
-8.224417322834645
 30
0.0
 10
0.6502913385826772
 20
-8.224417322834645
 30
0.0
 10
-0.5475826771653544
 20
-7.026535433070866
 30
0.0
 10
-0.5475826771653544
 20
-5.549417322834645
 30
0.0
 10
-0.5475826771653544
 20
-5.549417322834645
 30
0.0
 10
-0.5475826771653544
 20
-4.072307086614173
 30
0.0
 10
0.6502913385826772
 20
-2.874417322834645
 30
0.0
 10
2.127417322834646
 20
-2.874417322834645
 30
0.0
  0
SPLINE
  5
128
330
1F
100
AcDbEntity
  8
Layer 1
 62
     1
370
    70
100
AcDbSpline
210
0.0
220
0.0
230
1.0
 70
    11
 71
     3
 72
    20
 73
    16
 74
     0
 42
0.0000000001
 43
0.0000000001
 40
0.0
 40
0.0
 40
0.0
 40
0.0
 40
0.25
 40
0.25
 40
0.25
 40
0.25
 40
0.5
 40
0.5
 40
0.5
 40
0.5
 40
0.75
 40
0.75
 40
0.75
 40
0.75
 40
1.0
 40
1.0
 40
1.0
 40
1.0
 10
2.127425196850394
 20
-3.449417322834646
 30
0.0
 10
3.287031496062992
 20
-3.449417322834646
 30
0.0
 10
4.227417322834646
 20
-4.389818897637795
 30
0.0
 10
4.227417322834646
 20
-5.549417322834645
 30
0.0
 10
4.227417322834646
 20
-5.549417322834645
 30
0.0
 10
4.227417322834646
 20
-6.709023622047244
 30
0.0
 10
3.287031496062992
 20
-7.649417322834646
 30
0.0
 10
2.127425196850394
 20
-7.649417322834646
 30
0.0
 10
2.127425196850394
 20
-7.649417322834646
 30
0.0
 10
0.9678110236220473
 20
-7.649417322834646
 30
0.0
 10
0.0274173228346457
 20
-6.709023622047244
 30
0.0
 10
0.0274173228346457
 20
-5.549417322834645
 30
0.0
 10
0.0274173228346457
 20
-5.549417322834645
 30
0.0
 10
0.0274173228346457
 20
-4.389818897637795
 30
0.0
 10
0.9678110236220473
 20
-3.449417322834646
 30
0.0
 10
2.127425196850394
 20
-3.449417322834646
 30
0.0
  0
SPLINE
  5
129
330
1F
100
AcDbEntity
  8
Layer 1
 62
     1
370
    70
100
AcDbSpline
210
0.0
220
0.0
230
1.0
 70
    11
 71
     3
 72
    20
 73
    16
 74
     0
 42
0.0000000001
 43
0.0000000001
 40
0.0
 40
0.0
 40
0.0
 40
0.0
 40
0.25
 40
0.25
 40
0.25
 40
0.25
 40
0.5
 40
0.5
 40
0.5
 40
0.5
 40
0.75
 40
0.75
 40
0.75
 40
0.75
 40
1.0
 40
1.0
 40
1.0
 40
1.0
 10
7.029299212598425
 20
-6.276622047244095
 30
0.0
 10
7.360602362204724
 20
-6.276622047244095
 30
0.0
 10
7.629283464566929
 20
-6.545303149606299
 30
0.0
 10
7.629283464566929
 20
-6.876622047244094
 30
0.0
 10
7.629283464566929
 20
-6.876622047244094
 30
0.0
 10
7.629283464566929
 20
-7.20794094488189
 30
0.0
 10
7.360602362204724
 20
-7.476622047244095
 30
0.0
 10
7.029299212598425
 20
-7.476622047244095
 30
0.0
 10
7.029299212598425
 20
-7.476622047244095
 30
0.0
 10
6.697976377952756
 20
-7.476622047244095
 30
0.0
 10
6.429283464566929
 20
-7.20794094488189
 30
0.0
 10
6.429283464566929
 20
-6.876622047244094
 30
0.0
 10
6.429283464566929
 20
-6.876622047244094
 30
0.0
 10
6.429283464566929
 20
-6.545303149606299
 30
0.0
 10
6.697976377952756
 20
-6.276622047244095
 30
0.0
 10
7.029299212598425
 20
-6.276622047244095
 30
0.0
  0
SPLINE
  5
12A
330
1F
100
AcDbEntity
  8
Layer 1
 62
     1
370
    70
100
AcDbSpline
210
0.0
220
0.0
230
1.0
 70
    11
 71
     3
 72
    20
 73
    16
 74
     0
 42
0.0000000001
 43
0.0000000001
 40
0.0
 40
0.0
 40
0.0
 40
0.0
 40
0.25
 40
0.25
 40
0.25
 40
0.25
 40
0.5
 40
0.5
 40
0.5
 40
0.5
 40
0.75
 40
0.75
 40
0.75
 40
0.75
 40
1.0
 40
1.0
 40
1.0
 40
1.0
 10
-0.4415354330708661
 20
1.857346456692913
 30
0.0
 10
1.016251968503937
 20
1.857346456692913
 30
0.0
 10
2.198464566929134
 20
0.6751259842519685
 30
0.0
 10
2.198464566929134
 20
-0.7826535433070866
 30
0.0
 10
2.198464566929134
 20
-0.7826535433070866
 30
0.0
 10
2.198464566929134
 20
-2.24044094488189
 30
0.0
 10
1.016251968503937
 20
-3.422653543307087
 30
0.0
 10
-0.4415354330708661
 20
-3.422653543307087
 30
0.0
 10
-0.4415354330708661
 20
-3.422653543307087
 30
0.0
 10
-1.899330708661417
 20
-3.422653543307087
 30
0.0
 10
-3.081535433070866
 20
-2.24044094488189
 30
0.0
 10
-3.081535433070866
 20
-0.7826535433070866
 30
0.0
 10
-3.081535433070866
 20
-0.7826535433070866
 30
0.0
 10
-3.081535433070866
 20
0.6751259842519685
 30
0.0
 10
-1.899330708661417
 20
1.857346456692913
 30
0.0
 10
-0.4415354330708661
 20
1.857346456692913
 30
0.0
  0
SPLINE
  5
12B
330
1F
100
AcDbEntity
  8
Layer 1
 62
     1
370
    70
100
AcDbSpline
210
0.0
220
0.0
230
1.0
 70
    11
 71
     3
 72
    20
 73
    16
 74
     0
 42
0.0000000001
 43
0.0000000001
 40
0.0
 40
0.0
 40
0.0
 40
0.0
 40
0.25
 40
0.25
 40
0.25
 40
0.25
 40
0.5
 40
0.5
 40
0.5
 40
0.5
 40
0.75
 40
0.75
 40
0.75
 40
0.75
 40
1.0
 40
1.0
 40
1.0
 40
1.0
 10
-0.4415354330708661
 20
1.367346456692913
 30
0.0
 10
0.7456850393700788
 20
1.367346456692913
 30
0.0
 10
1.708464566929134
 20
0.4045590551181102
 30
0.0
 10
1.708464566929134
 20
-0.7826535433070866
 30
0.0
 10
1.708464566929134
 20
-0.7826535433070866
 30
0.0
 10
1.708464566929134
 20
-1.969874015748031
 30
0.0
 10
0.7456850393700788
 20
-2.932653543307087
 30
0.0
 10
-0.4415354330708661
 20
-2.932653543307087
 30
0.0
 10
-0.4415354330708661
 20
-2.932653543307087
 30
0.0
 10
-1.628763779527559
 20
-2.932653543307087
 30
0.0
 10
-2.591535433070866
 20
-1.969874015748031
 30
0.0
 10
-2.591535433070866
 20
-0.7826535433070866
 30
0.0
 10
-2.591535433070866
 20
-0.7826535433070866
 30
0.0
 10
-2.591535433070866
 20
0.4045590551181102
 30
0.0
 10
-1.628763779527559
 20
1.367346456692913
 30
0.0
 10
-0.4415354330708661
 20
1.367346456692913
 30
0.0
  0
SPLINE
  5
12C
330
1F
100
AcDbEntity
  8
Layer 1
 62
     1
370
    70
100
AcDbSpline
210
0.0
220
0.0
230
1.0
 70
    11
 71
     3
 72
    36
 73
    32
 74
     0
 42
0.0000000001
 43
0.0000000001
 40
0.0
 40
0.0
 40
0.0
 40
0.0
 40
0.125
 40
0.125
 40
0.125
 40
0.125
 40
0.25
 40
0.25
 40
0.25
 40
0.25
 40
0.375
 40
0.375
 40
0.375
 40
0.375
 40
0.5
 40
0.5
 40
0.5
 40
0.5
 40
0.625
 40
0.625
 40
0.625
 40
0.625
 40
0.75
 40
0.75
 40
0.75
 40
0.75
 40
0.875
 40
0.875
 40
0.875
 40
0.875
 40
1.0
 40
1.0
 40
1.0
 40
1.0
 10
-1.363157480314961
 20
-8.399094488188977
 30
0.0
 10
-1.363157480314961
 20
-8.399094488188977
 30
0.0
 10
-1.363157480314961
 20
-7.654716535433071
 30
0.0
 10
-1.363157480314961
 20
-7.654716535433071
 30
0.0
 10
-1.363157480314961
 20
-7.654716535433071
 30
0.0
 10
-1.363157480314961
 20
-7.500677165354331
 30
0.0
 10
-1.21596062992126
 20
-7.374653543307087
 30
0.0
 10
-1.03603937007874
 20
-7.374653543307087
 30
0.0
 10
-1.03603937007874
 20
-7.374653543307087
 30
0.0
 10
-1.03603937007874
 20
-7.374653543307087
 30
0.0
 10
-0.1388897637795276
 20
-7.374653543307087
 30
0.0
 10
-0.1388897637795276
 20
-7.374653543307087
 30
0.0
 10
-0.1388897637795276
 20
-7.374653543307087
 30
0.0
 10
0.0410314960629921
 20
-7.374653543307087
 30
0.0
 10
0.1882283464566929
 20
-7.500677165354331
 30
0.0
 10
0.1882283464566929
 20
-7.654716535433071
 30
0.0
 10
0.1882283464566929
 20
-7.654716535433071
 30
0.0
 10
0.1882283464566929
 20
-7.654716535433071
 30
0.0
 10
0.1882283464566929
 20
-8.399094488188977
 30
0.0
 10
0.1882283464566929
 20
-8.399094488188977
 30
0.0
 10
0.1882283464566929
 20
-8.399094488188977
 30
0.0
 10
0.1882283464566929
 20
-8.553133858267717
 30
0.0
 10
0.0410314960629921
 20
-8.679157480314961
 30
0.0
 10
-0.1388897637795276
 20
-8.679157480314961
 30
0.0
 10
-0.1388897637795276
 20
-8.679157480314961
 30
0.0
 10
-0.1388897637795276
 20
-8.679157480314961
 30
0.0
 10
-1.03603937007874
 20
-8.679157480314961
 30
0.0
 10
-1.03603937007874
 20
-8.679157480314961
 30
0.0
 10
-1.03603937007874
 20
-8.679157480314961
 30
0.0
 10
-1.21596062992126
 20
-8.679157480314961
 30
0.0
 10
-1.363157480314961
 20
-8.553133858267717
 30
0.0
 10
-1.363157480314961
 20
-8.399094488188977
 30
0.0
  0
SPLINE
  5
12D
330
1F
100
AcDbEntity
  8
Layer 1
 62
     1
370
    70
100
AcDbSpline
210
0.0
220
0.0
230
1.0
 70
    24
 71
     3
 72
     8
 73
     4
 74
     0
 42
0.0000000001
 43
0.0000000001
 40
0.0
 40
0.0
 40
0.0
 40
0.0
 40
1.0
 40
1.0
 40
1.0
 40
1.0
 10
-0.0143385826771654
 20
-8.428574803149607
 30
0.0
 10
-0.0143385826771654
 20
-8.428574803149607
 30
0.0
 10
-1.090370078740158
 20
-8.428574803149607
 30
0.0
 10
-1.090370078740158
 20
-8.428574803149607
 30
0.0
  0
SPLINE
  5
12E
330
1F
100
AcDbEntity
  8
Layer 1
 62
     1
370
    70
100
AcDbSpline
210
0.0
220
0.0
230
1.0
 70
    24
 71
     3
 72
     8
 73
     4
 74
     0
 42
0.0000000001
 43
0.0000000001
 40
0.0
 40
0.0
 40
0.0
 40
0.0
 40
1.0
 40
1.0
 40
1.0
 40
1.0
 10
-0.0143385826771654
 20
-8.170622047244095
 30
0.0
 10
-0.0143385826771654
 20
-8.170622047244095
 30
0.0
 10
-1.090370078740158
 20
-8.170622047244095
 30
0.0
 10
-1.090370078740158
 20
-8.170622047244095
 30
0.0
  0
SPLINE
  5
12F
330
1F
100
AcDbEntity
  8
Layer 1
 62
     1
370
    70
100
AcDbSpline
210
0.0
220
0.0
230
1.0
 70
    24
 71
     3
 72
     8
 73
     4
 74
     0
 42
0.0000000001
 43
0.0000000001
 40
0.0
 40
0.0
 40
0.0
 40
0.0
 40
1.0
 40
1.0
 40
1.0
 40
1.0
 10
-0.0106535433070866
 20
-7.894244094488189
 30
0.0
 10
-0.0106535433070866
 20
-7.894244094488189
 30
0.0
 10
-1.086685039370079
 20
-7.894244094488189
 30
0.0
 10
-1.086685039370079
 20
-7.894244094488189
 30
0.0
  0
SPLINE
  5
130
330
1F
100
AcDbEntity
  8
Layer 1
 62
     1
370
    70
100
AcDbSpline
210
0.0
220
0.0
230
1.0
 70
    24
 71
     3
 72
     8
 73
     4
 74
     0
 42
0.0000000001
 43
0.0000000001
 40
0.0
 40
0.0
 40
0.0
 40
0.0
 40
1.0
 40
1.0
 40
1.0
 40
1.0
 10
-0.0180236220472441
 20
-7.614181102362204
 30
0.0
 10
-0.0180236220472441
 20
-7.614181102362204
 30
0.0
 10
-1.094055118110236
 20
-7.614181102362204
 30
0.0
 10
-1.094055118110236
 20
-7.614181102362204
 30
0.0
  0
SPLINE
  5
131
330
1F
100
AcDbEntity
  8
Layer 1
 62
     1
370
    70
100
AcDbSpline
210
0.0
220
0.0
230
1.0
 70
     8
 71
     3
 72
     8
 73
     4
 74
     0
 42
0.0000000001
 43
0.0000000001
 40
0.0
 40
0.0
 40
0.0
 40
0.0
 40
1.0
 40
1.0
 40
1.0
 40
1.0
 10
3.726708661417323
 20
-5.100433070866142
 30
0.0
 10
3.904472440944882
 20
-5.090866141732284
 30
0.0
 10
3.983133858267716
 20
-5.007283464566929
 30
0.0
 10
3.962677165354331
 20
-4.849716535433071
 30
0.0
  0
SPLINE
  5
132
330
1F
100
AcDbEntity
  8
Layer 1
 62
     1
370
    70
100
AcDbSpline
210
0.0
220
0.0
230
1.0
 70
     8
 71
     3
 72
    24
 73
    20
 74
     0
 42
0.0000000001
 43
0.0000000001
 40
0.0
 40
0.0
 40
0.0
 40
0.0
 40
0.2
 40
0.2
 40
0.2
 40
0.2
 40
0.4
 40
0.4
 40
0.4
 40
0.4
 40
0.6000000000000001
 40
0.6000000000000001
 40
0.6000000000000001
 40
0.6000000000000001
 40
0.8
 40
0.8
 40
0.8
 40
0.8
 40
1.0
 40
1.0
 40
1.0
 40
1.0
 10
3.726708661417323
 20
-5.100433070866142
 30
0.0
 10
2.792669291338583
 20
-5.100433070866142
 30
0.0
 10
1.858629921259842
 20
-5.100433070866142
 30
0.0
 10
0.9245826771653544
 20
-5.100433070866142
 30
0.0
 10
0.9245826771653544
 20
-5.100433070866142
 30
0.0
 10
0.6787795275590551
 20
-5.021779527559056
 30
0.0
 10
0.5509606299212598
 20
-4.844795275590551
 30
0.0
 10
0.5411338582677165
 20
-4.569503937007874
 30
0.0
 10
0.5411338582677165
 20
-4.569503937007874
 30
0.0
 10
0.5460472440944882
 20
-4.313874015748032
 30
0.0
 10
0.7377716535433071
 20
-4.097566929133858
 30
0.0
 10
1.116307086614173
 20
-3.920590551181102
 30
0.0
 10
1.116307086614173
 20
-3.920590551181102
 30
0.0
 10
1.666889763779527
 20
-3.71903937007874
 30
0.0
 10
2.335472440944882
 20
-3.782944881889764
 30
0.0
 10
3.12203937007874
 20
-4.112314960629921
 30
0.0
 10
3.12203937007874
 20
-4.112314960629921
 30
0.0
 10
3.608716535433071
 20
-4.318787401574803
 30
0.0
 10
3.888937007874016
 20
-4.564582677165355
 30
0.0
 10
3.962677165354331
 20
-4.849716535433071
 30
0.0
  0
SPLINE
  5
133
330
1F
100
AcDbEntity
  8
Layer 1
 62
     1
370
    70
100
AcDbSpline
210
0.0
220
0.0
230
1.0
 70
    11
 71
     3
 72
    20
 73
    16
 74
     0
 42
0.0000000001
 43
0.0000000001
 40
0.0
 40
0.0
 40
0.0
 40
0.0
 40
0.25
 40
0.25
 40
0.25
 40
0.25
 40
0.5
 40
0.5
 40
0.5
 40
0.5
 40
0.75
 40
0.75
 40
0.75
 40
0.75
 40
1.0
 40
1.0
 40
1.0
 40
1.0
 10
1.630614173228347
 20
-4.836031496062992
 30
0.0
 10
1.630614173228347
 20
-4.836031496062992
 30
0.0
 10
1.630614173228347
 20
-4.606031496062992
 30
0.0
 10
1.630614173228347
 20
-4.606031496062992
 30
0.0
 10
1.630614173228347
 20
-4.606031496062992
 30
0.0
 10
1.630614173228347
 20
-4.606031496062992
 30
0.0
 10
3.019047244094488
 20
-4.606031496062992
 30
0.0
 10
3.019047244094488
 20
-4.606031496062992
 30
0.0
 10
3.019047244094488
 20
-4.606031496062992
 30
0.0
 10
3.019047244094488
 20
-4.606031496062992
 30
0.0
 10
3.019047244094488
 20
-4.836031496062992
 30
0.0
 10
3.019047244094488
 20
-4.836031496062992
 30
0.0
 10
3.019047244094488
 20
-4.836031496062992
 30
0.0
 10
3.019047244094488
 20
-4.836031496062992
 30
0.0
 10
1.630614173228347
 20
-4.836031496062992
 30
0.0
 10
1.630614173228347
 20
-4.836031496062992
 30
0.0
  0
SPLINE
  5
134
330
1F
100
AcDbEntity
  8
Layer 1
 62
     1
370
    70
100
AcDbSpline
210
0.0
220
0.0
230
1.0
 70
     8
 71
     3
 72
     8
 73
     4
 74
     0
 42
0.0000000001
 43
0.0000000001
 40
0.0
 40
0.0
 40
0.0
 40
0.0
 40
1.0
 40
1.0
 40
1.0
 40
1.0
 10
3.726708661417323
 20
-5.100433070866142
 30
0.0
 10
3.904472440944882
 20
-5.11
 30
0.0
 10
3.983133858267716
 20
-5.193582677165354
 30
0.0
 10
3.962677165354331
 20
-5.351149606299213
 30
0.0
  0
SPLINE
  5
135
330
1F
100
AcDbEntity
  8
Layer 1
 62
     1
370
    70
100
AcDbSpline
210
0.0
220
0.0
230
1.0
 70
     8
 71
     3
 72
    20
 73
    16
 74
     0
 42
0.0000000001
 43
0.0000000001
 40
0.0
 40
0.0
 40
0.0
 40
0.0
 40
0.25
 40
0.25
 40
0.25
 40
0.25
 40
0.5
 40
0.5
 40
0.5
 40
0.5
 40
0.75
 40
0.75
 40
0.75
 40
0.75
 40
1.0
 40
1.0
 40
1.0
 40
1.0
 10
0.9245826771653544
 20
-5.100433070866142
 30
0.0
 10
0.6787795275590551
 20
-5.179086614173229
 30
0.0
 10
0.5509606299212598
 20
-5.356070866141732
 30
0.0
 10
0.5411338582677165
 20
-5.631362204724409
 30
0.0
 10
0.5411338582677165
 20
-5.631362204724409
 30
0.0
 10
0.5460472440944882
 20
-5.886992125984252
 30
0.0
 10
0.7377716535433071
 20
-6.103299212598425
 30
0.0
 10
1.116307086614173
 20
-6.280275590551181
 30
0.0
 10
1.116307086614173
 20
-6.280275590551181
 30
0.0
 10
1.666889763779527
 20
-6.481826771653544
 30
0.0
 10
2.335472440944882
 20
-6.41792125984252
 30
0.0
 10
3.12203937007874
 20
-6.088551181102362
 30
0.0
 10
3.12203937007874
 20
-6.088551181102362
 30
0.0
 10
3.608716535433071
 20
-5.88207874015748
 30
0.0
 10
3.888937007874016
 20
-5.63628346456693
 30
0.0
 10
3.962677165354331
 20
-5.351149606299213
 30
0.0
  0
SPLINE
  5
136
330
1F
100
AcDbEntity
  8
Layer 1
 62
     1
370
    70
100
AcDbSpline
210
0.0
220
0.0
230
1.0
 70
    11
 71
     3
 72
    20
 73
    16
 74
     0
 42
0.0000000001
 43
0.0000000001
 40
0.0
 40
0.0
 40
0.0
 40
0.0
 40
0.25
 40
0.25
 40
0.25
 40
0.25
 40
0.5
 40
0.5
 40
0.5
 40
0.5
 40
0.75
 40
0.75
 40
0.75
 40
0.75
 40
1.0
 40
1.0
 40
1.0
 40
1.0
 10
1.630614173228347
 20
-5.364834645669291
 30
0.0
 10
1.630614173228347
 20
-5.364834645669291
 30
0.0
 10
1.630614173228347
 20
-5.594834645669291
 30
0.0
 10
1.630614173228347
 20
-5.594834645669291
 30
0.0
 10
1.630614173228347
 20
-5.594834645669291
 30
0.0
 10
1.630614173228347
 20
-5.594834645669291
 30
0.0
 10
3.019047244094488
 20
-5.594834645669291
 30
0.0
 10
3.019047244094488
 20
-5.594834645669291
 30
0.0
 10
3.019047244094488
 20
-5.594834645669291
 30
0.0
 10
3.019047244094488
 20
-5.594834645669291
 30
0.0
 10
3.019047244094488
 20
-5.364834645669291
 30
0.0
 10
3.019047244094488
 20
-5.364834645669291
 30
0.0
 10
3.019047244094488
 20
-5.364834645669291
 30
0.0
 10
3.019047244094488
 20
-5.364834645669291
 30
0.0
 10
1.630614173228347
 20
-5.364834645669291
 30
0.0
 10
1.630614173228347
 20
-5.364834645669291
 30
0.0
  0
SPLINE
  5
137
330
1F
100
AcDbEntity
  8
Layer 1
 62
     1
370
    70
100
AcDbSpline
210
0.0
220
0.0
230
1.0
 70
     8
 71
     3
 72
    24
 73
    20
 74
     0
 42
0.0000000001
 43
0.0000000001
 40
0.0
 40
0.0
 40
0.0
 40
0.0
 40
0.2
 40
0.2
 40
0.2
 40
0.2
 40
0.4
 40
0.4
 40
0.4
 40
0.4
 40
0.6000000000000001
 40
0.6000000000000001
 40
0.6000000000000001
 40
0.6000000000000001
 40
0.8
 40
0.8
 40
0.8
 40
0.8
 40
1.0
 40
1.0
 40
1.0
 40
1.0
 10
6.163291338582678
 20
-2.05692125984252
 30
0.0
 10
6.163291338582678
 20
-2.05692125984252
 30
0.0
 10
5.31215748031496
 20
-2.055913385826772
 30
0.0
 10
5.31215748031496
 20
-2.055913385826772
 30
0.0
 10
5.31215748031496
 20
-2.055913385826772
 30
0.0
 10
5.27163779527559
 20
-2.055866141732284
 30
0.0
 10
5.238464566929133
 20
-2.088850393700787
 30
0.0
 10
5.238417322834645
 20
-2.129228346456693
 30
0.0
 10
5.238417322834645
 20
-2.129228346456693
 30
0.0
 10
5.238417322834645
 20
-2.129228346456693
 30
0.0
 10
5.238322834645669
 20
-2.212425196850394
 30
0.0
 10
5.238322834645669
 20
-2.212425196850394
 30
0.0
 10
5.238322834645669
 20
-2.212425196850394
 30
0.0
 10
5.238275590551181
 20
-2.252803149606299
 30
0.0
 10
5.271409448818898
 20
-2.285866141732284
 30
0.0
 10
5.311889763779527
 20
-2.285913385826772
 30
0.0
 10
5.311889763779527
 20
-2.285913385826772
 30
0.0
 10
5.311889763779527
 20
-2.285913385826772
 30
0.0
 10
6.133669291338583
 20
-2.286889763779528
 30
0.0
 10
6.133669291338583
 20
-2.286889763779528
 30
0.0
  0
SPLINE
  5
138
330
1F
100
AcDbEntity
  8
Layer 1
 62
     1
370
    70
100
AcDbSpline
210
0.0
220
0.0
230
1.0
 70
     8
 71
     3
 72
    12
 73
     8
 74
     0
 42
0.0000000001
 43
0.0000000001
 40
0.0
 40
0.0
 40
0.0
 40
0.0
 40
0.5
 40
0.5
 40
0.5
 40
0.5
 40
1.0
 40
1.0
 40
1.0
 40
1.0
 10
6.163291338582678
 20
-2.05692125984252
 30
0.0
 10
5.875874015748032
 20
-1.815842519685039
 30
0.0
 10
5.495094488188976
 20
-1.663417322834646
 30
0.0
 10
5.020952755905512
 20
-1.599645669291339
 30
0.0
 10
5.020952755905512
 20
-1.599645669291339
 30
0.0
 10
4.308511811023622
 20
-1.511204724409449
 30
0.0
 10
3.940007874015748
 20
-1.697913385826772
 30
0.0
 10
3.91544094488189
 20
-2.159771653543307
 30
0.0
  0
SPLINE
  5
139
330
1F
100
AcDbEntity
  8
Layer 1
 62
     1
370
    70
100
AcDbSpline
210
0.0
220
0.0
230
1.0
 70
     8
 71
     3
 72
    12
 73
     8
 74
     0
 42
0.0000000001
 43
0.0000000001
 40
0.0
 40
0.0
 40
0.0
 40
0.0
 40
0.5
 40
0.5
 40
0.5
 40
0.5
 40
1.0
 40
1.0
 40
1.0
 40
1.0
 10
6.133669291338583
 20
-2.286889763779528
 30
0.0
 10
5.846251968503937
 20
-2.527968503937008
 30
0.0
 10
5.495094488188976
 20
-2.656125984251969
 30
0.0
 10
5.020952755905512
 20
-2.719897637795276
 30
0.0
 10
5.020952755905512
 20
-2.719897637795276
 30
0.0
 10
4.308511811023622
 20
-2.808338582677165
 30
0.0
 10
3.940007874015748
 20
-2.621629921259843
 30
0.0
 10
3.91544094488189
 20
-2.159771653543307
 30
0.0
  0
SPLINE
  5
13A
330
1F
100
AcDbEntity
  8
Layer 1
 62
     1
370
    70
100
AcDbSpline
210
0.0
220
0.0
230
1.0
 70
     8
 71
     3
 72
    24
 73
    20
 74
     0
 42
0.0000000001
 43
0.0000000001
 40
0.0
 40
0.0
 40
0.0
 40
0.0
 40
0.2
 40
0.2
 40
0.2
 40
0.2
 40
0.4
 40
0.4
 40
0.4
 40
0.4
 40
0.6000000000000001
 40
0.6000000000000001
 40
0.6000000000000001
 40
0.6000000000000001
 40
0.8
 40
0.8
 40
0.8
 40
0.8
 40
1.0
 40
1.0
 40
1.0
 40
1.0
 10
7.127110236220473
 20
-4.784393700787402
 30
0.0
 10
7.127110236220473
 20
-4.784393700787402
 30
0.0
 10
7.447062992125984
 20
-4.78159842519685
 30
0.0
 10
7.447062992125984
 20
-4.78159842519685
 30
0.0
 10
7.447062992125984
 20
-4.78159842519685
 30
0.0
 10
7.487582677165355
 20
-4.781244094488189
 30
0.0
 10
7.521
 20
-4.813976377952756
 30
0.0
 10
7.521354330708661
 20
-4.854354330708661
 30
0.0
 10
7.521354330708661
 20
-4.854354330708661
 30
0.0
 10
7.521354330708661
 20
-4.854354330708661
 30
0.0
 10
7.522078740157481
 20
-4.937551181102362
 30
0.0
 10
7.522078740157481
 20
-4.937551181102362
 30
0.0
 10
7.522078740157481
 20
-4.937551181102362
 30
0.0
 10
7.522433070866142
 20
-4.977929133858268
 30
0.0
 10
7.489551181102362
 20
-5.011236220472441
 30
0.0
 10
7.449070866141732
 20
-5.011590551181103
 30
0.0
 10
7.449070866141732
 20
-5.011590551181103
 30
0.0
 10
7.449070866141732
 20
-5.011590551181103
 30
0.0
 10
7.141803149606299
 20
-5.014267716535433
 30
0.0
 10
7.141803149606299
 20
-5.014267716535433
 30
0.0
  0
SPLINE
  5
13B
330
1F
100
AcDbEntity
  8
Layer 1
 62
     1
370
    70
100
AcDbSpline
210
0.0
220
0.0
230
1.0
 70
     8
 71
     3
 72
    20
 73
    16
 74
     0
 42
0.0000000001
 43
0.0000000001
 40
0.0
 40
0.0
 40
0.0
 40
0.0
 40
0.25
 40
0.25
 40
0.25
 40
0.25
 40
0.5
 40
0.5
 40
0.5
 40
0.5
 40
0.75
 40
0.75
 40
0.75
 40
0.75
 40
1.0
 40
1.0
 40
1.0
 40
1.0
 10
8.354771653543308
 20
-5.340763779527559
 30
0.0
 10
8.194251968503938
 20
-5.619889763779527
 30
0.0
 10
7.89303937007874
 20
-5.807889763779528
 30
0.0
 10
7.548007874015748
 20
-5.807889763779528
 30
0.0
 10
7.548007874015748
 20
-5.807889763779528
 30
0.0
 10
7.034464566929134
 20
-5.807889763779528
 30
0.0
 10
6.618
 20
-5.391433070866142
 30
0.0
 10
6.618
 20
-4.877889763779527
 30
0.0
 10
6.618
 20
-4.877889763779527
 30
0.0
 10
6.618
 20
-4.364354330708662
 30
0.0
 10
7.034464566929134
 20
-3.947889763779528
 30
0.0
 10
7.548007874015748
 20
-3.947889763779528
 30
0.0
 10
7.548007874015748
 20
-3.947889763779528
 30
0.0
 10
7.89303937007874
 20
-3.947889763779528
 30
0.0
 10
8.194251968503938
 20
-4.135897637795275
 30
0.0
 10
8.354771653543308
 20
-4.415015748031496
 30
0.0
  0
SPLINE
  5
13C
330
1F
100
AcDbEntity
  8
Layer 1
 62
     1
370
    70
100
AcDbSpline
210
0.0
220
0.0
230
1.0
 70
    11
 71
     3
 72
    20
 73
    16
 74
     0
 42
0.0000000001
 43
0.0000000001
 40
0.0
 40
0.0
 40
0.0
 40
0.0
 40
0.25
 40
0.25
 40
0.25
 40
0.25
 40
0.5
 40
0.5
 40
0.5
 40
0.5
 40
0.75
 40
0.75
 40
0.75
 40
0.75
 40
1.0
 40
1.0
 40
1.0
 40
1.0
 10
7.548007874015748
 20
-3.527889763779528
 30
0.0
 10
8.293472440944882
 20
-3.527889763779528
 30
0.0
 10
8.898007874015748
 20
-4.132433070866142
 30
0.0
 10
8.898007874015748
 20
-4.877889763779527
 30
0.0
 10
8.898007874015748
 20
-4.877889763779527
 30
0.0
 10
8.898007874015748
 20
-5.623354330708661
 30
0.0
 10
8.293472440944882
 20
-6.227889763779528
 30
0.0
 10
7.548007874015748
 20
-6.227889763779528
 30
0.0
 10
7.548007874015748
 20
-6.227889763779528
 30
0.0
 10
6.802543307086614
 20
-6.227889763779528
 30
0.0
 10
6.198007874015748
 20
-5.623354330708661
 30
0.0
 10
6.198007874015748
 20
-4.877889763779527
 30
0.0
 10
6.198007874015748
 20
-4.877889763779527
 30
0.0
 10
6.198007874015748
 20
-4.132433070866142
 30
0.0
 10
6.802543307086614
 20
-3.527889763779528
 30
0.0
 10
7.548007874015748
 20
-3.527889763779528
 30
0.0
  0
SPLINE
  5
13D
330
1F
100
AcDbEntity
  8
Layer 1
 62
     1
370
    70
100
AcDbSpline
210
0.0
220
0.0
230
1.0
 70
     8
 71
     3
 72
    12
 73
     8
 74
     0
 42
0.0000000001
 43
0.0000000001
 40
0.0
 40
0.0
 40
0.0
 40
0.0
 40
0.5
 40
0.5
 40
0.5
 40
0.5
 40
1.0
 40
1.0
 40
1.0
 40
1.0
 10
8.354771653543308
 20
-4.415015748031496
 30
0.0
 10
8.078472440944882
 20
-4.415015748031496
 30
0.0
 10
7.802181102362205
 20
-4.415015748031496
 30
0.0
 10
7.525889763779528
 20
-4.415015748031496
 30
0.0
 10
7.525889763779528
 20
-4.415015748031496
 30
0.0
 10
7.330590551181102
 20
-4.430055118110237
 30
0.0
 10
7.199582677165354
 20
-4.547007874015748
 30
0.0
 10
7.127110236220473
 20
-4.784393700787402
 30
0.0
  0
SPLINE
  5
13E
330
1F
100
AcDbEntity
  8
Layer 1
 62
     1
370
    70
100
AcDbSpline
210
0.0
220
0.0
230
1.0
 70
     8
 71
     3
 72
    12
 73
     8
 74
     0
 42
0.0000000001
 43
0.0000000001
 40
0.0
 40
0.0
 40
0.0
 40
0.0
 40
0.5
 40
0.5
 40
0.5
 40
0.5
 40
1.0
 40
1.0
 40
1.0
 40
1.0
 10
8.354771653543308
 20
-5.340763779527559
 30
0.0
 10
8.078472440944882
 20
-5.340763779527559
 30
0.0
 10
7.802181102362205
 20
-5.340763779527559
 30
0.0
 10
7.525889763779528
 20
-5.340763779527559
 30
0.0
 10
7.525889763779528
 20
-5.340763779527559
 30
0.0
 10
7.330590551181102
 20
-5.325724409448819
 30
0.0
 10
7.214275590551181
 20
-5.251661417322834
 30
0.0
 10
7.141803149606299
 20
-5.014275590551181
 30
0.0
  0
SPLINE
  5
13F
330
1F
100
AcDbEntity
  8
Layer 1
 62
     1
370
    70
100
AcDbSpline
210
0.0
220
0.0
230
1.0
 70
    11
 71
     3
 72
    20
 73
    16
 74
     0
 42
0.0000000001
 43
0.0000000001
 40
0.0
 40
0.0
 40
0.0
 40
0.0
 40
0.25
 40
0.25
 40
0.25
 40
0.25
 40
0.5
 40
0.5
 40
0.5
 40
0.5
 40
0.75
 40
0.75
 40
0.75
 40
0.75
 40
1.0
 40
1.0
 40
1.0
 40
1.0
 10
-6.17851968503937
 20
1.916338582677165
 30
0.0
 10
-4.720732283464567
 20
1.916338582677165
 30
0.0
 10
-3.53851968503937
 20
0.7341181102362204
 30
0.0
 10
-3.53851968503937
 20
-0.7236614173228346
 30
0.0
 10
-3.53851968503937
 20
-0.7236614173228346
 30
0.0
 10
-3.53851968503937
 20
-2.181448818897638
 30
0.0
 10
-4.720732283464567
 20
-3.363661417322835
 30
0.0
 10
-6.17851968503937
 20
-3.363661417322835
 30
0.0
 10
-6.17851968503937
 20
-3.363661417322835
 30
0.0
 10
-7.636314960629921
 20
-3.363661417322835
 30
0.0
 10
-8.81851968503937
 20
-2.181448818897638
 30
0.0
 10
-8.81851968503937
 20
-0.7236614173228346
 30
0.0
 10
-8.81851968503937
 20
-0.7236614173228346
 30
0.0
 10
-8.81851968503937
 20
0.7341181102362204
 30
0.0
 10
-7.636314960629921
 20
1.916338582677165
 30
0.0
 10
-6.17851968503937
 20
1.916338582677165
 30
0.0
  0
SPLINE
  5
140
330
1F
100
AcDbEntity
  8
Layer 1
 62
     1
370
    70
100
AcDbSpline
210
0.0
220
0.0
230
1.0
 70
    11
 71
     3
 72
    20
 73
    16
 74
     0
 42
0.0000000001
 43
0.0000000001
 40
0.0
 40
0.0
 40
0.0
 40
0.0
 40
0.25
 40
0.25
 40
0.25
 40
0.25
 40
0.5
 40
0.5
 40
0.5
 40
0.5
 40
0.75
 40
0.75
 40
0.75
 40
0.75
 40
1.0
 40
1.0
 40
1.0
 40
1.0
 10
-6.17851968503937
 20
1.426338582677165
 30
0.0
 10
-4.991299212598425
 20
1.426338582677165
 30
0.0
 10
-4.02851968503937
 20
0.4635511811023622
 30
0.0
 10
-4.02851968503937
 20
-0.7236614173228346
 30
0.0
 10
-4.02851968503937
 20
-0.7236614173228346
 30
0.0
 10
-4.02851968503937
 20
-1.91088188976378
 30
0.0
 10
-4.991299212598425
 20
-2.873661417322835
 30
0.0
 10
-6.17851968503937
 20
-2.873661417322835
 30
0.0
 10
-6.17851968503937
 20
-2.873661417322835
 30
0.0
 10
-7.365748031496063
 20
-2.873661417322835
 30
0.0
 10
-8.32851968503937
 20
-1.91088188976378
 30
0.0
 10
-8.32851968503937
 20
-0.7236614173228346
 30
0.0
 10
-8.32851968503937
 20
-0.7236614173228346
 30
0.0
 10
-8.32851968503937
 20
0.4635511811023622
 30
0.0
 10
-7.365748031496063
 20
1.426338582677165
 30
0.0
 10
-6.17851968503937
 20
1.426338582677165
 30
0.0
  0
SPLINE
  5
141
330
1F
100
AcDbEntity
  8
Layer 1
 62
     1
370
    70
100
AcDbSpline
210
0.0
220
0.0
230
1.0
 70
     8
 71
     3
 72
     8
 73
     4
 74
     0
 42
0.0000000001
 43
0.0000000001
 40
0.0
 40
0.0
 40
0.0
 40
0.0
 40
1.0
 40
1.0
 40
1.0
 40
1.0
 10
5.479023622047244
 20
-7.502527559055118
 30
0.0
 10
5.061102362204724
 20
-7.315818897637795
 30
0.0
 10
4.63392125984252
 20
-7.315818897637795
 30
0.0
 10
4.197496062992126
 20
-7.502527559055118
 30
0.0
  0
SPLINE
  5
142
330
1F
100
AcDbEntity
  8
Layer 1
 62
     1
370
    70
100
AcDbSpline
210
0.0
220
0.0
230
1.0
 70
     8
 71
     3
 72
     8
 73
     4
 74
     0
 42
0.0000000001
 43
0.0000000001
 40
0.0
 40
0.0
 40
0.0
 40
0.0
 40
1.0
 40
1.0
 40
1.0
 40
1.0
 10
4.197496062992126
 20
-7.502527559055118
 30
0.0
 10
4.035354330708661
 20
-7.571314960629921
 30
0.0
 10
3.961653543307087
 20
-7.625370078740158
 30
0.0
 10
3.976393700787402
 20
-7.664661417322835
 30
0.0
  0
SPLINE
  5
143
330
1F
100
AcDbEntity
  8
Layer 1
 62
     1
370
    70
100
AcDbSpline
210
0.0
220
0.0
230
1.0
 70
     8
 71
     3
 72
     8
 73
     4
 74
     0
 42
0.0000000001
 43
0.0000000001
 40
0.0
 40
0.0
 40
0.0
 40
0.0
 40
1.0
 40
1.0
 40
1.0
 40
1.0
 10
3.976393700787402
 20
-8.47551968503937
 30
0.0
 10
3.970251968503937
 20
-8.611661417322834
 30
0.0
 10
4.020622047244094
 20
-8.681692913385827
 30
0.0
 10
4.12748031496063
 20
-8.685574803149606
 30
0.0
  0
SPLINE
  5
144
330
1F
100
AcDbEntity
  8
Layer 1
 62
     1
370
    70
100
AcDbSpline
210
0.0
220
0.0
230
1.0
 70
    24
 71
     3
 72
     8
 73
     4
 74
     0
 42
0.0000000001
 43
0.0000000001
 40
0.0
 40
0.0
 40
0.0
 40
0.0
 40
1.0
 40
1.0
 40
1.0
 40
1.0
 10
4.12748031496063
 20
-8.685574803149606
 30
0.0
 10
4.12748031496063
 20
-8.685574803149606
 30
0.0
 10
4.838259842519685
 20
-8.685574803149606
 30
0.0
 10
4.838259842519685
 20
-8.685574803149606
 30
0.0
  0
SPLINE
  5
145
330
1F
100
AcDbEntity
  8
Layer 1
 62
     1
370
    70
100
AcDbSpline
210
0.0
220
0.0
230
1.0
 70
    24
 71
     3
 72
     8
 73
     4
 74
     0
 42
0.0000000001
 43
0.0000000001
 40
0.0
 40
0.0
 40
0.0
 40
0.0
 40
1.0
 40
1.0
 40
1.0
 40
1.0
 10
3.976393700787402
 20
-7.664661417322835
 30
0.0
 10
3.976393700787402
 20
-7.664661417322835
 30
0.0
 10
3.976393700787402
 20
-8.47551968503937
 30
0.0
 10
3.976393700787402
 20
-8.47551968503937
 30
0.0
  0
SPLINE
  5
146
330
1F
100
AcDbEntity
  8
Layer 1
 62
     1
370
    70
100
AcDbSpline
210
0.0
220
0.0
230
1.0
 70
     8
 71
     3
 72
     8
 73
     4
 74
     0
 42
0.0000000001
 43
0.0000000001
 40
0.0
 40
0.0
 40
0.0
 40
0.0
 40
1.0
 40
1.0
 40
1.0
 40
1.0
 10
5.479023622047244
 20
-7.502527559055118
 30
0.0
 10
5.641165354330709
 20
-7.571314960629921
 30
0.0
 10
5.714866141732283
 20
-7.625370078740158
 30
0.0
 10
5.700125984251969
 20
-7.664661417322835
 30
0.0
  0
SPLINE
  5
147
330
1F
100
AcDbEntity
  8
Layer 1
 62
     1
370
    70
100
AcDbSpline
210
0.0
220
0.0
230
1.0
 70
     8
 71
     3
 72
     8
 73
     4
 74
     0
 42
0.0000000001
 43
0.0000000001
 40
0.0
 40
0.0
 40
0.0
 40
0.0
 40
1.0
 40
1.0
 40
1.0
 40
1.0
 10
5.700125984251969
 20
-8.47551968503937
 30
0.0
 10
5.706267716535433
 20
-8.611661417322834
 30
0.0
 10
5.655897637795276
 20
-8.681692913385827
 30
0.0
 10
5.549039370078741
 20
-8.685574803149606
 30
0.0
  0
SPLINE
  5
148
330
1F
100
AcDbEntity
  8
Layer 1
 62
     1
370
    70
100
AcDbSpline
210
0.0
220
0.0
230
1.0
 70
    24
 71
     3
 72
     8
 73
     4
 74
     0
 42
0.0000000001
 43
0.0000000001
 40
0.0
 40
0.0
 40
0.0
 40
0.0
 40
1.0
 40
1.0
 40
1.0
 40
1.0
 10
5.549039370078741
 20
-8.685574803149606
 30
0.0
 10
5.549039370078741
 20
-8.685574803149606
 30
0.0
 10
4.838259842519685
 20
-8.685574803149606
 30
0.0
 10
4.838259842519685
 20
-8.685574803149606
 30
0.0
  0
SPLINE
  5
149
330
1F
100
AcDbEntity
  8
Layer 1
 62
     1
370
    70
100
AcDbSpline
210
0.0
220
0.0
230
1.0
 70
    24
 71
     3
 72
     8
 73
     4
 74
     0
 42
0.0000000001
 43
0.0000000001
 40
0.0
 40
0.0
 40
0.0
 40
0.0
 40
1.0
 40
1.0
 40
1.0
 40
1.0
 10
5.700125984251969
 20
-7.664661417322835
 30
0.0
 10
5.700125984251969
 20
-7.664661417322835
 30
0.0
 10
5.700125984251969
 20
-8.47551968503937
 30
0.0
 10
5.700125984251969
 20
-8.47551968503937
 30
0.0
  0
LWPOLYLINE
  5
14A
330
1F
100
AcDbEntity
  8
Layer 1
 62
     1
370
    70
100
AcDbPolyline
 90
        5
 70
     1
 43
0.0
 10
-12.0
 20
-9.0
 10
12.0
 20
-9.0
 10
12.0
 20
9.0
 10
-12.0
 20
9.0
 10
-12.0
 20
-9.0
  0
ENDSEC
  0
SECTION
  2
OBJECTS
  0
DICTIONARY
  5
C
330
0
100
AcDbDictionary
281
     1
  3
ACAD_GROUP
350
D
  3
ACAD_LAYOUT
350
1A
  3
ACAD_MLEADERSTYLE
350
14C
  3
ACAD_MLINESTYLE
350
17
  3
ACAD_PLOTSETTINGS
350
19
  3
ACAD_PLOTSTYLENAME
350
E
  3
ACAD_SCALELIST
350
3B
  3
ACAD_TABLESTYLE
350
14B
  3
ACAD_VISUALSTYLE
350
2A
  0
DICTIONARY
  5
D
102
{ACAD_REACTORS
330
C
102
}
330
C
100
AcDbDictionary
281
     1
  0
DICTIONARY
  5
1A
102
{ACAD_REACTORS
330
C
102
}
330
C
100
AcDbDictionary
281
     1
  3
Layout1
350
1E
  3
Layout2
350
26
  3
Model
350
22
  0
DICTIONARY
  5
14C
102
{ACAD_REACTORS
330
C
102
}
330
C
100
AcDbDictionary
281
     1
  0
DICTIONARY
  5
17
102
{ACAD_REACTORS
330
C
102
}
330
C
100
AcDbDictionary
281
     1
  3
Standard
350
18
  0
DICTIONARY
  5
19
102
{ACAD_REACTORS
330
C
102
}
330
C
100
AcDbDictionary
281
     1
  0
ACDBDICTIONARYWDFLT
  5
E
102
{ACAD_REACTORS
330
C
102
}
330
C
100
AcDbDictionary
281
     1
  3
Normal
350
F
100
AcDbDictionaryWithDefault
340
F
  0
DICTIONARY
  5
3B
102
{ACAD_REACTORS
330
C
102
}
330
C
100
AcDbDictionary
281
     1
  3
A0
350
3C
  3
A1
350
3D
  3
A2
350
3E
  3
A3
350
3F
  3
A4
350
40
  3
A5
350
41
  3
A6
350
42
  3
A7
350
43
  3
A8
350
44
  3
A9
350
45
  3
B0
350
46
  3
B1
350
47
  3
B2
350
48
  3
B3
350
49
  3
B4
350
4A
  3
B5
350
4B
  3
B6
350
4C
  3
B7
350
4D
  3
B8
350
4E
  3
B9
350
4F
  3
C0
350
50
  3
C1
350
51
  3
C2
350
52
  3
C3
350
53
  3
C4
350
54
  3
C5
350
55
  3
C6
350
56
  3
C7
350
57
  3
C8
350
58
  3
C9
350
59
  3
D0
350
5A
  3
D1
350
5B
  3
D2
350
5C
  0
DICTIONARY
  5
14B
102
{ACAD_REACTORS
330
C
102
}
330
C
100
AcDbDictionary
281
     1
  0
DICTIONARY
  5
2A
102
{ACAD_REACTORS
330
C
102
}
330
C
100
AcDbDictionary
281
     1
  3
2dWireframe
350
2F
  3
3D Hidden
350
31
  3
3dWireframe
350
30
  3
Basic
350
32
  3
Brighten
350
36
  3
ColorChange
350
3A
  3
Conceptual
350
34
  3
Dim
350
35
  3
Facepattern
350
39
  3
Flat
350
2B
  3
FlatWithEdges
350
2C
  3
Gouraud
350
2D
  3
GouraudWithEdges
350
2E
  3
Linepattern
350
38
  3
Realistic
350
33
  3
Thicken
350
37
  0
LAYOUT
  5
1E
102
{ACAD_REACTORS
330
1A
102
}
330
1A
100
AcDbPlotSettings
  1

  2
none_device
  4

  6

 40
0.0
 41
0.0
 42
0.0
 43
0.0
 44
0.0
 45
0.0
 46
0.0
 47
0.0
 48
0.0
 49
0.0
140
0.0
141
0.0
142
1.0
143
1.0
 70
   688
 72
     0
 73
     0
 74
     5
  7

 75
    16
 76
     0
 77
     2
 78
   300
147
1.0
148
0.0
149
0.0
100
AcDbLayout
  1
Layout1
 70
     1
 71
     1
 10
0.0
 20
0.0
 11
12.0
 21
9.0
 12
0.0
 22
0.0
 32
0.0
 14
1.000000000000000E+20
 24
1.000000000000000E+20
 34
1.000000000000000E+20
 15
-1.000000000000000E+20
 25
-1.000000000000000E+20
 35
-1.000000000000000E+20
146
0.0
 13
0.0
 23
0.0
 33
0.0
 16
1.0
 26
0.0
 36
0.0
 17
0.0
 27
1.0
 37
0.0
 76
     0
330
1B
  0
LAYOUT
  5
26
102
{ACAD_REACTORS
330
1A
102
}
330
1A
100
AcDbPlotSettings
  1

  2
none_device
  4

  6

 40
0.0
 41
0.0
 42
0.0
 43
0.0
 44
0.0
 45
0.0
 46
0.0
 47
0.0
 48
0.0
 49
0.0
140
0.0
141
0.0
142
1.0
143
1.0
 70
   688
 72
     0
 73
     0
 74
     5
  7

 75
    16
 76
     0
 77
     2
 78
   300
147
1.0
148
0.0
149
0.0
100
AcDbLayout
  1
Layout2
 70
     1
 71
     2
 10
0.0
 20
0.0
 11
0.0
 21
0.0
 12
0.0
 22
0.0
 32
0.0
 14
0.0
 24
0.0
 34
0.0
 15
0.0
 25
0.0
 35
0.0
146
0.0
 13
0.0
 23
0.0
 33
0.0
 16
1.0
 26
0.0
 36
0.0
 17
0.0
 27
1.0
 37
0.0
 76
     0
330
23
  0
LAYOUT
  5
22
102
{ACAD_REACTORS
330
1A
102
}
330
1A
100
AcDbPlotSettings
  1

  2
none_device
  4

  6

 40
0.0
 41
0.0
 42
0.0
 43
0.0
 44
0.0
 45
0.0
 46
0.0
 47
0.0
 48
0.0
 49
0.0
140
0.0
141
0.0
142
1.0
143
1.0
 70
  1712
 72
     0
 73
     0
 74
     0
  7

 75
     0
 76
     0
 77
     2
 78
   300
147
1.0
148
0.0
149
0.0
100
AcDbLayout
  1
Model
 70
     1
 71
     0
 10
0.0
 20
0.0
 11
12.0
 21
9.0
 12
0.0
 22
0.0
 32
0.0
 14
-12.01388976377953
 24
-9.013889763779527
 34
0.0
 15
12.01388976377953
 25
9.013889763779527
 35
0.0
146
0.0
 13
0.0
 23
0.0
 33
0.0
 16
1.0
 26
0.0
 36
0.0
 17
0.0
 27
1.0
 37
0.0
 76
     0
330
1F
331
29
  0
MLINESTYLE
  5
18
102
{ACAD_REACTORS
330
17
102
}
330
17
100
AcDbMlineStyle
  2
Standard
 70
     0
  3

 62
   256
 51
90.0
 52
90.0
 71
     2
 49
0.5
 62
   256
  6
BYLAYER
 49
-0.5
 62
   256
  6
BYLAYER
  0
ACDBPLACEHOLDER
  5
F
102
{ACAD_REACTORS
330
E
102
}
330
E
  0
SCALE
  5
3C
102
{ACAD_REACTORS
330
3B
102
}
330
3B
100
AcDbScale
 70
     0
300
1:1
140
1.0
141
1.0
290
     1
  0
SCALE
  5
3D
102
{ACAD_REACTORS
330
3B
102
}
330
3B
100
AcDbScale
 70
     0
300
1:2
140
1.0
141
2.0
290
     0
  0
SCALE
  5
3E
102
{ACAD_REACTORS
330
3B
102
}
330
3B
100
AcDbScale
 70
     0
300
1:4
140
1.0
141
4.0
290
     0
  0
SCALE
  5
3F
102
{ACAD_REACTORS
330
3B
102
}
330
3B
100
AcDbScale
 70
     0
300
1:5
140
1.0
141
5.0
290
     0
  0
SCALE
  5
40
102
{ACAD_REACTORS
330
3B
102
}
330
3B
100
AcDbScale
 70
     0
300
1:8
140
1.0
141
8.0
290
     0
  0
SCALE
  5
41
102
{ACAD_REACTORS
330
3B
102
}
330
3B
100
AcDbScale
 70
     0
300
1:10
140
1.0
141
10.0
290
     0
  0
SCALE
  5
42
102
{ACAD_REACTORS
330
3B
102
}
330
3B
100
AcDbScale
 70
     0
300
1:16
140
1.0
141
16.0
290
     0
  0
SCALE
  5
43
102
{ACAD_REACTORS
330
3B
102
}
330
3B
100
AcDbScale
 70
     0
300
1:20
140
1.0
141
20.0
290
     0
  0
SCALE
  5
44
102
{ACAD_REACTORS
330
3B
102
}
330
3B
100
AcDbScale
 70
     0
300
1:30
140
1.0
141
30.0
290
     0
  0
SCALE
  5
45
102
{ACAD_REACTORS
330
3B
102
}
330
3B
100
AcDbScale
 70
     0
300
1:40
140
1.0
141
40.0
290
     0
  0
SCALE
  5
46
102
{ACAD_REACTORS
330
3B
102
}
330
3B
100
AcDbScale
 70
     0
300
1:50
140
1.0
141
50.0
290
     0
  0
SCALE
  5
47
102
{ACAD_REACTORS
330
3B
102
}
330
3B
100
AcDbScale
 70
     0
300
1:100
140
1.0
141
100.0
290
     0
  0
SCALE
  5
48
102
{ACAD_REACTORS
330
3B
102
}
330
3B
100
AcDbScale
 70
     0
300
2:1
140
2.0
141
1.0
290
     0
  0
SCALE
  5
49
102
{ACAD_REACTORS
330
3B
102
}
330
3B
100
AcDbScale
 70
     0
300
4:1
140
4.0
141
1.0
290
     0
  0
SCALE
  5
4A
102
{ACAD_REACTORS
330
3B
102
}
330
3B
100
AcDbScale
 70
     0
300
8:1
140
8.0
141
1.0
290
     0
  0
SCALE
  5
4B
102
{ACAD_REACTORS
330
3B
102
}
330
3B
100
AcDbScale
 70
     0
300
10:1
140
10.0
141
1.0
290
     0
  0
SCALE
  5
4C
102
{ACAD_REACTORS
330
3B
102
}
330
3B
100
AcDbScale
 70
     0
300
100:1
140
100.0
141
1.0
290
     0
  0
SCALE
  5
4D
102
{ACAD_REACTORS
330
3B
102
}
330
3B
100
AcDbScale
 70
     0
300
1/128" = 1'-0"
140
0.0078125
141
12.0
290
     0
  0
SCALE
  5
4E
102
{ACAD_REACTORS
330
3B
102
}
330
3B
100
AcDbScale
 70
     0
300
1/64" = 1'-0"
140
0.015625
141
12.0
290
     0
  0
SCALE
  5
4F
102
{ACAD_REACTORS
330
3B
102
}
330
3B
100
AcDbScale
 70
     0
300
1/32" = 1'-0"
140
0.03125
141
12.0
290
     0
  0
SCALE
  5
50
102
{ACAD_REACTORS
330
3B
102
}
330
3B
100
AcDbScale
 70
     0
300
1/16" = 1'-0"
140
0.0625
141
12.0
290
     0
  0
SCALE
  5
51
102
{ACAD_REACTORS
330
3B
102
}
330
3B
100
AcDbScale
 70
     0
300
3/32" = 1'-0"
140
0.09375
141
12.0
290
     0
  0
SCALE
  5
52
102
{ACAD_REACTORS
330
3B
102
}
330
3B
100
AcDbScale
 70
     0
300
1/8" = 1'-0"
140
0.125
141
12.0
290
     0
  0
SCALE
  5
53
102
{ACAD_REACTORS
330
3B
102
}
330
3B
100
AcDbScale
 70
     0
300
3/16" = 1'-0"
140
0.1875
141
12.0
290
     0
  0
SCALE
  5
54
102
{ACAD_REACTORS
330
3B
102
}
330
3B
100
AcDbScale
 70
     0
300
1/4" = 1'-0"
140
0.25
141
12.0
290
     0
  0
SCALE
  5
55
102
{ACAD_REACTORS
330
3B
102
}
330
3B
100
AcDbScale
 70
     0
300
3/8" = 1'-0"
140
0.375
141
12.0
290
     0
  0
SCALE
  5
56
102
{ACAD_REACTORS
330
3B
102
}
330
3B
100
AcDbScale
 70
     0
300
1/2" = 1'-0"
140
0.5
141
12.0
290
     0
  0
SCALE
  5
57
102
{ACAD_REACTORS
330
3B
102
}
330
3B
100
AcDbScale
 70
     0
300
3/4" = 1'-0"
140
0.75
141
12.0
290
     0
  0
SCALE
  5
58
102
{ACAD_REACTORS
330
3B
102
}
330
3B
100
AcDbScale
 70
     0
300
1" = 1'-0"
140
1.0
141
12.0
290
     0
  0
SCALE
  5
59
102
{ACAD_REACTORS
330
3B
102
}
330
3B
100
AcDbScale
 70
     0
300
1-1/2" = 1'-0"
140
1.5
141
12.0
290
     0
  0
SCALE
  5
5A
102
{ACAD_REACTORS
330
3B
102
}
330
3B
100
AcDbScale
 70
     0
300
3" = 1'-0"
140
3.0
141
12.0
290
     0
  0
SCALE
  5
5B
102
{ACAD_REACTORS
330
3B
102
}
330
3B
100
AcDbScale
 70
     0
300
6" = 1'-0"
140
6.0
141
12.0
290
     0
  0
SCALE
  5
5C
102
{ACAD_REACTORS
330
3B
102
}
330
3B
100
AcDbScale
 70
     0
300
1'-0" = 1'-0"
140
12.0
141
12.0
290
     0
  0
VISUALSTYLE
  5
2F
102
{ACAD_REACTORS
330
2A
102
}
330
2A
100
AcDbVisualStyle
  2
2dWireframe
 70
     4
 71
     0
 72
     2
 73
     0
 90
        0
 40
-0.6
 41
-30.0
 62
     5
 63
     7
421
 16777215
 74
     1
 91
        4
 64
     7
 65
   257
 75
     1
175
     1
 42
1.0
 92
        0
 66
   257
 43
1.0
 76
     1
 77
     6
 78
     2
 67
     7
 79
     5
170
     0
171
     0
290
     0
174
     0
 93
        1
 44
0.0
173
     0
291
     0
 45
0.0
  0
VISUALSTYLE
  5
31
102
{ACAD_REACTORS
330
2A
102
}
330
2A
100
AcDbVisualStyle
  2
3D Hidden
 70
     6
 71
     1
 72
     2
 73
     2
 90
        0
 40
-0.6
 41
-30.0
 62
     5
 63
     7
421
 16777215
 74
     2
 91
        2
 64
     7
 65
   257
 75
     2
175
     1
 42
40.0
 92
        0
 66
   257
 43
1.0
 76
     1
 77
     6
 78
     2
 67
     7
 79
     3
170
     0
171
     0
290
     0
174
     0
 93
        1
 44
0.0
173
     0
291
     0
 45
0.0
  0
VISUALSTYLE
  5
30
102
{ACAD_REACTORS
330
2A
102
}
330
2A
100
AcDbVisualStyle
  2
3dWireframe
 70
     5
 71
     0
 72
     2
 73
     0
 90
        0
 40
-0.6
 41
-30.0
 62
     5
 63
     7
421
 16777215
 74
     1
 91
        4
 64
     7
 65
   257
 75
     1
175
     1
 42
1.0
 92
        0
 66
   257
 43
1.0
 76
     1
 77
     6
 78
     2
 67
     7
 79
     5
170
     0
171
     0
290
     0
174
     0
 93
        1
 44
0.0
173
     0
291
     0
 45
0.0
  0
VISUALSTYLE
  5
32
102
{ACAD_REACTORS
330
2A
102
}
330
2A
100
AcDbVisualStyle
  2
Basic
 70
     7
 71
     1
 72
     0
 73
     1
 90
        0
 40
-0.6
 41
-30.0
 62
     5
 63
     7
421
 16777215
 74
     0
 91
        4
 64
     7
 65
   257
 75
     1
175
     1
 42
1.0
 92
        8
 66
     7
 43
1.0
 76
     1
 77
     6
 78
     2
 67
     7
 79
     5
170
     0
171
     0
290
     0
174
     0
 93
        1
 44
0.0
173
     0
291
     1
 45
0.0
  0
VISUALSTYLE
  5
36
102
{ACAD_REACTORS
330
2A
102
}
330
2A
100
AcDbVisualStyle
  2
Brighten
 70
    12
 71
     2
 72
     2
 73
     0
 90
        0
 40
-0.6
 41
-30.0
 62
     5
 63
     7
421
 16777215
 74
     1
 91
        4
 64
     7
 65
   257
 75
     1
175
     1
 42
1.0
 92
        8
 66
     7
 43
1.0
 76
     1
 77
     6
 78
     2
 67
     7
 79
     5
170
     0
171
     0
290
     0
174
     0
 93
        1
 44
50.0
173
     0
291
     1
 45
0.0
  0
VISUALSTYLE
  5
3A
102
{ACAD_REACTORS
330
2A
102
}
330
2A
100
AcDbVisualStyle
  2
ColorChange
 70
    16
 71
     2
 72
     2
 73
     3
 90
        0
 40
-0.6
 41
-30.0
 62
     5
 63
     8
421
  8421504
 74
     1
 91
        4
 64
     7
 65
   257
 75
     1
175
     1
 42
1.0
 92
        8
 66
     8
424
  8421504
 43
1.0
 76
     1
 77
     6
 78
     2
 67
     7
 79
     5
170
     0
171
     0
290
     0
174
     0
 93
        1
 44
0.0
173
     0
291
     1
 45
0.0
  0
VISUALSTYLE
  5
34
102
{ACAD_REACTORS
330
2A
102
}
330
2A
100
AcDbVisualStyle
  2
Conceptual
 70
     9
 71
     3
 72
     2
 73
     0
 90
        0
 40
-0.6
 41
-30.0
 62
     5
 63
     7
421
 16777215
 74
     2
 91
        2
 64
     7
 65
   257
 75
     1
175
     1
 42
40.0
 92
        8
 66
     7
 43
1.0
 76
     1
 77
     6
 78
     2
 67
     7
 79
     3
170
     0
171
     0
290
     0
174
     0
 93
        1
 44
0.0
173
     0
291
     0
 45
0.0
  0
VISUALSTYLE
  5
35
102
{ACAD_REACTORS
330
2A
102
}
330
2A
100
AcDbVisualStyle
  2
Dim
 70
    11
 71
     2
 72
     2
 73
     0
 90
        0
 40
-0.6
 41
-30.0
 62
     5
 63
     7
421
 16777215
 74
     1
 91
        4
 64
     7
 65
   257
 75
     1
175
     1
 42
1.0
 92
        8
 66
     7
 43
1.0
 76
     1
 77
     6
 78
     2
 67
     7
 79
     5
170
     0
171
     0
290
     0
174
     0
 93
        1
 44
-50.0
173
     0
291
     1
 45
0.0
  0
VISUALSTYLE
  5
39
102
{ACAD_REACTORS
330
2A
102
}
330
2A
100
AcDbVisualStyle
  2
Facepattern
 70
    15
 71
     2
 72
     2
 73
     0
 90
        0
 40
-0.6
 41
-30.0
 62
     5
 63
     7
421
 16777215
 74
     1
 91
        4
 64
     7
 65
   257
 75
     1
175
     1
 42
1.0
 92
        8
 66
     7
 43
1.0
 76
     1
 77
     6
 78
     2
 67
     7
 79
     5
170
     0
171
     0
290
     0
174
     0
 93
        1
 44
0.0
173
     0
291
     1
 45
0.0
  0
VISUALSTYLE
  5
2B
102
{ACAD_REACTORS
330
2A
102
}
330
2A
100
AcDbVisualStyle
  2
Flat
 70
     0
 71
     2
 72
     1
 73
     1
 90
        2
 40
-0.6
 41
30.0
 62
     5
 63
     7
421
 16777215
 74
     0
 91
        4
 64
     7
 65
   257
 75
     1
175
     1
 42
1.0
 92
        8
 66
     7
 43
1.0
 76
     1
 77
     6
 78
     2
 67
     7
 79
     5
170
     0
171
     0
290
     0
174
     0
 93
       13
 44
0.0
173
     0
291
     1
 45
0.0
  0
VISUALSTYLE
  5
2C
102
{ACAD_REACTORS
330
2A
102
}
330
2A
100
AcDbVisualStyle
  2
FlatWithEdges
 70
     1
 71
     2
 72
     1
 73
     1
 90
        2
 40
-0.6
 41
30.0
 62
     5
 63
     7
421
 16777215
 74
     1
 91
        4
 64
     7
 65
   257
 75
     1
175
     1
 42
1.0
 92
        0
 66
   257
 43
1.0
 76
     1
 77
     6
 78
     2
 67
     7
 79
     5
170
     0
171
     0
290
     0
174
     0
 93
       13
 44
0.0
173
     0
291
     1
 45
0.0
  0
VISUALSTYLE
  5
2D
102
{ACAD_REACTORS
330
2A
102
}
330
2A
100
AcDbVisualStyle
  2
Gouraud
 70
     2
 71
     2
 72
     2
 73
     1
 90
        2
 40
-0.6
 41
30.0
 62
     5
 63
     7
421
 16777215
 74
     0
 91
        4
 64
     7
 65
   257
 75
     1
175
     1
 42
1.0
 92
        0
 66
     7
 43
1.0
 76
     1
 77
     6
 78
     2
 67
     7
 79
     5
170
     0
171
     0
290
     0
174
     0
 93
       13
 44
0.0
173
     0
291
     1
 45
0.0
  0
VISUALSTYLE
  5
2E
102
{ACAD_REACTORS
330
2A
102
}
330
2A
100
AcDbVisualStyle
  2
GouraudWithEdges
 70
     3
 71
     2
 72
     2
 73
     1
 90
        2
 40
-0.6
 41
30.0
 62
     5
 63
     7
421
 16777215
 74
     1
 91
        4
 64
     7
 65
   257
 75
     1
175
     1
 42
1.0
 92
        0
 66
   257
 43
1.0
 76
     1
 77
     6
 78
     2
 67
     7
 79
     5
170
     0
171
     0
290
     0
174
     0
 93
       13
 44
0.0
173
     0
291
     1
 45
0.0
  0
VISUALSTYLE
  5
38
102
{ACAD_REACTORS
330
2A
102
}
330
2A
100
AcDbVisualStyle
  2
Linepattern
 70
    14
 71
     2
 72
     2
 73
     0
 90
        0
 40
-0.6
 41
-30.0
 62
     5
 63
     7
421
 16777215
 74
     1
 91
        4
 64
     7
 65
   257
 75
     7
175
     7
 42
1.0
 92
        8
 66
     7
 43
1.0
 76
     1
 77
     6
 78
     2
 67
     7
 79
     5
170
     0
171
     0
290
     0
174
     0
 93
        1
 44
0.0
173
     0
291
     1
 45
0.0
  0
VISUALSTYLE
  5
33
102
{ACAD_REACTORS
330
2A
102
}
330
2A
100
AcDbVisualStyle
  2
Realistic
 70
     8
 71
     2
 72
     2
 73
     0
 90
        0
 40
-0.6
 41
-30.0
 62
     5
 63
     7
421
 16777215
 74
     1
 91
        0
 64
     7
 65
   257
 75
     1
175
     1
 42
1.0
 92
        8
 66
     8
424
  7895160
 43
1.0
 76
     1
 77
     6
 78
     2
 67
     7
 79
     5
170
     0
171
     0
290
     0
174
     0
 93
       13
 44
0.0
173
     0
291
     0
 45
0.0
  0
VISUALSTYLE
  5
37
102
{ACAD_REACTORS
330
2A
102
}
330
2A
100
AcDbVisualStyle
  2
Thicken
 70
    13
 71
     2
 72
     2
 73
     0
 90
        0
 40
-0.6
 41
-30.0
 62
     5
 63
     7
421
 16777215
 74
     1
 91
        4
 64
     7
 65
   257
 75
     1
175
     1
 42
1.0
 92
       12
 66
     7
 43
1.0
 76
     1
 77
     6
 78
     2
 67
     7
 79
     5
170
     0
171
     0
290
     0
174
     0
 93
        1
 44
0.0
173
     0
291
     1
 45
0.0
  0
ENDSEC
  0
EOF
