  0
SECTION
  2
HEADER
  9
$ACADVER
  1
AC1018
  9
$ACADMAINTVER
 70
    76
  9
$DWGCODEPAGE
  3
ANSI_1252
  9
$INSBASE
 10
0.0
 20
0.0
 30
0.0
  9
$EXTMIN
 10
37.92455744898822
 20
39.68324011414873
 30
-122.0166854858398
  9
$EXTMAX
 10
199.0240960943496
 20
94.82595135639243
 30
122.0166854858398
  9
$LIMMIN
 10
0.0
 20
0.0
  9
$LIMMAX
 10
12.0
 20
9.0
  9
$ORTHOMODE
 70
     0
  9
$REGENMODE
 70
     1
  9
$FILLMODE
 70
     1
  9
$QTEXTMODE
 70
     0
  9
$MIRRTEXT
 70
     0
  9
$LTSCALE
 40
1.0
  9
$ATTMODE
 70
     1
  9
$TEXTSIZE
 40
0.2
  9
$TRACEWID
 40
0.05
  9
$TEXTSTYLE
  7
Standard
  9
$CLAYER
  8
0
  9
$CELTYPE
  6
ByLayer
  9
$CECOLOR
 62
   256
  9
$CELTSCALE
 40
1.0
  9
$DISPSILH
 70
     0
  9
$DIMSCALE
 40
1.0
  9
$DIMASZ
 40
0.18
  9
$DIMEXO
 40
0.0625
  9
$DIMDLI
 40
0.38
  9
$DIMRND
 40
0.0
  9
$DIMDLE
 40
0.0
  9
$DIMEXE
 40
0.18
  9
$DIMTP
 40
0.0
  9
$DIMTM
 40
0.0
  9
$DIMTXT
 40
0.18
  9
$DIMCEN
 40
0.09
  9
$DIMTSZ
 40
0.0
  9
$DIMTOL
 70
     0
  9
$DIMLIM
 70
     0
  9
$DIMTIH
 70
     1
  9
$DIMTOH
 70
     1
  9
$DIMSE1
 70
     0
  9
$DIMSE2
 70
     0
  9
$DIMTAD
 70
     0
  9
$DIMZIN
 70
     0
  9
$DIMBLK
  1

  9
$DIMASO
 70
     1
  9
$DIMSHO
 70
     1
  9
$DIMPOST
  1

  9
$DIMAPOST
  1

  9
$DIMALT
 70
     0
  9
$DIMALTD
 70
     2
  9
$DIMALTF
 40
25.4
  9
$DIMLFAC
 40
1.0
  9
$DIMTOFL
 70
     0
  9
$DIMTVP
 40
0.0
  9
$DIMTIX
 70
     0
  9
$DIMSOXD
 70
     0
  9
$DIMSAH
 70
     0
  9
$DIMBLK1
  1

  9
$DIMBLK2
  1

  9
$DIMSTYLE
  2
Standard
  9
$DIMCLRD
 70
     0
  9
$DIMCLRE
 70
     0
  9
$DIMCLRT
 70
     0
  9
$DIMTFAC
 40
1.0
  9
$DIMGAP
 40
0.09
  9
$DIMJUST
 70
     0
  9
$DIMSD1
 70
     0
  9
$DIMSD2
 70
     0
  9
$DIMTOLJ
 70
     1
  9
$DIMTZIN
 70
     0
  9
$DIMALTZ
 70
     0
  9
$DIMALTTZ
 70
     0
  9
$DIMUPT
 70
     0
  9
$DIMDEC
 70
     4
  9
$DIMTDEC
 70
     4
  9
$DIMALTU
 70
     2
  9
$DIMALTTD
 70
     2
  9
$DIMTXSTY
  7
Standard
  9
$DIMAUNIT
 70
     0
  9
$DIMADEC
 70
     0
  9
$DIMALTRND
 40
0.0
  9
$DIMAZIN
 70
     0
  9
$DIMDSEP
 70
    46
  9
$DIMATFIT
 70
     3
  9
$DIMFRAC
 70
     0
  9
$DIMLDRBLK
  1

  9
$DIMLUNIT
 70
     2
  9
$DIMLWD
 70
    -2
  9
$DIMLWE
 70
    -2
  9
$DIMTMOVE
 70
     0
  9
$LUNITS
 70
     2
  9
$LUPREC
 70
     4
  9
$SKETCHINC
 40
0.1
  9
$FILLETRAD
 40
0.0
  9
$AUNITS
 70
     0
  9
$AUPREC
 70
     0
  9
$MENU
  1
.
  9
$ELEVATION
 40
0.0
  9
$PELEVATION
 40
0.0
  9
$THICKNESS
 40
0.0
  9
$LIMCHECK
 70
     0
  9
$CHAMFERA
 40
0.0
  9
$CHAMFERB
 40
0.0
  9
$CHAMFERC
 40
0.0
  9
$CHAMFERD
 40
0.0
  9
$SKPOLY
 70
     0
  9
$TDCREATE
 40
2456916.755590729
  9
$TDUCREATE
 40
2456917.047257396
  9
$TDUPDATE
 40
2456916.799088426
  9
$TDUUPDATE
 40
2456917.090755093
  9
$TDINDWG
 40
0.0435140162
  9
$TDUSRTIMER
 40
0.0434997801
  9
$USRTIMER
 70
     1
  9
$ANGBASE
 50
0.0
  9
$ANGDIR
 70
     0
  9
$PDMODE
 70
     0
  9
$PDSIZE
 40
0.0
  9
$PLINEWID
 40
0.0
  9
$SPLFRAME
 70
     0
  9
$SPLINETYPE
 70
     6
  9
$SPLINESEGS
 70
     8
  9
$HANDSEED
  5
358
  9
$SURFTAB1
 70
     6
  9
$SURFTAB2
 70
     6
  9
$SURFTYPE
 70
     6
  9
$SURFU
 70
     6
  9
$SURFV
 70
     6
  9
$UCSBASE
  2

  9
$UCSNAME
  2

  9
$UCSORG
 10
0.0
 20
0.0
 30
0.0
  9
$UCSXDIR
 10
1.0
 20
0.0
 30
0.0
  9
$UCSYDIR
 10
0.0
 20
1.0
 30
0.0
  9
$UCSORTHOREF
  2

  9
$UCSORTHOVIEW
 70
     0
  9
$UCSORGTOP
 10
0.0
 20
0.0
 30
0.0
  9
$UCSORGBOTTOM
 10
0.0
 20
0.0
 30
0.0
  9
$UCSORGLEFT
 10
0.0
 20
0.0
 30
0.0
  9
$UCSORGRIGHT
 10
0.0
 20
0.0
 30
0.0
  9
$UCSORGFRONT
 10
0.0
 20
0.0
 30
0.0
  9
$UCSORGBACK
 10
0.0
 20
0.0
 30
0.0
  9
$PUCSBASE
  2

  9
$PUCSNAME
  2

  9
$PUCSORG
 10
0.0
 20
0.0
 30
0.0
  9
$PUCSXDIR
 10
1.0
 20
0.0
 30
0.0
  9
$PUCSYDIR
 10
0.0
 20
1.0
 30
0.0
  9
$PUCSORTHOREF
  2

  9
$PUCSORTHOVIEW
 70
     0
  9
$PUCSORGTOP
 10
0.0
 20
0.0
 30
0.0
  9
$PUCSORGBOTTOM
 10
0.0
 20
0.0
 30
0.0
  9
$PUCSORGLEFT
 10
0.0
 20
0.0
 30
0.0
  9
$PUCSORGRIGHT
 10
0.0
 20
0.0
 30
0.0
  9
$PUCSORGFRONT
 10
0.0
 20
0.0
 30
0.0
  9
$PUCSORGBACK
 10
0.0
 20
0.0
 30
0.0
  9
$USERI1
 70
     0
  9
$USERI2
 70
     0
  9
$USERI3
 70
     0
  9
$USERI4
 70
     0
  9
$USERI5
 70
     0
  9
$USERR1
 40
0.0
  9
$USERR2
 40
0.0
  9
$USERR3
 40
0.0
  9
$USERR4
 40
0.0
  9
$USERR5
 40
0.0
  9
$WORLDVIEW
 70
     1
  9
$SHADEDGE
 70
     3
  9
$SHADEDIF
 70
    70
  9
$TILEMODE
 70
     1
  9
$MAXACTVP
 70
    64
  9
$PINSBASE
 10
0.0
 20
0.0
 30
0.0
  9
$PLIMCHECK
 70
     0
  9
$PEXTMIN
 10
0.0
 20
0.0
 30
0.0
  9
$PEXTMAX
 10
0.0
 20
0.0
 30
0.0
  9
$PLIMMIN
 10
0.0
 20
0.0
  9
$PLIMMAX
 10
12.0
 20
9.0
  9
$UNITMODE
 70
     0
  9
$VISRETAIN
 70
     1
  9
$PLINEGEN
 70
     0
  9
$PSLTSCALE
 70
     1
  9
$TREEDEPTH
 70
  3020
  9
$CMLSTYLE
  2
Standard
  9
$CMLJUST
 70
     0
  9
$CMLSCALE
 40
1.0
  9
$PROXYGRAPHICS
 70
     1
  9
$MEASUREMENT
 70
     0
  9
$CELWEIGHT
370
    -1
  9
$ENDCAPS
280
     0
  9
$JOINSTYLE
280
     0
  9
$LWDISPLAY
290
     0
  9
$INSUNITS
 70
     1
  9
$HYPERLINKBASE
  1

  9
$STYLESHEET
  1

  9
$XEDIT
290
     1
  9
$CEPSNTYPE
380
     0
  9
$PSTYLEMODE
290
     1
  9
$FINGERPRINTGUID
  2
{2D5939A7-F367-4BE4-A5EC-2745ED798B53}
  9
$VERSIONGUID
  2
{949F412F-6345-459E-B836-9E8FCA04B4AF}
  9
$EXTNAMES
290
     1
  9
$PSVPSCALE
 40
0.0
  9
$OLESTARTUP
290
     0
  9
$SORTENTS
280
   127
  9
$INDEXCTL
280
     0
  9
$HIDETEXT
280
     1
  9
$XCLIPFRAME
290
     0
  9
$HALOGAP
280
     0
  9
$OBSCOLOR
 70
   257
  9
$OBSLTYPE
280
     0
  9
$INTERSECTIONDISPLAY
280
     0
  9
$INTERSECTIONCOLOR
 70
   257
  9
$DIMASSOC
280
     2
  9
$PROJECTNAME
  1

  0
ENDSEC
  0
SECTION
  2
CLASSES
  0
CLASS
  1
ACDBDICTIONARYWDFLT
  2
AcDbDictionaryWithDefault
  3
ObjectDBX Classes
 90
        0
 91
        1
280
     0
281
     0
  0
CLASS
  1
DICTIONARYVAR
  2
AcDbDictionaryVar
  3
ObjectDBX Classes
 90
        0
 91
        3
280
     0
281
     0
  0
CLASS
  1
TABLESTYLE
  2
AcDbTableStyle
  3
ObjectDBX Classes
 90
     2047
 91
        1
280
     0
281
     0
  0
CLASS
  1
SORTENTSTABLE
  2
AcDbSortentsTable
  3
ObjectDBX Classes
 90
        0
 91
        5
280
     0
281
     0
  0
ENDSEC
  0
SECTION
  2
TABLES
  0
TABLE
  2
VPORT
  5
8
330
0
100
AcDbSymbolTable
 70
    15
  0
VPORT
  5
357
330
8
100
AcDbSymbolTableRecord
100
AcDbViewportTableRecord
  2
*Active
 70
     0
 10
0.0
 20
0.0
 11
1.0
 21
1.0
 12
136.5163143488626
 22
70.23806006125458
 13
0.0
 23
0.0
 14
0.5
 24
0.5
 15
0.5
 25
0.5
 16
0.0
 26
0.0
 36
1.0
 17
0.0
 27
0.0
 37
0.0
 40
42.50842090013267
 41
2.429942418426103
 42
50.0
 43
0.0
 44
0.0
 50
0.0
 51
0.0
 71
     0
 72
  1000
 73
     1
 74
     3
 75
     0
 76
     0
 77
     0
 78
     0
281
     0
 65
     1
110
0.0
120
0.0
130
0.0
111
1.0
121
0.0
131
0.0
112
0.0
122
1.0
132
0.0
 79
     0
146
0.0
  0
ENDTAB
  0
TABLE
  2
LTYPE
  5
5
330
0
100
AcDbSymbolTable
 70
     2
  0
LTYPE
  5
14
330
5
100
AcDbSymbolTableRecord
100
AcDbLinetypeTableRecord
  2
ByBlock
 70
     0
  3

 72
    65
 73
     0
 40
0.0
  0
LTYPE
  5
15
330
5
100
AcDbSymbolTableRecord
100
AcDbLinetypeTableRecord
  2
ByLayer
 70
     0
  3

 72
    65
 73
     0
 40
0.0
  0
LTYPE
  5
16
330
5
100
AcDbSymbolTableRecord
100
AcDbLinetypeTableRecord
  2
Continuous
 70
     0
  3
Solid line
 72
    65
 73
     0
 40
0.0
  0
ENDTAB
  0
TABLE
  2
LAYER
  5
2
330
0
100
AcDbSymbolTable
 70
     2
  0
LAYER
  5
10
330
2
100
AcDbSymbolTableRecord
100
AcDbLayerTableRecord
  2
0
 70
     0
 62
     7
  6
Continuous
370
    -3
390
F
  0
LAYER
  5
8B
330
2
100
AcDbSymbolTableRecord
100
AcDbLayerTableRecord
  2
CAP_2
 70
     0
 62
     7
  6
Continuous
370
    -3
390
F
  0
ENDTAB
  0
TABLE
  2
STYLE
  5
3
330
0
100
AcDbSymbolTable
 70
     1
  0
STYLE
  5
11
330
3
100
AcDbSymbolTableRecord
100
AcDbTextStyleTableRecord
  2
Standard
 70
     0
 40
0.0
 41
1.0
 50
0.0
 71
     0
 42
0.2
  3
txt
  4

  0
ENDTAB
  0
TABLE
  2
VIEW
  5
6
330
0
100
AcDbSymbolTable
 70
     0
  0
ENDTAB
  0
TABLE
  2
UCS
  5
7
330
0
100
AcDbSymbolTable
 70
     0
  0
ENDTAB
  0
TABLE
  2
APPID
  5
9
330
0
100
AcDbSymbolTable
 70
     4
  0
APPID
  5
12
330
9
100
AcDbSymbolTableRecord
100
AcDbRegAppTableRecord
  2
ACAD
 70
     0
  0
APPID
  5
8C
330
9
100
AcDbSymbolTableRecord
100
AcDbRegAppTableRecord
  2
AVE_ENTITY_MATERIAL
 70
     0
  0
APPID
  5
8D
330
9
100
AcDbSymbolTableRecord
100
AcDbRegAppTableRecord
  2
AVE_FINISH
 70
     0
  0
APPID
  5
F0
330
9
100
AcDbSymbolTableRecord
100
AcDbRegAppTableRecord
  2
ACAD_EXEMPT_FROM_CAD_STANDARDS
 70
     0
  0
ENDTAB
  0
TABLE
  2
DIMSTYLE
  5
A
330
0
100
AcDbSymbolTable
 70
     2
100
AcDbDimStyleTable
 71
     1
340
27
  0
DIMSTYLE
105
27
330
A
100
AcDbSymbolTableRecord
100
AcDbDimStyleTableRecord
  2
Standard
 70
     0
340
11
  0
ENDTAB
  0
TABLE
  2
BLOCK_RECORD
  5
1
330
0
100
AcDbSymbolTable
 70
     8
  0
BLOCK_RECORD
  5
1F
102
{ACAD_XDICTIONARY
360
163
102
}
330
1
100
AcDbSymbolTableRecord
100
AcDbBlockTableRecord
  2
*Model_Space
340
22
  0
BLOCK_RECORD
  5
58
330
1
100
AcDbSymbolTableRecord
100
AcDbBlockTableRecord
  2
*Paper_Space
340
59
  0
BLOCK_RECORD
  5
5D
330
1
100
AcDbSymbolTableRecord
100
AcDbBlockTableRecord
  2
*Paper_Space0
340
5E
  0
ENDTAB
  0
ENDSEC
  0
SECTION
  2
BLOCKS
  0
BLOCK
  5
20
330
1F
100
AcDbEntity
  8
0
100
AcDbBlockBegin
  2
*Model_Space
 70
     0
 10
0.0
 20
0.0
 30
0.0
  3
*Model_Space
  1

  0
ENDBLK
  5
21
330
1F
100
AcDbEntity
  8
0
100
AcDbBlockEnd
  0
BLOCK
  5
5A
330
58
100
AcDbEntity
 67
     1
  8
0
100
AcDbBlockBegin
  2
*Paper_Space
 70
     0
 10
0.0
 20
0.0
 30
0.0
  3
*Paper_Space
  1

  0
ENDBLK
  5
5B
330
58
100
AcDbEntity
 67
     1
  8
0
100
AcDbBlockEnd
  0
BLOCK
  5
5F
330
5D
100
AcDbEntity
 67
     1
  8
0
100
AcDbBlockBegin
  2
*Paper_Space0
 70
     0
 10
0.0
 20
0.0
 30
0.0
  3
*Paper_Space0
  1

  0
ENDBLK
  5
60
330
5D
100
AcDbEntity
 67
     1
  8
0
100
AcDbBlockEnd
  0
ENDSEC
  0
SECTION
  2
ENTITIES
  0
LINE
  5
159
330
1F
100
AcDbEntity
  8
0
100
AcDbLine
 10
64.98864974730307
 20
84.13041435406174
 30
25.13575691714729
 11
54.24786483647792
 21
77.96520426579097
 31
25.13575691714729
  0
LINE
  5
15C
330
1F
100
AcDbEntity
  8
0
100
AcDbLine
 10
72.9315539670851
 20
84.12252038864149
 30
25.13575691714729
 11
83.69909658112897
 21
77.94372245744662
 31
25.13575691714729
  0
LINE
  5
15D
330
1F
100
AcDbEntity
  8
0
100
AcDbLine
 10
83.69909658112897
 20
77.94372245744662
 30
25.13575691714729
 11
75.87980542350135
 21
70.1029498700821
 31
25.13575691714729
  0
LINE
  5
15E
330
1F
100
AcDbEntity
  8
0
100
AcDbLine
 10
75.87980542350135
 20
70.1029498700821
 30
25.13575691714729
 11
62.13160104053113
 21
70.1029498700821
 31
25.13575691714729
  0
LINE
  5
15F
330
1F
100
AcDbEntity
  8
0
100
AcDbLine
 10
62.13160104053113
 20
70.1029498700821
 30
25.13575691714729
 11
54.24786483647792
 21
77.96520426579097
 31
25.13575691714729
  0
LINE
  5
160
330
1F
100
AcDbEntity
  8
0
100
AcDbLine
 10
62.13160104053113
 20
70.1029498700821
 30
25.13575691714729
 11
68.13160104053114
 21
80.49525471549536
 31
25.13575691714729
  0
LINE
  5
161
330
1F
100
AcDbEntity
  8
0
100
AcDbLine
 10
75.87980542350135
 20
70.1029498700821
 30
25.13575691714729
 11
69.87980542350135
 21
80.49525471549536
 31
25.13575691714729
  0
LINE
  5
162
330
1F
100
AcDbEntity
  8
0
100
AcDbLine
 10
76.61112085115833
 20
70.83627439302126
 30
25.13575691714729
 11
70.74583082728579
 21
80.99525471549537
 31
25.13575691714729
  0
LINE
  5
165
330
1F
100
AcDbEntity
  8
0
100
AcDbLine
 10
61.39881938916037
 20
70.8337348190537
 30
25.13575691714729
 11
67.26557563674671
 21
80.99525471549537
 31
25.13575691714729
  0
LINE
  5
166
330
1F
100
AcDbEntity
  8
0
100
AcDbLine
 10
65.98864974730307
 20
83.55138527872281
 30
25.13575691714729
 11
54.98168223724623
 21
77.23338638965858
 31
25.13575691714729
  0
LINE
  5
16A
330
1F
100
AcDbEntity
  8
0
100
AcDbLine
 10
71.93155396708511
 20
83.54340870427334
 30
25.13575691714729
 11
82.96780151355722
 21
77.21041835052663
 31
25.13575691714729
  0
LINE
  5
16B
330
1F
100
AcDbEntity
  8
0
100
AcDbLine
 10
67.26557563674671
 20
80.99525471549537
 30
25.13575691714729
 11
68.13160104053114
 21
80.49525471549536
 31
25.13575691714729
  0
LINE
  5
16C
330
1F
100
AcDbEntity
  8
0
100
AcDbLine
 10
70.74583082728579
 20
80.99525471549537
 30
25.13575691714729
 11
69.87980542350135
 21
80.49525471549536
 31
25.13575691714729
  0
LINE
  5
172
330
1F
100
AcDbEntity
  8
0
100
AcDbLine
 10
72.9315539670851
 20
84.12252038864151
 30
25.13575691714729
 11
72.9315539670851
 21
90.12252038864149
 31
25.13575691714729
  0
LINE
  5
173
330
1F
100
AcDbEntity
  8
0
100
AcDbLine
 10
72.9315539670851
 20
90.12252038864149
 30
25.13575691714729
 11
64.98864974730307
 21
90.12252038864149
 31
25.13575691714729
  0
LINE
  5
174
330
1F
100
AcDbEntity
  8
0
100
AcDbLine
 10
64.98864974730307
 20
84.13041435406174
 30
25.13575691714729
 11
64.98864974730307
 21
90.13041435406174
 31
25.13575691714729
  0
LINE
  5
175
330
1F
100
AcDbEntity
  8
0
100
AcDbLine
 10
65.98864974730307
 20
83.55138527872281
 30
25.13575691714729
 11
65.98864974730307
 21
90.13041435406174
 31
25.13575691714729
  0
LINE
  5
176
330
1F
100
AcDbEntity
  8
0
100
AcDbLine
 10
71.93155396708509
 20
83.54340870427334
 30
25.13575691714729
 11
71.93155396708511
 21
90.12252038864149
 31
25.13575691714729
  0
LINE
  5
177
330
1F
100
AcDbEntity
  8
0
100
AcDbLine
 10
72.9315539670851
 20
84.12252038864151
 30
25.13575691714729
 11
71.93155396708509
 21
83.54340870427334
 31
25.13575691714729
  0
LINE
  5
178
330
1F
100
AcDbEntity
  8
0
100
AcDbLine
 10
64.98864974730307
 20
84.13041435406174
 30
25.13575691714729
 11
65.98864974730307
 21
83.55138527872281
 31
25.13575691714729
  0
LINE
  5
17C
330
1F
100
AcDbEntity
  8
0
100
AcDbLine
 10
75.30245515431174
 20
71.10294987008211
 30
25.13575691714729
 11
62.70895130972077
 21
71.10294987008209
 31
25.13575691714729
  0
LINE
  5
17D
330
1F
100
AcDbEntity
  8
0
100
AcDbLine
 10
61.91626880461782
 20
71.72998349697282
 30
25.13575691714729
 11
55.88049881296581
 21
77.749307066419
 31
25.13575691714729
  0
LINE
  5
17E
330
1F
100
AcDbEntity
  8
0
100
AcDbLine
 10
62.4337182200753
 20
72.62623217489199
 30
25.13575691714729
 11
56.77931538868542
 21
78.2652277431795
 31
25.13575691714729
  0
LINE
  5
180
330
1F
100
AcDbEntity
  8
0
100
AcDbLine
 10
82.06955654727508
 20
77.72586317747641
 30
25.13575691714729
 11
76.09329194344049
 21
71.73318037081646
 31
25.13575691714729
  0
LINE
  5
181
330
1F
100
AcDbEntity
  8
0
100
AcDbLine
 10
81.17131158099295
 20
78.24130800442621
 30
25.13575691714729
 11
75.57546303572265
 21
72.63008634861167
 31
25.13575691714729
  0
LINE
  5
183
330
1F
100
AcDbEntity
  8
0
100
AcDbLine
 10
74.7251048851221
 20
72.1029498700821
 30
25.13575691714729
 11
63.28630157891041
 21
72.1029498700821
 31
25.13575691714729
  0
LINE
  5
19C
330
1F
100
AcDbEntity
  8
0
100
AcDbLine
 10
97.36657773691725
 20
85.24461916239344
 30
0.0
 11
97.36657773691725
 21
76.78131916239343
 31
0.0
  0
LINE
  5
19D
330
1F
100
AcDbEntity
  8
0
100
AcDbLine
 10
97.36657773691725
 20
76.78131916239343
 30
0.0
 11
145.3665777369172
 21
76.78131916239343
 31
0.0
  0
LINE
  5
19E
330
1F
100
AcDbEntity
  8
0
100
AcDbLine
 10
145.3665777369172
 20
76.78131916239343
 30
0.0
 11
145.3665777369172
 21
85.24461916239344
 31
0.0
  0
LINE
  5
19F
330
1F
100
AcDbEntity
  8
0
100
AcDbLine
 10
97.36657773691725
 20
85.24461916239344
 30
0.0
 11
145.3665777369172
 21
85.24461916239344
 31
0.0
  0
LINE
  5
1ED
330
1F
100
AcDbEntity
  8
0
100
AcDbLine
 10
64.28129323201625
 20
72.1029498700821
 30
25.13575691714729
 11
64.28129323201625
 21
71.10294987008211
 31
25.13575691714729
  0
LINE
  5
1F0
330
1F
100
AcDbEntity
  8
0
100
AcDbLine
 10
69.00570323201626
 20
72.1029498700821
 30
25.13575691714729
 11
69.00570323201624
 21
71.10294987008209
 31
25.13575691714729
  0
LINE
  5
1F1
330
1F
100
AcDbEntity
  8
0
100
AcDbLine
 10
73.73011323201627
 20
72.10294987008196
 30
25.13575691714729
 11
73.73011323201623
 21
71.10294987008197
 31
25.13575691714729
  0
LINE
  5
20A
330
1F
100
AcDbEntity
  8
0
100
AcDbLine
 10
69.00570323201626
 20
72.1029498700821
 30
25.13575691714729
 11
64.28129323201625
 21
72.1029498700821
 31
25.13575691714729
  0
LINE
  5
20B
330
1F
100
AcDbEntity
  8
0
100
AcDbLine
 10
57.93390840144502
 20
77.11378079532796
 30
25.13575691714729
 11
57.22776696313117
 21
76.40570998736027
 31
25.13575691714729
  0
LINE
  5
20C
330
1F
100
AcDbEntity
  8
0
100
AcDbLine
 10
61.2791252073157
 20
73.77767912274356
 30
25.13575691714729
 11
60.57298376900184
 21
73.06960831477588
 31
25.13575691714729
  0
LINE
  5
20E
330
1F
100
AcDbEntity
  8
0
100
AcDbLine
 10
76.70534895240556
 20
73.76307632734327
 30
25.13575691714729
 11
77.41342502928104
 21
73.05694017237271
 31
25.13575691714729
  0
LINE
  5
20F
330
1F
100
AcDbEntity
  8
0
100
AcDbLine
 10
80.04142566431005
 20
77.10831802569462
 30
25.13575691714729
 11
80.74950174118553
 21
76.40218187072405
 31
25.13575691714729
  0
CIRCLE
  5
26B
330
1F
100
AcDbEntity
  8
0
100
AcDbCircle
 10
97.70631744279958
 20
83.07989916239341
 30
0.0
 40
0.093740155
  0
CIRCLE
  5
26C
330
1F
100
AcDbEntity
  8
0
100
AcDbCircle
 10
101.8401774427996
 20
83.07989916239343
 30
0.0
 40
0.093740155
  0
CIRCLE
  5
26D
330
1F
100
AcDbEntity
  8
0
100
AcDbCircle
 10
101.8401774427996
 20
78.94603916239342
 30
0.0
 40
0.093740155
  0
CIRCLE
  5
26E
330
1F
100
AcDbEntity
  8
0
100
AcDbCircle
 10
97.70631744279958
 20
78.94603916239342
 30
0.0
 40
0.093740155
  0
CIRCLE
  5
26F
330
1F
100
AcDbEntity
  8
0
100
AcDbCircle
 10
99.77324744279959
 20
81.01296916239343
 30
0.0
 40
2.362204999999999
  0
CIRCLE
  5
270
330
1F
100
AcDbEntity
  8
0
100
AcDbCircle
 10
102.4751921486819
 20
83.07989916239341
 30
0.0
 40
0.093740155
  0
CIRCLE
  5
271
330
1F
100
AcDbEntity
  8
0
100
AcDbCircle
 10
106.6090521486819
 20
83.07989916239343
 30
0.0
 40
0.093740155
  0
CIRCLE
  5
272
330
1F
100
AcDbEntity
  8
0
100
AcDbCircle
 10
106.6090521486819
 20
78.94603916239342
 30
0.0
 40
0.093740155
  0
CIRCLE
  5
273
330
1F
100
AcDbEntity
  8
0
100
AcDbCircle
 10
102.4751921486819
 20
78.94603916239342
 30
0.0
 40
0.093740155
  0
CIRCLE
  5
274
330
1F
100
AcDbEntity
  8
0
100
AcDbCircle
 10
104.5421221486819
 20
81.01296916239343
 30
0.0
 40
2.362204999999999
  0
CIRCLE
  5
275
330
1F
100
AcDbEntity
  8
0
100
AcDbCircle
 10
107.2440668545643
 20
83.07989916239341
 30
0.0
 40
0.093740155
  0
CIRCLE
  5
276
330
1F
100
AcDbEntity
  8
0
100
AcDbCircle
 10
111.3779268545643
 20
83.07989916239343
 30
0.0
 40
0.093740155
  0
CIRCLE
  5
277
330
1F
100
AcDbEntity
  8
0
100
AcDbCircle
 10
111.3779268545643
 20
78.94603916239342
 30
0.0
 40
0.093740155
  0
CIRCLE
  5
278
330
1F
100
AcDbEntity
  8
0
100
AcDbCircle
 10
107.2440668545643
 20
78.94603916239342
 30
0.0
 40
0.093740155
  0
CIRCLE
  5
279
330
1F
100
AcDbEntity
  8
0
100
AcDbCircle
 10
109.3109968545643
 20
81.01296916239343
 30
0.0
 40
2.362204999999999
  0
CIRCLE
  5
27A
330
1F
100
AcDbEntity
  8
0
100
AcDbCircle
 10
112.0129415604466
 20
83.07989916239341
 30
0.0
 40
0.093740155
  0
CIRCLE
  5
27B
330
1F
100
AcDbEntity
  8
0
100
AcDbCircle
 10
116.1468015604466
 20
83.07989916239343
 30
0.0
 40
0.093740155
  0
CIRCLE
  5
27C
330
1F
100
AcDbEntity
  8
0
100
AcDbCircle
 10
116.1468015604466
 20
78.94603916239342
 30
0.0
 40
0.093740155
  0
CIRCLE
  5
27D
330
1F
100
AcDbEntity
  8
0
100
AcDbCircle
 10
112.0129415604466
 20
78.94603916239342
 30
0.0
 40
0.093740155
  0
CIRCLE
  5
27E
330
1F
100
AcDbEntity
  8
0
100
AcDbCircle
 10
114.0798715604466
 20
81.01296916239343
 30
0.0
 40
2.362204999999999
  0
CIRCLE
  5
27F
330
1F
100
AcDbEntity
  8
0
100
AcDbCircle
 10
116.781816266329
 20
83.07989916239341
 30
0.0
 40
0.093740155
  0
CIRCLE
  5
280
330
1F
100
AcDbEntity
  8
0
100
AcDbCircle
 10
120.915676266329
 20
83.07989916239343
 30
0.0
 40
0.093740155
  0
CIRCLE
  5
281
330
1F
100
AcDbEntity
  8
0
100
AcDbCircle
 10
120.915676266329
 20
78.94603916239342
 30
0.0
 40
0.093740155
  0
CIRCLE
  5
282
330
1F
100
AcDbEntity
  8
0
100
AcDbCircle
 10
116.781816266329
 20
78.94603916239342
 30
0.0
 40
0.093740155
  0
CIRCLE
  5
283
330
1F
100
AcDbEntity
  8
0
100
AcDbCircle
 10
118.848746266329
 20
81.01296916239343
 30
0.0
 40
2.362204999999999
  0
CIRCLE
  5
284
330
1F
100
AcDbEntity
  8
0
100
AcDbCircle
 10
121.5506909722113
 20
83.07989916239341
 30
0.0
 40
0.093740155
  0
CIRCLE
  5
285
330
1F
100
AcDbEntity
  8
0
100
AcDbCircle
 10
125.6845509722113
 20
83.07989916239343
 30
0.0
 40
0.093740155
  0
CIRCLE
  5
286
330
1F
100
AcDbEntity
  8
0
100
AcDbCircle
 10
125.6845509722113
 20
78.94603916239342
 30
0.0
 40
0.093740155
  0
CIRCLE
  5
287
330
1F
100
AcDbEntity
  8
0
100
AcDbCircle
 10
121.5506909722113
 20
78.94603916239342
 30
0.0
 40
0.093740155
  0
CIRCLE
  5
288
330
1F
100
AcDbEntity
  8
0
100
AcDbCircle
 10
123.6176209722113
 20
81.01296916239343
 30
0.0
 40
2.362204999999999
  0
CIRCLE
  5
289
330
1F
100
AcDbEntity
  8
0
100
AcDbCircle
 10
126.3195656780937
 20
83.07989916239341
 30
0.0
 40
0.093740155
  0
CIRCLE
  5
28A
330
1F
100
AcDbEntity
  8
0
100
AcDbCircle
 10
130.4534256780937
 20
83.07989916239343
 30
0.0
 40
0.093740155
  0
CIRCLE
  5
28B
330
1F
100
AcDbEntity
  8
0
100
AcDbCircle
 10
130.4534256780937
 20
78.94603916239342
 30
0.0
 40
0.093740155
  0
CIRCLE
  5
28C
330
1F
100
AcDbEntity
  8
0
100
AcDbCircle
 10
126.3195656780937
 20
78.94603916239342
 30
0.0
 40
0.093740155
  0
CIRCLE
  5
28D
330
1F
100
AcDbEntity
  8
0
100
AcDbCircle
 10
128.3864956780937
 20
81.01296916239343
 30
0.0
 40
2.362204999999999
  0
CIRCLE
  5
28E
330
1F
100
AcDbEntity
  8
0
100
AcDbCircle
 10
131.088440383976
 20
83.07989916239341
 30
0.0
 40
0.093740155
  0
CIRCLE
  5
28F
330
1F
100
AcDbEntity
  8
0
100
AcDbCircle
 10
135.222300383976
 20
83.07989916239343
 30
0.0
 40
0.093740155
  0
CIRCLE
  5
290
330
1F
100
AcDbEntity
  8
0
100
AcDbCircle
 10
135.222300383976
 20
78.94603916239342
 30
0.0
 40
0.093740155
  0
CIRCLE
  5
291
330
1F
100
AcDbEntity
  8
0
100
AcDbCircle
 10
131.088440383976
 20
78.94603916239342
 30
0.0
 40
0.093740155
  0
CIRCLE
  5
292
330
1F
100
AcDbEntity
  8
0
100
AcDbCircle
 10
133.155370383976
 20
81.01296916239343
 30
0.0
 40
2.362204999999999
  0
CIRCLE
  5
293
330
1F
100
AcDbEntity
  8
0
100
AcDbCircle
 10
135.8573150898584
 20
83.07989916239341
 30
0.0
 40
0.093740155
  0
CIRCLE
  5
294
330
1F
100
AcDbEntity
  8
0
100
AcDbCircle
 10
139.9911750898584
 20
83.07989916239343
 30
0.0
 40
0.093740155
  0
CIRCLE
  5
295
330
1F
100
AcDbEntity
  8
0
100
AcDbCircle
 10
139.9911750898584
 20
78.94603916239342
 30
0.0
 40
0.093740155
  0
CIRCLE
  5
296
330
1F
100
AcDbEntity
  8
0
100
AcDbCircle
 10
135.8573150898584
 20
78.94603916239342
 30
0.0
 40
0.093740155
  0
CIRCLE
  5
297
330
1F
100
AcDbEntity
  8
0
100
AcDbCircle
 10
137.9242450898584
 20
81.01296916239343
 30
0.0
 40
2.362204999999999
  0
CIRCLE
  5
298
330
1F
100
AcDbEntity
  8
0
100
AcDbCircle
 10
140.6261897957407
 20
83.07989916239341
 30
0.0
 40
0.093740155
  0
CIRCLE
  5
299
330
1F
100
AcDbEntity
  8
0
100
AcDbCircle
 10
144.7600497957408
 20
83.07989916239343
 30
0.0
 40
0.093740155
  0
CIRCLE
  5
29A
330
1F
100
AcDbEntity
  8
0
100
AcDbCircle
 10
144.7600497957407
 20
78.94603916239342
 30
0.0
 40
0.093740155
  0
CIRCLE
  5
29B
330
1F
100
AcDbEntity
  8
0
100
AcDbCircle
 10
140.6261897957407
 20
78.94603916239342
 30
0.0
 40
0.093740155
  0
CIRCLE
  5
29C
330
1F
100
AcDbEntity
  8
0
100
AcDbCircle
 10
142.6931197957407
 20
81.01296916239343
 30
0.0
 40
2.362204999999999
  0
LINE
  5
2AF
330
1F
100
AcDbEntity
  8
0
100
AcDbLine
 10
97.36657773691725
 20
71.22438895446193
 30
0.0
 11
97.36657773691725
 21
58.63088895446193
 31
0.0
  0
LINE
  5
2B0
330
1F
100
AcDbEntity
  8
0
100
AcDbLine
 10
97.36657773691725
 20
58.63088895446193
 30
0.0
 11
145.3665777369172
 21
58.63088895446193
 31
0.0
  0
LINE
  5
2B1
330
1F
100
AcDbEntity
  8
0
100
AcDbLine
 10
97.36657773691725
 20
71.22438895446193
 30
0.0
 11
145.3665777369172
 21
71.22438895446193
 31
0.0
  0
LINE
  5
2B2
330
1F
100
AcDbEntity
  8
0
100
AcDbLine
 10
145.3665777369172
 20
58.63088895446193
 30
0.0
 11
145.3665777369172
 21
71.22438895446191
 31
0.0
  0
CIRCLE
  5
2F0
330
1F
100
AcDbEntity
  8
0
100
AcDbCircle
 10
97.70631744279958
 20
64.61013160152074
 30
0.0
 40
0.093740155
  0
CIRCLE
  5
2F1
330
1F
100
AcDbEntity
  8
0
100
AcDbCircle
 10
101.8401774427996
 20
64.61013160152075
 30
0.0
 40
0.093740155
  0
CIRCLE
  5
2F2
330
1F
100
AcDbEntity
  8
0
100
AcDbCircle
 10
101.8401774427996
 20
60.47627160152074
 30
0.0
 40
0.093740155
  0
CIRCLE
  5
2F3
330
1F
100
AcDbEntity
  8
0
100
AcDbCircle
 10
97.70631744279958
 20
60.47627160152074
 30
0.0
 40
0.093740155
  0
CIRCLE
  5
2F4
330
1F
100
AcDbEntity
  8
0
100
AcDbCircle
 10
99.77324744279959
 20
62.54320160152075
 30
0.0
 40
2.362204999999999
  0
CIRCLE
  5
2F5
330
1F
100
AcDbEntity
  8
0
100
AcDbCircle
 10
102.4751921486819
 20
64.61013160152074
 30
0.0
 40
0.093740155
  0
CIRCLE
  5
2F6
330
1F
100
AcDbEntity
  8
0
100
AcDbCircle
 10
106.6090521486819
 20
64.61013160152075
 30
0.0
 40
0.093740155
  0
CIRCLE
  5
2F7
330
1F
100
AcDbEntity
  8
0
100
AcDbCircle
 10
106.6090521486819
 20
60.47627160152074
 30
0.0
 40
0.093740155
  0
CIRCLE
  5
2F8
330
1F
100
AcDbEntity
  8
0
100
AcDbCircle
 10
102.4751921486819
 20
60.47627160152074
 30
0.0
 40
0.093740155
  0
CIRCLE
  5
2F9
330
1F
100
AcDbEntity
  8
0
100
AcDbCircle
 10
104.5421221486819
 20
62.54320160152075
 30
0.0
 40
2.362204999999999
  0
CIRCLE
  5
2FA
330
1F
100
AcDbEntity
  8
0
100
AcDbCircle
 10
107.2440668545643
 20
64.61013160152074
 30
0.0
 40
0.093740155
  0
CIRCLE
  5
2FB
330
1F
100
AcDbEntity
  8
0
100
AcDbCircle
 10
111.3779268545643
 20
64.61013160152075
 30
0.0
 40
0.093740155
  0
CIRCLE
  5
2FC
330
1F
100
AcDbEntity
  8
0
100
AcDbCircle
 10
111.3779268545643
 20
60.47627160152074
 30
0.0
 40
0.093740155
  0
CIRCLE
  5
2FD
330
1F
100
AcDbEntity
  8
0
100
AcDbCircle
 10
107.2440668545643
 20
60.47627160152074
 30
0.0
 40
0.093740155
  0
CIRCLE
  5
2FE
330
1F
100
AcDbEntity
  8
0
100
AcDbCircle
 10
109.3109968545643
 20
62.54320160152075
 30
0.0
 40
2.362204999999999
  0
CIRCLE
  5
2FF
330
1F
100
AcDbEntity
  8
0
100
AcDbCircle
 10
112.0129415604466
 20
64.61013160152074
 30
0.0
 40
0.093740155
  0
CIRCLE
  5
300
330
1F
100
AcDbEntity
  8
0
100
AcDbCircle
 10
116.1468015604466
 20
64.61013160152075
 30
0.0
 40
0.093740155
  0
CIRCLE
  5
301
330
1F
100
AcDbEntity
  8
0
100
AcDbCircle
 10
116.1468015604466
 20
60.47627160152074
 30
0.0
 40
0.093740155
  0
CIRCLE
  5
302
330
1F
100
AcDbEntity
  8
0
100
AcDbCircle
 10
112.0129415604466
 20
60.47627160152074
 30
0.0
 40
0.093740155
  0
CIRCLE
  5
303
330
1F
100
AcDbEntity
  8
0
100
AcDbCircle
 10
114.0798715604466
 20
62.54320160152075
 30
0.0
 40
2.362204999999999
  0
CIRCLE
  5
304
330
1F
100
AcDbEntity
  8
0
100
AcDbCircle
 10
116.781816266329
 20
64.61013160152074
 30
0.0
 40
0.093740155
  0
CIRCLE
  5
305
330
1F
100
AcDbEntity
  8
0
100
AcDbCircle
 10
120.915676266329
 20
64.61013160152075
 30
0.0
 40
0.093740155
  0
CIRCLE
  5
306
330
1F
100
AcDbEntity
  8
0
100
AcDbCircle
 10
120.915676266329
 20
60.47627160152074
 30
0.0
 40
0.093740155
  0
CIRCLE
  5
307
330
1F
100
AcDbEntity
  8
0
100
AcDbCircle
 10
116.781816266329
 20
60.47627160152074
 30
0.0
 40
0.093740155
  0
CIRCLE
  5
308
330
1F
100
AcDbEntity
  8
0
100
AcDbCircle
 10
118.848746266329
 20
62.54320160152075
 30
0.0
 40
2.362204999999999
  0
CIRCLE
  5
309
330
1F
100
AcDbEntity
  8
0
100
AcDbCircle
 10
121.5506909722113
 20
64.61013160152074
 30
0.0
 40
0.093740155
  0
CIRCLE
  5
30A
330
1F
100
AcDbEntity
  8
0
100
AcDbCircle
 10
125.6845509722113
 20
64.61013160152075
 30
0.0
 40
0.093740155
  0
CIRCLE
  5
30B
330
1F
100
AcDbEntity
  8
0
100
AcDbCircle
 10
125.6845509722113
 20
60.47627160152074
 30
0.0
 40
0.093740155
  0
CIRCLE
  5
30C
330
1F
100
AcDbEntity
  8
0
100
AcDbCircle
 10
121.5506909722113
 20
60.47627160152074
 30
0.0
 40
0.093740155
  0
CIRCLE
  5
30D
330
1F
100
AcDbEntity
  8
0
100
AcDbCircle
 10
123.6176209722113
 20
62.54320160152075
 30
0.0
 40
2.362204999999999
  0
CIRCLE
  5
30E
330
1F
100
AcDbEntity
  8
0
100
AcDbCircle
 10
126.3195656780937
 20
64.61013160152074
 30
0.0
 40
0.093740155
  0
CIRCLE
  5
30F
330
1F
100
AcDbEntity
  8
0
100
AcDbCircle
 10
130.4534256780937
 20
64.61013160152075
 30
0.0
 40
0.093740155
  0
CIRCLE
  5
310
330
1F
100
AcDbEntity
  8
0
100
AcDbCircle
 10
130.4534256780937
 20
60.47627160152074
 30
0.0
 40
0.093740155
  0
CIRCLE
  5
311
330
1F
100
AcDbEntity
  8
0
100
AcDbCircle
 10
126.3195656780937
 20
60.47627160152074
 30
0.0
 40
0.093740155
  0
CIRCLE
  5
312
330
1F
100
AcDbEntity
  8
0
100
AcDbCircle
 10
128.3864956780937
 20
62.54320160152075
 30
0.0
 40
2.362204999999999
  0
CIRCLE
  5
313
330
1F
100
AcDbEntity
  8
0
100
AcDbCircle
 10
131.088440383976
 20
64.61013160152074
 30
0.0
 40
0.093740155
  0
CIRCLE
  5
314
330
1F
100
AcDbEntity
  8
0
100
AcDbCircle
 10
135.222300383976
 20
64.61013160152075
 30
0.0
 40
0.093740155
  0
CIRCLE
  5
315
330
1F
100
AcDbEntity
  8
0
100
AcDbCircle
 10
135.222300383976
 20
60.47627160152074
 30
0.0
 40
0.093740155
  0
CIRCLE
  5
316
330
1F
100
AcDbEntity
  8
0
100
AcDbCircle
 10
131.088440383976
 20
60.47627160152074
 30
0.0
 40
0.093740155
  0
CIRCLE
  5
317
330
1F
100
AcDbEntity
  8
0
100
AcDbCircle
 10
133.155370383976
 20
62.54320160152075
 30
0.0
 40
2.362204999999999
  0
CIRCLE
  5
318
330
1F
100
AcDbEntity
  8
0
100
AcDbCircle
 10
135.8573150898584
 20
64.61013160152074
 30
0.0
 40
0.093740155
  0
CIRCLE
  5
319
330
1F
100
AcDbEntity
  8
0
100
AcDbCircle
 10
139.9911750898584
 20
64.61013160152075
 30
0.0
 40
0.093740155
  0
CIRCLE
  5
31A
330
1F
100
AcDbEntity
  8
0
100
AcDbCircle
 10
139.9911750898584
 20
60.47627160152074
 30
0.0
 40
0.093740155
  0
CIRCLE
  5
31B
330
1F
100
AcDbEntity
  8
0
100
AcDbCircle
 10
135.8573150898584
 20
60.47627160152074
 30
0.0
 40
0.093740155
  0
CIRCLE
  5
31C
330
1F
100
AcDbEntity
  8
0
100
AcDbCircle
 10
137.9242450898584
 20
62.54320160152075
 30
0.0
 40
2.362204999999999
  0
CIRCLE
  5
31D
330
1F
100
AcDbEntity
  8
0
100
AcDbCircle
 10
140.6261897957407
 20
64.61013160152074
 30
0.0
 40
0.093740155
  0
CIRCLE
  5
31E
330
1F
100
AcDbEntity
  8
0
100
AcDbCircle
 10
144.7600497957408
 20
64.61013160152075
 30
0.0
 40
0.093740155
  0
CIRCLE
  5
31F
330
1F
100
AcDbEntity
  8
0
100
AcDbCircle
 10
144.7600497957408
 20
60.47627160152074
 30
0.0
 40
0.093740155
  0
CIRCLE
  5
320
330
1F
100
AcDbEntity
  8
0
100
AcDbCircle
 10
140.6261897957407
 20
60.47627160152074
 30
0.0
 40
0.093740155
  0
CIRCLE
  5
321
330
1F
100
AcDbEntity
  8
0
100
AcDbCircle
 10
142.6931197957407
 20
62.54320160152075
 30
0.0
 40
2.362204999999999
  0
CIRCLE
  5
322
330
1F
100
AcDbEntity
  8
0
100
AcDbCircle
 10
101.8401774427996
 20
65.24514630740309
 30
0.0
 40
0.093740155
  0
CIRCLE
  5
323
330
1F
100
AcDbEntity
  8
0
100
AcDbCircle
 10
101.8401774427996
 20
69.37900630740312
 30
0.0
 40
0.093740155
  0
CIRCLE
  5
324
330
1F
100
AcDbEntity
  8
0
100
AcDbCircle
 10
97.70631744279958
 20
69.37900630740312
 30
0.0
 40
0.093740155
  0
CIRCLE
  5
325
330
1F
100
AcDbEntity
  8
0
100
AcDbCircle
 10
97.70631744279958
 20
65.24514630740309
 30
0.0
 40
0.093740155
  0
CIRCLE
  5
326
330
1F
100
AcDbEntity
  8
0
100
AcDbCircle
 10
99.77324744279959
 20
67.31207630740311
 30
0.0
 40
2.362204999999999
  0
CIRCLE
  5
327
330
1F
100
AcDbEntity
  8
0
100
AcDbCircle
 10
102.4751921486819
 20
69.37900630740308
 30
0.0
 40
0.093740155
  0
CIRCLE
  5
328
330
1F
100
AcDbEntity
  8
0
100
AcDbCircle
 10
106.6090521486819
 20
69.3790063074031
 30
0.0
 40
0.093740155
  0
CIRCLE
  5
329
330
1F
100
AcDbEntity
  8
0
100
AcDbCircle
 10
106.6090521486819
 20
65.24514630740309
 30
0.0
 40
0.093740155
  0
CIRCLE
  5
32A
330
1F
100
AcDbEntity
  8
0
100
AcDbCircle
 10
102.4751921486819
 20
65.24514630740309
 30
0.0
 40
0.093740155
  0
CIRCLE
  5
32B
330
1F
100
AcDbEntity
  8
0
100
AcDbCircle
 10
104.5421221486819
 20
67.31207630740311
 30
0.0
 40
2.362204999999999
  0
CIRCLE
  5
32C
330
1F
100
AcDbEntity
  8
0
100
AcDbCircle
 10
107.2440668545643
 20
69.37900630740308
 30
0.0
 40
0.093740155
  0
CIRCLE
  5
32D
330
1F
100
AcDbEntity
  8
0
100
AcDbCircle
 10
111.3779268545643
 20
69.3790063074031
 30
0.0
 40
0.093740155
  0
CIRCLE
  5
32E
330
1F
100
AcDbEntity
  8
0
100
AcDbCircle
 10
111.3779268545643
 20
65.24514630740309
 30
0.0
 40
0.093740155
  0
CIRCLE
  5
32F
330
1F
100
AcDbEntity
  8
0
100
AcDbCircle
 10
107.2440668545643
 20
65.24514630740309
 30
0.0
 40
0.093740155
  0
CIRCLE
  5
330
330
1F
100
AcDbEntity
  8
0
100
AcDbCircle
 10
109.3109968545643
 20
67.31207630740311
 30
0.0
 40
2.362204999999999
  0
CIRCLE
  5
331
330
1F
100
AcDbEntity
  8
0
100
AcDbCircle
 10
112.0129415604466
 20
69.37900630740308
 30
0.0
 40
0.093740155
  0
CIRCLE
  5
332
330
1F
100
AcDbEntity
  8
0
100
AcDbCircle
 10
116.1468015604466
 20
69.3790063074031
 30
0.0
 40
0.093740155
  0
CIRCLE
  5
333
330
1F
100
AcDbEntity
  8
0
100
AcDbCircle
 10
116.1468015604466
 20
65.24514630740309
 30
0.0
 40
0.093740155
  0
CIRCLE
  5
334
330
1F
100
AcDbEntity
  8
0
100
AcDbCircle
 10
112.0129415604466
 20
65.24514630740309
 30
0.0
 40
0.093740155
  0
CIRCLE
  5
335
330
1F
100
AcDbEntity
  8
0
100
AcDbCircle
 10
114.0798715604466
 20
67.31207630740311
 30
0.0
 40
2.362204999999999
  0
CIRCLE
  5
336
330
1F
100
AcDbEntity
  8
0
100
AcDbCircle
 10
116.781816266329
 20
69.37900630740308
 30
0.0
 40
0.093740155
  0
CIRCLE
  5
337
330
1F
100
AcDbEntity
  8
0
100
AcDbCircle
 10
120.915676266329
 20
69.3790063074031
 30
0.0
 40
0.093740155
  0
CIRCLE
  5
338
330
1F
100
AcDbEntity
  8
0
100
AcDbCircle
 10
120.915676266329
 20
65.24514630740309
 30
0.0
 40
0.093740155
  0
CIRCLE
  5
339
330
1F
100
AcDbEntity
  8
0
100
AcDbCircle
 10
116.781816266329
 20
65.24514630740309
 30
0.0
 40
0.093740155
  0
CIRCLE
  5
33A
330
1F
100
AcDbEntity
  8
0
100
AcDbCircle
 10
118.848746266329
 20
67.31207630740311
 30
0.0
 40
2.362204999999999
  0
CIRCLE
  5
33B
330
1F
100
AcDbEntity
  8
0
100
AcDbCircle
 10
121.5506909722113
 20
69.37900630740308
 30
0.0
 40
0.093740155
  0
CIRCLE
  5
33C
330
1F
100
AcDbEntity
  8
0
100
AcDbCircle
 10
125.6845509722113
 20
69.3790063074031
 30
0.0
 40
0.093740155
  0
CIRCLE
  5
33D
330
1F
100
AcDbEntity
  8
0
100
AcDbCircle
 10
125.6845509722113
 20
65.24514630740309
 30
0.0
 40
0.093740155
  0
CIRCLE
  5
33E
330
1F
100
AcDbEntity
  8
0
100
AcDbCircle
 10
121.5506909722113
 20
65.24514630740309
 30
0.0
 40
0.093740155
  0
CIRCLE
  5
33F
330
1F
100
AcDbEntity
  8
0
100
AcDbCircle
 10
123.6176209722113
 20
67.31207630740311
 30
0.0
 40
2.362204999999999
  0
CIRCLE
  5
340
330
1F
100
AcDbEntity
  8
0
100
AcDbCircle
 10
126.3195656780937
 20
69.37900630740308
 30
0.0
 40
0.093740155
  0
CIRCLE
  5
341
330
1F
100
AcDbEntity
  8
0
100
AcDbCircle
 10
130.4534256780937
 20
69.3790063074031
 30
0.0
 40
0.093740155
  0
CIRCLE
  5
342
330
1F
100
AcDbEntity
  8
0
100
AcDbCircle
 10
130.4534256780937
 20
65.24514630740309
 30
0.0
 40
0.093740155
  0
CIRCLE
  5
343
330
1F
100
AcDbEntity
  8
0
100
AcDbCircle
 10
126.3195656780937
 20
65.24514630740309
 30
0.0
 40
0.093740155
  0
CIRCLE
  5
344
330
1F
100
AcDbEntity
  8
0
100
AcDbCircle
 10
128.3864956780937
 20
67.31207630740311
 30
0.0
 40
2.362204999999999
  0
CIRCLE
  5
345
330
1F
100
AcDbEntity
  8
0
100
AcDbCircle
 10
131.088440383976
 20
69.37900630740308
 30
0.0
 40
0.093740155
  0
CIRCLE
  5
346
330
1F
100
AcDbEntity
  8
0
100
AcDbCircle
 10
135.222300383976
 20
69.3790063074031
 30
0.0
 40
0.093740155
  0
CIRCLE
  5
347
330
1F
100
AcDbEntity
  8
0
100
AcDbCircle
 10
135.222300383976
 20
65.24514630740309
 30
0.0
 40
0.093740155
  0
CIRCLE
  5
348
330
1F
100
AcDbEntity
  8
0
100
AcDbCircle
 10
131.088440383976
 20
65.24514630740309
 30
0.0
 40
0.093740155
  0
CIRCLE
  5
349
330
1F
100
AcDbEntity
  8
0
100
AcDbCircle
 10
133.155370383976
 20
67.31207630740311
 30
0.0
 40
2.362204999999999
  0
CIRCLE
  5
34A
330
1F
100
AcDbEntity
  8
0
100
AcDbCircle
 10
135.8573150898584
 20
69.37900630740308
 30
0.0
 40
0.093740155
  0
CIRCLE
  5
34B
330
1F
100
AcDbEntity
  8
0
100
AcDbCircle
 10
139.9911750898584
 20
69.3790063074031
 30
0.0
 40
0.093740155
  0
CIRCLE
  5
34C
330
1F
100
AcDbEntity
  8
0
100
AcDbCircle
 10
139.9911750898584
 20
65.24514630740309
 30
0.0
 40
0.093740155
  0
CIRCLE
  5
34D
330
1F
100
AcDbEntity
  8
0
100
AcDbCircle
 10
135.8573150898584
 20
65.24514630740309
 30
0.0
 40
0.093740155
  0
CIRCLE
  5
34E
330
1F
100
AcDbEntity
  8
0
100
AcDbCircle
 10
137.9242450898584
 20
67.31207630740311
 30
0.0
 40
2.362204999999999
  0
CIRCLE
  5
34F
330
1F
100
AcDbEntity
  8
0
100
AcDbCircle
 10
140.6261897957407
 20
69.37900630740308
 30
0.0
 40
0.093740155
  0
CIRCLE
  5
350
330
1F
100
AcDbEntity
  8
0
100
AcDbCircle
 10
144.7600497957408
 20
69.3790063074031
 30
0.0
 40
0.093740155
  0
CIRCLE
  5
351
330
1F
100
AcDbEntity
  8
0
100
AcDbCircle
 10
144.7600497957408
 20
65.24514630740309
 30
0.0
 40
0.093740155
  0
CIRCLE
  5
352
330
1F
100
AcDbEntity
  8
0
100
AcDbCircle
 10
140.6261897957407
 20
65.24514630740309
 30
0.0
 40
0.093740155
  0
CIRCLE
  5
353
330
1F
100
AcDbEntity
  8
0
100
AcDbCircle
 10
142.6931197957407
 20
67.31207630740311
 30
0.0
 40
2.362204999999999
  0
ENDSEC
  0
SECTION
  2
OBJECTS
  0
DICTIONARY
  5
C
330
0
100
AcDbDictionary
281
     1
  3
ACAD_COLOR
350
73
  3
ACAD_GROUP
350
D
  3
ACAD_LAYOUT
350
1A
  3
ACAD_MATERIAL
350
72
  3
ACAD_MLINESTYLE
350
17
  3
ACAD_PLOTSETTINGS
350
19
  3
ACAD_PLOTSTYLENAME
350
E
  3
ACAD_TABLESTYLE
350
86
  3
AcDbVariableDictionary
350
66
  0
DICTIONARY
  5
163
330
1F
100
AcDbDictionary
280
     1
281
     1
  3
ACAD_SORTENTS
360
164
  0
DICTIONARY
  5
73
102
{ACAD_REACTORS
330
C
102
}
330
C
100
AcDbDictionary
281
     1
  0
DICTIONARY
  5
D
102
{ACAD_REACTORS
330
C
102
}
330
C
100
AcDbDictionary
281
     1
  0
DICTIONARY
  5
1A
102
{ACAD_REACTORS
330
C
102
}
330
C
100
AcDbDictionary
281
     1
  3
Layout1
350
59
  3
Layout2
350
5E
  3
Model
350
22
  0
DICTIONARY
  5
72
102
{ACAD_REACTORS
330
C
102
}
330
C
100
AcDbDictionary
281
     1
  0
DICTIONARY
  5
17
102
{ACAD_REACTORS
330
C
102
}
330
C
100
AcDbDictionary
281
     1
  3
Standard
350
18
  0
DICTIONARY
  5
19
102
{ACAD_REACTORS
330
C
102
}
330
C
100
AcDbDictionary
281
     1
  0
ACDBDICTIONARYWDFLT
  5
E
102
{ACAD_REACTORS
330
C
102
}
330
C
100
AcDbDictionary
281
     1
  3
Normal
350
F
100
AcDbDictionaryWithDefault
340
F
  0
DICTIONARY
  5
86
102
{ACAD_REACTORS
330
C
102
}
330
C
100
AcDbDictionary
281
     1
  3
Standard
350
87
  0
DICTIONARY
  5
66
102
{ACAD_REACTORS
330
C
102
}
330
C
100
AcDbDictionary
281
     1
  3
CTABLESTYLE
350
17A
  3
DIMASSOC
350
67
  3
HIDETEXT
350
6B
  0
SORTENTSTABLE
  5
164
102
{ACAD_REACTORS
330
163
102
}
330
163
100
AcDbSortentsTable
330
1F
331
176
  5
17D
331
165
  5
174
331
174
  5
17F
331
172
  5
17C
331
161
  5
175
331
183
  5
16A
331
15F
  5
16B
331
181
  5
166
331
15D
  5
162
331
16C
  5
178
331
17D
  5
16C
331
16A
  5
161
331
159
  5
15A
331
177
  5
181
331
166
  5
15B
331
175
  5
180
331
173
  5
17E
331
162
  5
176
331
160
  5
173
331
15E
  5
167
331
180
  5
165
331
17E
  5
172
331
15C
  5
15F
331
16B
  5
177
331
17C
  5
168
331
178
  5
183
  0
LAYOUT
  5
59
102
{ACAD_REACTORS
330
1A
102
}
330
1A
100
AcDbPlotSettings
  1

  2
None
  4

  6

 40
0.0
 41
0.0
 42
0.0
 43
0.0
 44
0.0
 45
0.0
 46
0.0
 47
0.0
 48
0.0
 49
0.0
140
0.0
141
0.0
142
1.0
143
1.0
 70
   688
 72
     0
 73
     0
 74
     5
  7

 75
    16
147
1.0
 76
     0
 77
     2
 78
   300
148
0.0
149
0.0
100
AcDbLayout
  1
Layout1
 70
     1
 71
     1
 10
0.0
 20
0.0
 11
12.0
 21
9.0
 12
0.0
 22
0.0
 32
0.0
 14
0.0
 24
0.0
 34
0.0
 15
0.0
 25
0.0
 35
0.0
146
0.0
 13
0.0
 23
0.0
 33
0.0
 16
1.0
 26
0.0
 36
0.0
 17
0.0
 27
1.0
 37
0.0
 76
     0
330
58
  0
LAYOUT
  5
5E
102
{ACAD_REACTORS
330
1A
102
}
330
1A
100
AcDbPlotSettings
  1

  2
None
  4

  6

 40
0.0
 41
0.0
 42
0.0
 43
0.0
 44
0.0
 45
0.0
 46
0.0
 47
0.0
 48
0.0
 49
0.0
140
0.0
141
0.0
142
1.0
143
1.0
 70
   688
 72
     0
 73
     0
 74
     5
  7

 75
    16
147
1.0
 76
     0
 77
     2
 78
   300
148
0.0
149
0.0
100
AcDbLayout
  1
Layout2
 70
     1
 71
     2
 10
0.0
 20
0.0
 11
12.0
 21
9.0
 12
0.0
 22
0.0
 32
0.0
 14
0.0
 24
0.0
 34
0.0
 15
0.0
 25
0.0
 35
0.0
146
0.0
 13
0.0
 23
0.0
 33
0.0
 16
1.0
 26
0.0
 36
0.0
 17
0.0
 27
1.0
 37
0.0
 76
     0
330
5D
  0
LAYOUT
  5
22
102
{ACAD_REACTORS
330
1A
102
}
330
1A
100
AcDbPlotSettings
  1

  2
none_device
  4
ANSI_A_(8.50_x_11.00_Inches)
  6

 40
6.349999904632568
 41
19.04999923706055
 42
6.350006103515625
 43
19.04998779296875
 44
215.8999938964844
 45
279.3999938964844
 46
0.0
 47
0.0
 48
0.0
 49
0.0
140
0.0
141
0.0
142
1.0
143
2.584895464708373
 70
 11952
 72
     0
 73
     1
 74
     0
  7

 75
     0
147
0.3868628397755418
 76
     0
 77
     2
 78
   300
148
0.0
149
0.0
100
AcDbLayout
  1
Model
 70
     1
 71
     0
 10
0.0
 20
0.0
 11
12.0
 21
9.0
 12
0.0
 22
0.0
 32
0.0
 14
0.0
 24
0.0
 34
0.0
 15
0.0
 25
0.0
 35
0.0
146
0.0
 13
0.0
 23
0.0
 33
0.0
 16
1.0
 26
0.0
 36
0.0
 17
0.0
 27
1.0
 37
0.0
 76
     0
330
1F
  0
MLINESTYLE
  5
18
102
{ACAD_REACTORS
330
17
102
}
330
17
100
AcDbMlineStyle
  2
STANDARD
 70
     0
  3

 62
   256
 51
90.0
 52
90.0
 71
     2
 49
0.5
 62
   256
  6
BYLAYER
 49
-0.5
 62
   256
  6
BYLAYER
  0
ACDBPLACEHOLDER
  5
F
102
{ACAD_REACTORS
330
E
102
}
330
E
  0
TABLESTYLE
  5
87
102
{ACAD_REACTORS
330
86
102
}
330
86
100
AcDbTableStyle
  3
Standard
 70
     0
 71
     0
 40
0.06
 41
0.06
280
     0
281
     0
  7
Standard
140
0.18
170
     2
 62
     0
 63
     7
283
     0
274
    -2
284
     1
 64
     0
275
    -2
285
     1
 65
     0
276
    -2
286
     1
 66
     0
277
    -2
287
     1
 67
     0
278
    -2
288
     1
 68
     0
279
    -2
289
     1
 69
     0
  7
Standard
140
0.25
170
     5
 62
     0
 63
     7
283
     0
274
    -2
284
     1
 64
     0
275
    -2
285
     1
 65
     0
276
    -2
286
     1
 66
     0
277
    -2
287
     1
 67
     0
278
    -2
288
     1
 68
     0
279
    -2
289
     1
 69
     0
  7
Standard
140
0.18
170
     5
 62
     0
 63
     7
283
     0
274
    -2
284
     1
 64
     0
275
    -2
285
     1
 65
     0
276
    -2
286
     1
 66
     0
277
    -2
287
     1
 67
     0
278
    -2
288
     1
 68
     0
279
    -2
289
     1
 69
     0
  0
DICTIONARYVAR
  5
17A
102
{ACAD_REACTORS
330
66
102
}
330
66
100
DictionaryVariables
280
     0
  1
STANDARD
  0
DICTIONARYVAR
  5
67
102
{ACAD_REACTORS
330
66
102
}
330
66
100
DictionaryVariables
280
     0
  1
2
  0
DICTIONARYVAR
  5
6B
102
{ACAD_REACTORS
330
66
102
}
330
66
100
DictionaryVariables
280
     0
  1
1
  0
ENDSEC
  0
EOF
