0
SECTION
2
HEADER
9
$INSUNITS
70
4
9
$ACADVER
1
AC1014
9
$HANDSEED
5
FFFF
0
ENDSEC
0
SECTION
2
TABLES
0
TABLE
2
VPORT
5
8
100
AcDbSymbolTable
0
ENDTAB
0
TABLE
2
LTYPE
5
5
100
AcDbSymbolTable
0
LTYPE
5
14
100
AcDbSymbolTableRecord
100
AcDbLinetypeTableRecord
2
BYBLOCK
70
0
0
LTYPE
5
15
100
AcDbSymbolTableRecord
100
AcDbLinetypeTableRecord
2
BYLAYER
70
0
0
ENDTAB
0
TABLE
2
LAYER
5
2
100
AcDbSymbolTable
70
2
0
LAYER
5
50
100
AcDbSymbolTableRecord
100
AcDbLayerTableRecord
2
0
70
0
6
CONTINUOUS
0
ENDTAB
0
TABLE
2
STYLE
5
3
100
AcDbSymbolTable
70
1
0
STYLE
5
11
100
AcDbSymbolTableRecord
100
AcDbTextStyleTableRecord
2
STANDARD
70
0
0
ENDTAB
0
TABLE
2
VIEW
5
6
100
AcDbSymbolTable
70
0
0
ENDTAB
0
TABLE
2
UCS
5
7
100
AcDbSymbolTable
70
0
0
ENDTAB
0
TABLE
2
APPID
5
9
100
AcDbSymbolTable
70
2
0
APPID
5
12
100
AcDbSymbolTableRecord
100
AcDbRegAppTableRecord
2
ACAD
70
0
0
ENDTAB
0
TABLE
2
DIMSTYLE
5
A
100
AcDbSymbolTable
70
1
0
ENDTAB
0
TABLE
2
BLOCK_RECORD
5
1
100
AcDbSymbolTable
70
1
0
BLOCK_RECORD
5
1F
100
AcDbSymbolTableRecord
100
AcDbBlockTableRecord
2
*MODEL_SPACE
0
BLOCK_RECORD
5
1B
100
AcDbSymbolTableRecord
100
AcDbBlockTableRecord
2
*PAPER_SPACE
0
ENDTAB
0
ENDSEC
0
SECTION
2
BLOCKS
0
BLOCK
5
20
100
AcDbEntity
100
AcDbBlockBegin
2
*MODEL_SPACE
0
ENDBLK
5
21
100
AcDbEntity
100
AcDbBlockEnd
0
BLOCK
5
1C
100
AcDbEntity
100
AcDbBlockBegin
2
*PAPER_SPACE
0
ENDBLK
5
1D
100
AcDbEntity
100
AcDbBlockEnd
0
ENDSEC
0
SECTION
2
ENTITIES
0
LINE
5
100
100
AcDbEntity
8
0
100
AcDbLine
10
1.7604297737743203e-14
20
-287.5
30
0
11
9.9999999999999982
21
-287.5
31
0
0
ARC
5
101
100
AcDbEntity
8
0
100
AcDbCircle
10
16.25
20
-293.75
30
0
40
6.25
210
0
220
0
230
1
100
AcDbArc
50
-180
51
0
0
LINE
5
102
100
AcDbEntity
8
0
100
AcDbLine
10
1.7604297737743203e-14
20
-287.5
30
0
11
9.9999999999999982
21
-287.5
31
0
0
LINE
5
103
100
AcDbEntity
8
0
100
AcDbLine
10
9.9999999999999982
20
-287.5
30
0
11
10
21
-293.75
31
0
0
LINE
5
104
100
AcDbEntity
8
0
100
AcDbLine
10
22.5
20
-293.75
30
0
11
22.5
21
-287.5
31
0
0
LINE
5
105
100
AcDbEntity
8
0
100
AcDbLine
10
22.500000000000018
20
-287.5
30
0
11
32.5
21
-287.5
31
0
0
LINE
5
106
100
AcDbEntity
8
0
100
AcDbLine
10
32.5
20
-287.5
30
0
11
32.5
21
-293.75
31
0
0
ARC
5
107
100
AcDbEntity
8
0
100
AcDbCircle
10
38.75
20
-293.75
30
0
40
6.25
210
0
220
0
230
1
100
AcDbArc
50
-180
51
0
0
LINE
5
108
100
AcDbEntity
8
0
100
AcDbLine
10
45
20
-293.75
30
0
11
45
21
-287.5
31
0
0
LINE
5
109
100
AcDbEntity
8
0
100
AcDbLine
10
45.000000000000014
20
-287.5
30
0
11
55
21
-287.5
31
0
0
LINE
5
110
100
AcDbEntity
8
0
100
AcDbLine
10
55
20
-287.5
30
0
11
55
21
-293.75
31
0
0
ARC
5
111
100
AcDbEntity
8
0
100
AcDbCircle
10
61.25
20
-293.75
30
0
40
6.25
210
0
220
0
230
1
100
AcDbArc
50
-180
51
0
0
LINE
5
112
100
AcDbEntity
8
0
100
AcDbLine
10
67.5
20
-293.75
30
0
11
67.5
21
-287.5
31
0
0
LINE
5
113
100
AcDbEntity
8
0
100
AcDbLine
10
67.500000000000014
20
-287.5
30
0
11
77.5
21
-287.5
31
0
0
LINE
5
114
100
AcDbEntity
8
0
100
AcDbLine
10
77.5
20
-287.5
30
0
11
77.5
21
-293.75
31
0
0
ARC
5
115
100
AcDbEntity
8
0
100
AcDbCircle
10
83.75
20
-293.75
30
0
40
6.25
210
0
220
0
230
1
100
AcDbArc
50
-180
51
0
0
LINE
5
116
100
AcDbEntity
8
0
100
AcDbLine
10
90
20
-293.75
30
0
11
90
21
-287.5
31
0
0
LINE
5
117
100
AcDbEntity
8
0
100
AcDbLine
10
90.000000000000014
20
-287.5
30
0
11
100
21
-287.5
31
0
0
LINE
5
118
100
AcDbEntity
8
0
100
AcDbLine
10
100
20
-287.5
30
0
11
100
21
-293.75
31
0
0
ARC
5
119
100
AcDbEntity
8
0
100
AcDbCircle
10
106.25
20
-293.75
30
0
40
6.25
210
0
220
0
230
1
100
AcDbArc
50
-180
51
0
0
LINE
5
120
100
AcDbEntity
8
0
100
AcDbLine
10
112.5
20
-293.75
30
0
11
112.5
21
-287.5
31
0
0
LINE
5
121
100
AcDbEntity
8
0
100
AcDbLine
10
112.5
20
-287.5
30
0
11
122.5
21
-287.5
31
0
0
LINE
5
122
100
AcDbEntity
8
0
100
AcDbLine
10
0
20
20
30
0
11
0
21
-90
31
0
0
LINE
5
123
100
AcDbEntity
8
0
100
AcDbLine
10
0
20
-90
30
0
11
-9
21
-90
31
0
0
LINE
5
124
100
AcDbEntity
8
0
100
AcDbLine
10
-9
20
-90
30
0
11
-9
21
-190
31
0
0
LINE
5
125
100
AcDbEntity
8
0
100
AcDbLine
10
-9
20
-190
30
0
11
0
21
-190
31
0
0
LINE
5
126
100
AcDbEntity
8
0
100
AcDbLine
10
0
20
-190
30
0
11
1.7604297737743203e-14
21
-287.5
31
0
0
LINE
5
127
100
AcDbEntity
8
0
100
AcDbLine
10
0
20
20
30
0
11
71
21
20
31
0
0
LINE
5
128
100
AcDbEntity
8
0
100
AcDbLine
10
71
20
20
30
0
11
71
21
29
31
0
0
LINE
5
129
100
AcDbEntity
8
0
100
AcDbLine
10
71
20
29
30
0
11
161
21
29
31
0
0
LINE
5
130
100
AcDbEntity
8
0
100
AcDbLine
10
161
20
29
30
0
11
161
21
20
31
0
0
LINE
5
131
100
AcDbEntity
8
0
100
AcDbLine
10
161
20
20
30
0
11
241
21
19.999999999999986
31
0
0
LINE
5
132
100
AcDbEntity
8
0
100
AcDbLine
10
241
20
19.999999999999986
30
0
11
241
21
-141.11764705882345
31
0
0
LINE
5
133
100
AcDbEntity
8
0
100
AcDbLine
10
122.5
20
-287.5
30
0
11
241
21
-141.11764705882345
31
0
0
LWPOLYLINE
5
134
100
AcDbEntity
8
0
100
AcDbPolyline
90
4
70
1
43
0.0
10
71
20
-60
10
151
20
-60
10
151
20
-69
10
71
20
-69
0
LWPOLYLINE
5
135
100
AcDbEntity
8
0
100
AcDbPolyline
90
4
70
1
43
0.0
10
71
20
-150
10
151
20
-150
10
151
20
-159
10
71
20
-159
0
ENDSEC
0
SECTION
2
OBJECTS
0
DICTIONARY
5
C
100
AcDbDictionary
3
ACAD_GROUP
350
D
3
ACAD_MLINESTYLE
350
17
0
DICTIONARY
5
D
100
AcDbDictionary
0
DICTIONARY
5
1A
330
C
100
AcDbDictionary
0
DICTIONARY
5
17
100
AcDbDictionary
0
ENDSEC
0
EOF
