  0
SECTION
  2
HEADER
  9
$ACADVER
  1
AC1027
  9
$ACADMAINTVER
 70
   105
  9
$DWGCODEPAGE
  3
ANSI_1252
  9
$REQUIREDVERSIONS
160
                 0
  9
$INSBASE
 10
0.0
 20
0.0
 30
0.0
  9
$EXTMIN
 10
-116.0
 20
-116.0
 30
0.0
  9
$EXTMAX
 10
116.0
 20
147.0
 30
0.0
  9
$LIMMIN
 10
0.0
 20
0.0
  9
$LIMMAX
 10
420.0
 20
297.0
  9
$ORTHOMODE
 70
     0
  9
$REGENMODE
 70
     1
  9
$FILLMODE
 70
     1
  9
$QTEXTMODE
 70
     0
  9
$MIRRTEXT
 70
     0
  9
$LTSCALE
 40
1.0
  9
$ATTMODE
 70
     1
  9
$TEXTSIZE
 40
2.5
  9
$TRACEWID
 40
1.0
  9
$TEXTSTYLE
  7
Standard
  9
$CLAYER
  8
BoardOutLine
  9
$CELTYPE
  6
ByLayer
  9
$CECOLOR
 62
   256
  9
$CELTSCALE
 40
1.0
  9
$DISPSILH
 70
     0
  9
$DIMSCALE
 40
1.0
  9
$DIMASZ
 40
2.5
  9
$DIMEXO
 40
0.625
  9
$DIMDLI
 40
3.75
  9
$DIMRND
 40
0.0
  9
$DIMDLE
 40
0.0
  9
$DIMEXE
 40
1.25
  9
$DIMTP
 40
0.0
  9
$DIMTM
 40
0.0
  9
$DIMTXT
 40
2.5
  9
$DIMCEN
 40
2.5
  9
$DIMTSZ
 40
0.0
  9
$DIMTOL
 70
     0
  9
$DIMLIM
 70
     0
  9
$DIMTIH
 70
     0
  9
$DIMTOH
 70
     0
  9
$DIMSE1
 70
     0
  9
$DIMSE2
 70
     0
  9
$DIMTAD
 70
     1
  9
$DIMZIN
 70
     8
  9
$DIMBLK
  1

  9
$DIMASO
 70
     1
  9
$DIMSHO
 70
     1
  9
$DIMPOST
  1

  9
$DIMAPOST
  1

  9
$DIMALT
 70
     0
  9
$DIMALTD
 70
     3
  9
$DIMALTF
 40
0.03937007874016
  9
$DIMLFAC
 40
1.0
  9
$DIMTOFL
 70
     1
  9
$DIMTVP
 40
0.0
  9
$DIMTIX
 70
     0
  9
$DIMSOXD
 70
     0
  9
$DIMSAH
 70
     0
  9
$DIMBLK1
  1

  9
$DIMBLK2
  1

  9
$DIMSTYLE
  2
Standard
  9
$DIMCLRD
 70
    18
  9
$DIMCLRE
 70
    18
  9
$DIMCLRT
 70
     0
  9
$DIMTFAC
 40
1.0
  9
$DIMGAP
 40
0.625
  9
$DIMJUST
 70
     0
  9
$DIMSD1
 70
     0
  9
$DIMSD2
 70
     0
  9
$DIMTOLJ
 70
     0
  9
$DIMTZIN
 70
     8
  9
$DIMALTZ
 70
     0
  9
$DIMALTTZ
 70
     0
  9
$DIMUPT
 70
     0
  9
$DIMDEC
 70
     2
  9
$DIMTDEC
 70
     2
  9
$DIMALTU
 70
     2
  9
$DIMALTTD
 70
     3
  9
$DIMTXSTY
  7
Standard
  9
$DIMAUNIT
 70
     0
  9
$DIMADEC
 70
     0
  9
$DIMALTRND
 40
0.0
  9
$DIMAZIN
 70
     0
  9
$DIMDSEP
 70
    44
  9
$DIMATFIT
 70
     3
  9
$DIMFRAC
 70
     0
  9
$DIMLDRBLK
  1

  9
$DIMLUNIT
 70
     2
  9
$DIMLWD
 70
    -2
  9
$DIMLWE
 70
    -2
  9
$DIMTMOVE
 70
     0
  9
$DIMFXL
 40
1.0
  9
$DIMFXLON
 70
     0
  9
$DIMJOGANG
 40
0.7853981633974483
  9
$DIMTFILL
 70
     0
  9
$DIMTFILLCLR
 70
     0
  9
$DIMARCSYM
 70
     0
  9
$DIMLTYPE
  6

  9
$DIMLTEX1
  6

  9
$DIMLTEX2
  6

  9
$DIMTXTDIRECTION
 70
     0
  9
$LUNITS
 70
     2
  9
$LUPREC
 70
     4
  9
$SKETCHINC
 40
1.0
  9
$FILLETRAD
 40
0.0
  9
$AUNITS
 70
     0
  9
$AUPREC
 70
     0
  9
$MENU
  1
.
  9
$ELEVATION
 40
0.0
  9
$PELEVATION
 40
0.0
  9
$THICKNESS
 40
0.0
  9
$LIMCHECK
 70
     0
  9
$CHAMFERA
 40
0.0
  9
$CHAMFERB
 40
0.0
  9
$CHAMFERC
 40
0.0
  9
$CHAMFERD
 40
0.0
  9
$SKPOLY
 70
     0
  9
$TDCREATE
 40
2460791.61202316
  9
$TDUCREATE
 40
2460791.903689826
  9
$TDUPDATE
 40
2460791.61202331
  9
$TDUUPDATE
 40
2460791.903689977
  9
$TDINDWG
 40
0.0000000116
  9
$TDUSRTIMER
 40
0.0000000116
  9
$USRTIMER
 70
     1
  9
$ANGBASE
 50
0.0
  9
$ANGDIR
 70
     0
  9
$PDMODE
 70
     0
  9
$PDSIZE
 40
0.0
  9
$PLINEWID
 40
0.0
  9
$SPLFRAME
 70
     0
  9
$SPLINETYPE
 70
     6
  9
$SPLINESEGS
 70
     8
  9
$HANDSEED
  5
218A
  9
$SURFTAB1
 70
     6
  9
$SURFTAB2
 70
     6
  9
$SURFTYPE
 70
     6
  9
$SURFU
 70
     6
  9
$SURFV
 70
     6
  9
$UCSBASE
  2

  9
$UCSNAME
  2

  9
$UCSORG
 10
0.0
 20
0.0
 30
0.0
  9
$UCSXDIR
 10
1.0
 20
0.0
 30
0.0
  9
$UCSYDIR
 10
0.0
 20
1.0
 30
0.0
  9
$UCSORTHOREF
  2

  9
$UCSORTHOVIEW
 70
     0
  9
$UCSORGTOP
 10
0.0
 20
0.0
 30
0.0
  9
$UCSORGBOTTOM
 10
0.0
 20
0.0
 30
0.0
  9
$UCSORGLEFT
 10
0.0
 20
0.0
 30
0.0
  9
$UCSORGRIGHT
 10
0.0
 20
0.0
 30
0.0
  9
$UCSORGFRONT
 10
0.0
 20
0.0
 30
0.0
  9
$UCSORGBACK
 10
0.0
 20
0.0
 30
0.0
  9
$PUCSBASE
  2

  9
$PUCSNAME
  2

  9
$PUCSORG
 10
0.0
 20
0.0
 30
0.0
  9
$PUCSXDIR
 10
1.0
 20
0.0
 30
0.0
  9
$PUCSYDIR
 10
0.0
 20
1.0
 30
0.0
  9
$PUCSORTHOREF
  2

  9
$PUCSORTHOVIEW
 70
     0
  9
$PUCSORGTOP
 10
0.0
 20
0.0
 30
0.0
  9
$PUCSORGBOTTOM
 10
0.0
 20
0.0
 30
0.0
  9
$PUCSORGLEFT
 10
0.0
 20
0.0
 30
0.0
  9
$PUCSORGRIGHT
 10
0.0
 20
0.0
 30
0.0
  9
$PUCSORGFRONT
 10
0.0
 20
0.0
 30
0.0
  9
$PUCSORGBACK
 10
0.0
 20
0.0
 30
0.0
  9
$USERI1
 70
     0
  9
$USERI2
 70
     0
  9
$USERI3
 70
     0
  9
$USERI4
 70
     0
  9
$USERI5
 70
     0
  9
$USERR1
 40
0.0
  9
$USERR2
 40
0.0
  9
$USERR3
 40
0.0
  9
$USERR4
 40
0.0
  9
$USERR5
 40
0.0
  9
$WORLDVIEW
 70
     1
  9
$SHADEDGE
 70
     3
  9
$SHADEDIF
 70
    70
  9
$TILEMODE
 70
     1
  9
$MAXACTVP
 70
    64
  9
$PINSBASE
 10
0.0
 20
0.0
 30
0.0
  9
$PLIMCHECK
 70
     0
  9
$PEXTMIN
 10
0.0
 20
0.0
 30
0.0
  9
$PEXTMAX
 10
0.0
 20
0.0
 30
0.0
  9
$PLIMMIN
 10
-20.0
 20
-7.5
  9
$PLIMMAX
 10
277.0
 20
202.5
  9
$UNITMODE
 70
     0
  9
$VISRETAIN
 70
     1
  9
$PLINEGEN
 70
     0
  9
$PSLTSCALE
 70
     1
  9
$TREEDEPTH
 70
  3020
  9
$CMLSTYLE
  2
Standard
  9
$CMLJUST
 70
     0
  9
$CMLSCALE
 40
20.0
  9
$PROXYGRAPHICS
 70
     1
  9
$MEASUREMENT
 70
     1
  9
$CELWEIGHT
370
    -1
  9
$ENDCAPS
280
     0
  9
$JOINSTYLE
280
     0
  9
$LWDISPLAY
290
     0
  9
$INSUNITS
 70
     4
  9
$HYPERLINKBASE
  1

  9
$STYLESHEET
  1

  9
$XEDIT
290
     1
  9
$CEPSNTYPE
380
     0
  9
$PSTYLEMODE
290
     1
  9
$FINGERPRINTGUID
  2
{52498d46-02eb-43ad-bce0-996538381c5e}
  9
$VERSIONGUID
  2
{FAEB1C32-E019-11D5-929B-00C0DF256EC4}
  9
$EXTNAMES
290
     1
  9
$PSVPSCALE
 40
0.0
  9
$OLESTARTUP
290
     0
  9
$SORTENTS
280
   127
  9
$INDEXCTL
280
     0
  9
$HIDETEXT
280
     1
  9
$XCLIPFRAME
280
     2
  9
$HALOGAP
280
     0
  9
$OBSCOLOR
 70
   257
  9
$OBSLTYPE
280
     0
  9
$INTERSECTIONDISPLAY
280
     0
  9
$INTERSECTIONCOLOR
 70
   257
  9
$DIMASSOC
280
     2
  9
$PROJECTNAME
  1

  9
$CAMERADISPLAY
290
     0
  9
$LENSLENGTH
 40
50.0
  9
$CAMERAHEIGHT
 40
0.0
  9
$STEPSPERSEC
 40
2.0
  9
$STEPSIZE
 40
6.0
  9
$3DDWFPREC
 40
2.0
  9
$PSOLWIDTH
 40
0.25
  9
$PSOLHEIGHT
 40
4.0
  9
$LOFTANG1
 40
1.570796326794897
  9
$LOFTANG2
 40
1.570796326794897
  9
$LOFTMAG1
 40
0.0
  9
$LOFTMAG2
 40
0.0
  9
$LOFTPARAM
 70
     7
  9
$LOFTNORMALS
280
     1
  9
$LATITUDE
 40
37.795
  9
$LONGITUDE
 40
-122.394
  9
$NORTHDIRECTION
 40
0.0
  9
$TIMEZONE
 70
 -8000
  9
$LIGHTGLYPHDISPLAY
280
     1
  9
$TILEMODELIGHTSYNCH
280
     1
  9
$CMATERIAL
347
20CB
  9
$SOLIDHIST
280
     0
  9
$SHOWHIST
280
     1
  9
$DWFFRAME
280
     2
  9
$DGNFRAME
280
     2
  9
$REALWORLDSCALE
290
     1
  9
$INTERFERECOLOR
 62
   256
  9
$CSHADOW
280
     0
  9
$SHADOWPLANELOCATION
 40
0.0
  0
ENDSEC
  0
SECTION
  2
CLASSES
  0
CLASS
  1
ACDBDICTIONARYWDFLT
  2
AcDbDictionaryWithDefault
  3
ObjectDBX Classes
 90
        0
 91
        3
280
     0
281
     0
  0
CLASS
  1
VISUALSTYLE
  2
AcDbVisualStyle
  3
ObjectDBX Classes
 90
     4095
 91
        3
280
     0
281
     0
  0
CLASS
  1
MATERIAL
  2
AcDbMaterial
  3
ObjectDBX Classes
 90
     1153
 91
        3
280
     0
281
     0
  0
CLASS
  1
SCALE
  2
AcDbScale
  3
ObjectDBX Classes
 90
     1153
 91
        3
280
     0
281
     0
  0
CLASS
  1
TABLESTYLE
  2
AcDbTableStyle
  3
ObjectDBX Classes
 90
     4095
 91
        3
280
     0
281
     0
  0
CLASS
  1
MLEADERSTYLE
  2
AcDbMLeaderStyle
  3
ACDB_MLEADERSTYLE_CLASS
 90
     4095
 91
        3
280
     0
281
     0
  0
CLASS
  1
SUN
  2
AcDbSun
  3
SCENEOE
 90
     1153
 91
        3
280
     0
281
     0
  0
CLASS
  1
DICTIONARYVAR
  2
AcDbDictionaryVar
  3
ObjectDBX Classes
 90
        0
 91
        3
280
     0
281
     0
  0
CLASS
  1
CELLSTYLEMAP
  2
AcDbCellStyleMap
  3
ObjectDBX Classes
 90
     1152
 91
        3
280
     0
281
     0
  0
ENDSEC
  0
SECTION
  2
TABLES
  0
TABLE
  2
VPORT
  5
2090
330
0
100
AcDbSymbolTable
 70
     1
  0
VPORT
  5
20B0
330
2090
100
AcDbSymbolTableRecord
100
AcDbViewportTableRecord
  2
*Active
 70
     0
 10
0.0
 20
0.0
 11
1.0
 21
1.0
 12
0.0
 22
15.50000000000003
 13
0.0
 23
0.0
 14
0.5
 24
0.5
 15
0.5
 25
0.5
 16
0.0
 26
0.0
 36
1.0
 17
0.0
 27
0.0
 37
0.0
 40
282.7151424287856
 41
2.044630404463041
 42
50.0
 43
0.0
 44
0.0
 50
0.0
 51
0.0
 71
     0
 72
   100
 73
     1
 74
     3
 75
     0
 76
     0
 77
     0
 78
     0
281
     0
 65
     1
110
0.0
120
0.0
130
0.0
111
1.0
121
0.0
131
0.0
112
0.0
122
1.0
132
0.0
 79
     0
146
0.0
348
20B6
 60
     3
 61
     5
292
     1
282
     1
141
0.0
142
0.0
 63
   250
361
20F4
  0
ENDTAB
  0
TABLE
  2
LTYPE
  5
208D
330
0
100
AcDbSymbolTable
 70
    48
  0
LTYPE
  5
209B
330
208D
100
AcDbSymbolTableRecord
100
AcDbLinetypeTableRecord
  2
ByBlock
 70
     0
  3

 72
    65
 73
     0
 40
0.0
  0
LTYPE
  5
209C
330
208D
100
AcDbSymbolTableRecord
100
AcDbLinetypeTableRecord
  2
ByLayer
 70
     0
  3

 72
    65
 73
     0
 40
0.0
  0
LTYPE
  5
209D
330
208D
100
AcDbSymbolTableRecord
100
AcDbLinetypeTableRecord
  2
Continuous
 70
     0
  3
Solid line
 72
    65
 73
     0
 40
0.0
  0
LTYPE
  5
212F
330
208D
100
AcDbSymbolTableRecord
100
AcDbLinetypeTableRecord
  2
HIDDENX2
 70
     0
  3
Hidden (2x) ____ ____ ____ ____ ____ ____ ____ 
 72
    65
 73
     2
 40
19.05
 49
12.7
 74
     0
 49
-6.35
 74
     0
  0
LTYPE
  5
2131
330
208D
100
AcDbSymbolTableRecord
100
AcDbLinetypeTableRecord
  2
HOT_WATER_SUPPLY
 70
     0
  3
Hot water supply ---- HW ---- HW ---- HW ----
 72
    65
 73
     3
 40
22.86
 49
12.7
 74
     0
 49
-5.08
 74
     2
 75
     0
340
2130
 46
2.54
 50
0.0
 44
-2.54
 45
-1.27
  9
HW
 49
-5.08
 74
     0
  0
LTYPE
  5
2134
330
208D
100
AcDbSymbolTableRecord
100
AcDbLinetypeTableRecord
  2
ZIGZAG
 70
     0
  3
Zig zag /\/\/\/\/\/\/\/\/\/\/\/\/\/\/\/\/\/\/\/\/\/\/\/
 72
    65
 73
     4
 40
20.32254
 49
0.00254
 74
     0
 49
-5.08
 74
     2
 75
     0
340
2132
 46
5.08
 50
0.0
 44
-5.08
 45
0.0
  9
ZIG
 49
-10.16
 74
     2
 75
     0
340
2133
 46
5.08
 50
180.0
 44
5.08
 45
0.0
  9
ZIG
 49
-5.08
 74
     0
  0
LTYPE
  5
2135
330
208D
100
AcDbSymbolTableRecord
100
AcDbLinetypeTableRecord
  2
PHANTOMX2
 70
     0
  3
Phantom (2x) ____________    ____    ____   _
 72
    65
 73
     6
 40
127.0
 49
63.5
 74
     0
 49
-12.7
 74
     0
 49
12.7
 74
     0
 49
-12.7
 74
     0
 49
12.7
 74
     0
 49
-12.7
 74
     0
  0
LTYPE
  5
2137
330
208D
100
AcDbSymbolTableRecord
100
AcDbLinetypeTableRecord
  2
TRACKS
 70
     0
  3
Tracks -|-|-|-|-|-|-|-|-|-|-|-|-|-|-|-|-|-|-|-|-|-|-|-|-
 72
    65
 73
     2
 40
7.62
 49
3.81
 74
     2
 75
     0
340
2136
 46
6.35
 50
0.0
 44
0.0
 45
0.0
  9
TRACK1
 49
3.81
 74
     0
  0
LTYPE
  5
2138
330
208D
100
AcDbSymbolTableRecord
100
AcDbLinetypeTableRecord
  2
ACAD_ISO04W100
 70
     0
  3
ISO long-dash dot ____ . ____ . ____ . ____ . _
 72
    65
 73
     4
 40
30.0
 49
24.0
 74
     0
 49
-3.0
 74
     0
 49
0.0
 74
     0
 49
-3.0
 74
     0
  0
LTYPE
  5
2139
330
208D
100
AcDbSymbolTableRecord
100
AcDbLinetypeTableRecord
  2
ACAD_ISO05W100
 70
     0
  3
ISO long-dash double-dot ____ .. ____ .. ____ . 
 72
    65
 73
     6
 40
33.0
 49
24.0
 74
     0
 49
-3.0
 74
     0
 49
0.0
 74
     0
 49
-3.0
 74
     0
 49
0.0
 74
     0
 49
-3.0
 74
     0
  0
LTYPE
  5
213A
330
208D
100
AcDbSymbolTableRecord
100
AcDbLinetypeTableRecord
  2
ACAD_ISO02W100
 70
     0
  3
ISO dash __ __ __ __ __ __ __ __ __ __ __ __ __
 72
    65
 73
     2
 40
15.0
 49
12.0
 74
     0
 49
-3.0
 74
     0
  0
LTYPE
  5
213B
330
208D
100
AcDbSymbolTableRecord
100
AcDbLinetypeTableRecord
  2
ACAD_ISO03W100
 70
     0
  3
ISO dash space __    __    __    __    __    __
 72
    65
 73
     2
 40
30.0
 49
12.0
 74
     0
 49
-18.0
 74
     0
  0
LTYPE
  5
213C
330
208D
100
AcDbSymbolTableRecord
100
AcDbLinetypeTableRecord
  2
ACAD_ISO08W100
 70
     0
  3
ISO long-dash short-dash ____ __ ____ __ ____ _
 72
    65
 73
     4
 40
36.0
 49
24.0
 74
     0
 49
-3.0
 74
     0
 49
6.0
 74
     0
 49
-3.0
 74
     0
  0
LTYPE
  5
213D
330
208D
100
AcDbSymbolTableRecord
100
AcDbLinetypeTableRecord
  2
ACAD_ISO09W100
 70
     0
  3
ISO long-dash double-short-dash ____ __ __ ____
 72
    65
 73
     6
 40
45.0
 49
24.0
 74
     0
 49
-3.0
 74
     0
 49
6.0
 74
     0
 49
-3.0
 74
     0
 49
6.0
 74
     0
 49
-3.0
 74
     0
  0
LTYPE
  5
213E
330
208D
100
AcDbSymbolTableRecord
100
AcDbLinetypeTableRecord
  2
ACAD_ISO06W100
 70
     0
  3
ISO long-dash triple-dot ____ ... ____ ... ____
 72
    65
 73
     8
 40
36.0
 49
24.0
 74
     0
 49
-3.0
 74
     0
 49
0.0
 74
     0
 49
-3.0
 74
     0
 49
0.0
 74
     0
 49
-3.0
 74
     0
 49
0.0
 74
     0
 49
-3.0
 74
     0
  0
LTYPE
  5
213F
330
208D
100
AcDbSymbolTableRecord
100
AcDbLinetypeTableRecord
  2
ACAD_ISO07W100
 70
     0
  3
ISO dot . . . . . . . . . . . . . . . . . . . . 
 72
    65
 73
     2
 40
3.0
 49
0.0
 74
     0
 49
-3.0
 74
     0
  0
LTYPE
  5
2140
330
208D
100
AcDbSymbolTableRecord
100
AcDbLinetypeTableRecord
  2
CENTER
 70
     0
  3
Center ____ _ ____ _ ____ _ ____ _ ____ _ ____
 72
    65
 73
     4
 40
50.8
 49
31.75
 74
     0
 49
-6.35
 74
     0
 49
6.35
 74
     0
 49
-6.35
 74
     0
  0
LTYPE
  5
2141
330
208D
100
AcDbSymbolTableRecord
100
AcDbLinetypeTableRecord
  2
CENTER2
 70
     0
  3
Center (.5x) ___ _ ___ _ ___ _ ___ _ ___ _ ___
 72
    65
 73
     4
 40
28.575
 49
19.05
 74
     0
 49
-3.175
 74
     0
 49
3.175
 74
     0
 49
-3.175
 74
     0
  0
LTYPE
  5
2142
330
208D
100
AcDbSymbolTableRecord
100
AcDbLinetypeTableRecord
  2
BORDER2
 70
     0
  3
Border (.5x) __.__.__.__.__.__.__.__.__.__.__.
 72
    65
 73
     6
 40
22.225
 49
6.35
 74
     0
 49
-3.175
 74
     0
 49
6.35
 74
     0
 49
-3.175
 74
     0
 49
0.0
 74
     0
 49
-3.175
 74
     0
  0
LTYPE
  5
2143
330
208D
100
AcDbSymbolTableRecord
100
AcDbLinetypeTableRecord
  2
BORDERX2
 70
     0
  3
Border (2x) ____  ____  .  ____  ____  .  ___
 72
    65
 73
     6
 40
88.89999999999999
 49
25.4
 74
     0
 49
-12.7
 74
     0
 49
25.4
 74
     0
 49
-12.7
 74
     0
 49
0.0
 74
     0
 49
-12.7
 74
     0
  0
LTYPE
  5
2144
330
208D
100
AcDbSymbolTableRecord
100
AcDbLinetypeTableRecord
  2
DASHDOT2
 70
     0
  3
Dash dot (.5x) _._._._._._._._._._._._._._._.
 72
    65
 73
     4
 40
12.7
 49
6.35
 74
     0
 49
-3.175
 74
     0
 49
0.0
 74
     0
 49
-3.175
 74
     0
  0
LTYPE
  5
2145
330
208D
100
AcDbSymbolTableRecord
100
AcDbLinetypeTableRecord
  2
DASHDOTX2
 70
     0
  3
Dash dot (2x) ____  .  ____  .  ____  .  ___
 72
    65
 73
     4
 40
50.8
 49
25.4
 74
     0
 49
-12.7
 74
     0
 49
0.0
 74
     0
 49
-12.7
 74
     0
  0
LTYPE
  5
2146
330
208D
100
AcDbSymbolTableRecord
100
AcDbLinetypeTableRecord
  2
CENTERX2
 70
     0
  3
Center (2x) ________  __  ________  __  _____
 72
    65
 73
     4
 40
101.6
 49
63.5
 74
     0
 49
-12.7
 74
     0
 49
12.7
 74
     0
 49
-12.7
 74
     0
  0
LTYPE
  5
2147
330
208D
100
AcDbSymbolTableRecord
100
AcDbLinetypeTableRecord
  2
DASHDOT
 70
     0
  3
Dash dot __ . __ . __ . __ . __ . __ . __ . __
 72
    65
 73
     4
 40
25.4
 49
12.7
 74
     0
 49
-6.35
 74
     0
 49
0.0
 74
     0
 49
-6.35
 74
     0
  0
LTYPE
  5
2148
330
208D
100
AcDbSymbolTableRecord
100
AcDbLinetypeTableRecord
  2
ACAD_ISO12W100
 70
     0
  3
ISO dash double-dot __ . . __ . . __ . . __ . . 
 72
    65
 73
     6
 40
21.0
 49
12.0
 74
     0
 49
-3.0
 74
     0
 49
0.0
 74
     0
 49
-3.0
 74
     0
 49
0.0
 74
     0
 49
-3.0
 74
     0
  0
LTYPE
  5
2149
330
208D
100
AcDbSymbolTableRecord
100
AcDbLinetypeTableRecord
  2
ACAD_ISO13W100
 70
     0
  3
ISO double-dash double-dot __ __ . . __ __ . . _
 72
    65
 73
     8
 40
36.0
 49
12.0
 74
     0
 49
-3.0
 74
     0
 49
12.0
 74
     0
 49
-3.0
 74
     0
 49
0.0
 74
     0
 49
-3.0
 74
     0
 49
0.0
 74
     0
 49
-3.0
 74
     0
  0
LTYPE
  5
214A
330
208D
100
AcDbSymbolTableRecord
100
AcDbLinetypeTableRecord
  2
ACAD_ISO10W100
 70
     0
  3
ISO dash dot __ . __ . __ . __ . __ . __ . __ . 
 72
    65
 73
     4
 40
18.0
 49
12.0
 74
     0
 49
-3.0
 74
     0
 49
0.0
 74
     0
 49
-3.0
 74
     0
  0
LTYPE
  5
214B
330
208D
100
AcDbSymbolTableRecord
100
AcDbLinetypeTableRecord
  2
ACAD_ISO11W100
 70
     0
  3
ISO double-dash dot __ __ . __ __ . __ __ . __ _
 72
    65
 73
     6
 40
33.0
 49
12.0
 74
     0
 49
-3.0
 74
     0
 49
12.0
 74
     0
 49
-3.0
 74
     0
 49
0.0
 74
     0
 49
-3.0
 74
     0
  0
LTYPE
  5
214E
330
208D
100
AcDbSymbolTableRecord
100
AcDbLinetypeTableRecord
  2
BATTING
 70
     0
  3
Batting SSSSSSSSSSSSSSSSSSSSSSSSSSSSSSSSSSSSSSSSSSSSSSS
 72
    65
 73
     4
 40
10.16254
 49
0.00254
 74
     0
 49
-2.54
 74
     2
 75
     0
340
214C
 46
2.54
 50
0.0
 44
-2.54
 45
0.0
  9
BAT
 49
-5.08
 74
     2
 75
     0
340
214D
 46
2.54
 50
180.0
 44
2.54
 45
0.0
  9
BAT
 49
-2.54
 74
     0
  0
LTYPE
  5
214F
330
208D
100
AcDbSymbolTableRecord
100
AcDbLinetypeTableRecord
  2
BORDER
 70
     0
  3
Border __ __ . __ __ . __ __ . __ __ . __ __ .
 72
    65
 73
     6
 40
44.45
 49
12.7
 74
     0
 49
-6.35
 74
     0
 49
12.7
 74
     0
 49
-6.35
 74
     0
 49
0.0
 74
     0
 49
-6.35
 74
     0
  0
LTYPE
  5
2150
330
208D
100
AcDbSymbolTableRecord
100
AcDbLinetypeTableRecord
  2
ACAD_ISO14W100
 70
     0
  3
ISO dash triple-dot __ . . . __ . . . __ . . . _
 72
    65
 73
     8
 40
24.0
 49
12.0
 74
     0
 49
-3.0
 74
     0
 49
0.0
 74
     0
 49
-3.0
 74
     0
 49
0.0
 74
     0
 49
-3.0
 74
     0
 49
0.0
 74
     0
 49
-3.0
 74
     0
  0
LTYPE
  5
2151
330
208D
100
AcDbSymbolTableRecord
100
AcDbLinetypeTableRecord
  2
ACAD_ISO15W100
 70
     0
  3
ISO double-dash triple-dot __ __ . . . __ __ . .
 72
    65
 73
    10
 40
39.0
 49
12.0
 74
     0
 49
-3.0
 74
     0
 49
12.0
 74
     0
 49
-3.0
 74
     0
 49
0.0
 74
     0
 49
-3.0
 74
     0
 49
0.0
 74
     0
 49
-3.0
 74
     0
 49
0.0
 74
     0
 49
-3.0
 74
     0
  0
LTYPE
  5
2153
330
208D
100
AcDbSymbolTableRecord
100
AcDbLinetypeTableRecord
  2
DRAINAGE2
 70
     0
  3
Drainage reversed----<----<----<----
 72
    65
 73
     2
 40
10.16
 49
5.08
 74
     2
 75
     0
340
2152
 46
2.54
 50
0.0
 44
0.0
 45
0.0
  9
RIGHT_ARROW
 49
5.08
 74
     0
  0
LTYPE
  5
2155
330
208D
100
AcDbSymbolTableRecord
100
AcDbLinetypeTableRecord
  2
FENCELINE1
 70
     0
  3
Fenceline circle ----0-----0----0-----0----0-----0--
 72
    65
 73
     4
 40
36.83
 49
6.35
 74
     0
 49
-2.54
 74
     2
 75
     0
340
2154
 46
2.54
 50
0.0
 44
-2.54
 45
0.0
  9
CIRC1
 49
-2.54
 74
     0
 49
25.4
 74
     0
  0
LTYPE
  5
2156
330
208D
100
AcDbSymbolTableRecord
100
AcDbLinetypeTableRecord
  2
DOTX2
 70
     0
  3
Dot (2x) .  .  .  .  .  .  .  .  .  .  .  .  .  .
 72
    65
 73
     2
 40
12.7
 49
0.0
 74
     0
 49
-12.7
 74
     0
  0
LTYPE
  5
2158
330
208D
100
AcDbSymbolTableRecord
100
AcDbLinetypeTableRecord
  2
DRAINAGE
 70
     0
  3
Drainage ---->---->---->----
 72
    65
 73
     2
 40
10.16
 49
5.08
 74
     2
 75
     0
340
2157
 46
2.54
 50
180.0
 44
0.0
 45
0.0
  9
RIGHT_ARROW
 49
5.08
 74
     0
  0
LTYPE
  5
2159
330
208D
100
AcDbSymbolTableRecord
100
AcDbLinetypeTableRecord
  2
HIDDEN
 70
     0
  3
Hidden __ __ __ __ __ __ __ __ __ __ __ __ __ __
 72
    65
 73
     2
 40
9.524999999999999
 49
6.35
 74
     0
 49
-3.175
 74
     0
  0
LTYPE
  5
215A
330
208D
100
AcDbSymbolTableRecord
100
AcDbLinetypeTableRecord
  2
HIDDEN2
 70
     0
  3
Hidden (.5x) _ _ _ _ _ _ _ _ _ _ _ _ _ _ _ _ _ 
 72
    65
 73
     2
 40
4.762499999999999
 49
3.175
 74
     0
 49
-1.5875
 74
     0
  0
LTYPE
  5
215C
330
208D
100
AcDbSymbolTableRecord
100
AcDbLinetypeTableRecord
  2
FENCELINE2
 70
     0
  3
Fenceline square ----[]-----[]----[]-----[]----[]---
 72
    65
 73
     4
 40
36.83
 49
6.35
 74
     0
 49
-2.54
 74
     2
 75
     0
340
215B
 46
2.54
 50
0.0
 44
-2.54
 45
0.0
  9
BOX
 49
-2.54
 74
     0
 49
25.4
 74
     0
  0
LTYPE
  5
215E
330
208D
100
AcDbSymbolTableRecord
100
AcDbLinetypeTableRecord
  2
GAS_LINE
 70
     0
  3
Gas line ----GAS----GAS----GAS----GAS----GAS----GAS--
 72
    65
 73
     3
 40
24.13
 49
12.7
 74
     0
 49
-5.08
 74
     2
 75
     0
340
215D
 46
2.54
 50
0.0
 44
-2.54
 45
-1.27
  9
GAS
 49
-6.35
 74
     0
  0
LTYPE
  5
215F
330
208D
100
AcDbSymbolTableRecord
100
AcDbLinetypeTableRecord
  2
DASHEDX2
 70
     0
  3
Dashed (2x) ____  ____  ____  ____  ____  ___
 72
    65
 73
     2
 40
38.09999999999999
 49
25.4
 74
     0
 49
-12.7
 74
     0
  0
LTYPE
  5
2160
330
208D
100
AcDbSymbolTableRecord
100
AcDbLinetypeTableRecord
  2
DIVIDE
 70
     0
  3
Divide ____ . . ____ . . ____ . . ____ . . ____
 72
    65
 73
     6
 40
31.75
 49
12.7
 74
     0
 49
-6.35
 74
     0
 49
0.0
 74
     0
 49
-6.35
 74
     0
 49
0.0
 74
     0
 49
-6.35
 74
     0
  0
LTYPE
  5
2161
330
208D
100
AcDbSymbolTableRecord
100
AcDbLinetypeTableRecord
  2
DASHED
 70
     0
  3
Dashed __ __ __ __ __ __ __ __ __ __ __ __ __ _
 72
    65
 73
     2
 40
19.05
 49
12.7
 74
     0
 49
-6.35
 74
     0
  0
LTYPE
  5
2162
330
208D
100
AcDbSymbolTableRecord
100
AcDbLinetypeTableRecord
  2
DASHED2
 70
     0
  3
Dashed (.5x) _ _ _ _ _ _ _ _ _ _ _ _ _ _ _ _ _ 
 72
    65
 73
     2
 40
9.524999999999999
 49
6.35
 74
     0
 49
-3.175
 74
     0
  0
LTYPE
  5
2163
330
208D
100
AcDbSymbolTableRecord
100
AcDbLinetypeTableRecord
  2
DOT
 70
     0
  3
Dot . . . . . . . . . . . . . . . . . . . . . . . .
 72
    65
 73
     2
 40
6.35
 49
0.0
 74
     0
 49
-6.35
 74
     0
  0
LTYPE
  5
2164
330
208D
100
AcDbSymbolTableRecord
100
AcDbLinetypeTableRecord
  2
DOT2
 70
     0
  3
Dot (.5x) ........................................
 72
    65
 73
     2
 40
3.175
 49
0.0
 74
     0
 49
-3.175
 74
     0
  0
LTYPE
  5
2165
330
208D
100
AcDbSymbolTableRecord
100
AcDbLinetypeTableRecord
  2
DIVIDE2
 70
     0
  3
Divide (.5x) __..__..__..__..__..__..__..__.._
 72
    65
 73
     6
 40
15.875
 49
6.35
 74
     0
 49
-3.175
 74
     0
 49
0.0
 74
     0
 49
-3.175
 74
     0
 49
0.0
 74
     0
 49
-3.175
 74
     0
  0
LTYPE
  5
2166
330
208D
100
AcDbSymbolTableRecord
100
AcDbLinetypeTableRecord
  2
DIVIDEX2
 70
     0
  3
Divide (2x) ________  .  .  ________  .  .  _
 72
    65
 73
     6
 40
63.5
 49
25.4
 74
     0
 49
-12.7
 74
     0
 49
0.0
 74
     0
 49
-12.7
 74
     0
 49
0.0
 74
     0
 49
-12.7
 74
     0
  0
LTYPE
  5
2167
330
208D
100
AcDbSymbolTableRecord
100
AcDbLinetypeTableRecord
  2
PHANTOM
 70
     0
  3
Phantom ______  __  __  ______  __  __  ______ 
 72
    65
 73
     6
 40
63.50000000000001
 49
31.75
 74
     0
 49
-6.35
 74
     0
 49
6.35
 74
     0
 49
-6.35
 74
     0
 49
6.35
 74
     0
 49
-6.35
 74
     0
  0
LTYPE
  5
2168
330
208D
100
AcDbSymbolTableRecord
100
AcDbLinetypeTableRecord
  2
PHANTOM2
 70
     0
  3
Phantom (.5x) ___ _ _ ___ _ _ ___ _ _ ___ _ _
 72
    65
 73
     6
 40
31.75
 49
15.875
 74
     0
 49
-3.175
 74
     0
 49
3.175
 74
     0
 49
-3.175
 74
     0
 49
3.175
 74
     0
 49
-3.175
 74
     0
  0
ENDTAB
  0
TABLE
  2
LAYER
  5
208B
330
0
100
AcDbSymbolTable
 70
    13
  0
LAYER
  5
2098
330
208B
100
AcDbSymbolTableRecord
100
AcDbLayerTableRecord
  2
0
 70
     0
 62
     7
  6
Continuous
370
    -3
390
2097
347
20CD
348
0
  0
LAYER
  5
2169
330
208B
100
AcDbSymbolTableRecord
100
AcDbLayerTableRecord
  2
BoardOutLine
 70
     0
 62
     6
420
 16711935
  6
Continuous
370
    -3
390
2097
347
20CD
348
0
  0
LAYER
  5
216A
330
208B
100
AcDbSymbolTableRecord
100
AcDbLayerTableRecord
  2
BottomLayer
 70
     0
 62
     5
420
      255
  6
Continuous
370
    -3
390
2097
347
20CD
348
0
  0
LAYER
  5
216B
330
208B
100
AcDbSymbolTableRecord
100
AcDbLayerTableRecord
  2
BottomSolderMaskLayer
 70
     0
 62
   200
420
 11141375
  6
Continuous
370
    -3
390
2097
347
20CD
348
0
  0
LAYER
  5
216C
330
208B
100
AcDbSymbolTableRecord
100
AcDbLayerTableRecord
  2
Construction
 70
     0
 62
     1
420
 16711680
  6
Continuous
370
    -3
390
2097
347
20CD
348
0
  0
LAYER
  5
216D
330
208B
100
AcDbSymbolTableRecord
100
AcDbLayerTableRecord
  2
Document
 70
     0
 62
     7
  6
Continuous
370
    -3
390
2097
347
20CD
348
0
  0
LAYER
  5
216E
330
208B
100
AcDbSymbolTableRecord
100
AcDbLayerTableRecord
  2
Hole
 70
     0
 62
   250
420
  2236962
  6
Continuous
370
    -3
390
2097
347
20CD
348
0
  0
LAYER
  5
216F
330
208B
100
AcDbSymbolTableRecord
100
AcDbLayerTableRecord
  2
Multi-Layer
 70
     0
 62
     9
420
 12632256
  6
Continuous
370
    -3
390
2097
347
20CD
348
0
  0
LAYER
  5
2170
330
208B
100
AcDbSymbolTableRecord
100
AcDbLayerTableRecord
  2
Text
 70
     0
 62
     5
420
      255
  6
Continuous
370
    -3
390
2097
347
20CD
348
0
  0
LAYER
  5
2171
330
208B
100
AcDbSymbolTableRecord
100
AcDbLayerTableRecord
  2
TopLayer
 70
     0
 62
     1
420
 16711680
  6
Continuous
370
    -3
390
2097
347
20CD
348
0
  0
LAYER
  5
2172
330
208B
100
AcDbSymbolTableRecord
100
AcDbLayerTableRecord
  2
TopPasteMaskLayer
 70
     0
 62
     8
420
  8421504
  6
Continuous
370
    -3
390
2097
347
20CD
348
0
  0
LAYER
  5
2173
330
208B
100
AcDbSymbolTableRecord
100
AcDbLayerTableRecord
  2
TopSilkLayer
 70
     0
 62
    40
420
 16763904
  6
Continuous
370
    -3
390
2097
347
20CD
348
0
  0
LAYER
  5
2174
330
208B
100
AcDbSymbolTableRecord
100
AcDbLayerTableRecord
  2
TopSolderMaskLayer
 70
     0
 62
   216
420
  8388736
  6
Continuous
370
    -3
390
2097
347
20CD
348
0
  0
ENDTAB
  0
TABLE
  2
STYLE
  5
208C
330
0
100
AcDbSymbolTable
 70
    17
  0
STYLE
  5
2099
330
208C
100
AcDbSymbolTableRecord
100
AcDbTextStyleTableRecord
  2
Standard
 70
     0
 40
0.0
 41
1.0
 50
0.0
 71
     0
 42
2.5
  3
txt
  4

  0
STYLE
  5
212D
330
208C
100
AcDbSymbolTableRecord
100
AcDbTextStyleTableRecord
  2
QCADDimTextStyle
 70
     0
 40
0.0
 41
1.0
 50
0.0
 71
     0
 42
2.5
  3

  4

  0
STYLE
  5
2130
330
208C
100
AcDbSymbolTableRecord
100
AcDbTextStyleTableRecord
  2
textstyle0
 70
     0
 40
0.0
 41
1.0
 50
0.0
 71
     0
 42
2.5
  3
STANDARD
  4

  0
STYLE
  5
2132
330
208C
100
AcDbSymbolTableRecord
100
AcDbTextStyleTableRecord
  2
textstyle1
 70
     0
 40
0.0
 41
1.0
 50
0.0
 71
     0
 42
2.5
  3
ltypeshp.shx
  4

  0
STYLE
  5
2133
330
208C
100
AcDbSymbolTableRecord
100
AcDbTextStyleTableRecord
  2
textstyle2
 70
     0
 40
0.0
 41
1.0
 50
0.0
 71
     0
 42
2.5
  3
ltypeshp.shx
  4

  0
STYLE
  5
2136
330
208C
100
AcDbSymbolTableRecord
100
AcDbTextStyleTableRecord
  2
textstyle3
 70
     0
 40
0.0
 41
1.0
 50
0.0
 71
     0
 42
2.5
  3
ltypeshp.shx
  4

  0
STYLE
  5
214C
330
208C
100
AcDbSymbolTableRecord
100
AcDbTextStyleTableRecord
  2
textstyle4
 70
     0
 40
0.0
 41
1.0
 50
0.0
 71
     0
 42
2.5
  3
ltypeshp.shx
  4

  0
STYLE
  5
214D
330
208C
100
AcDbSymbolTableRecord
100
AcDbTextStyleTableRecord
  2
textstyle5
 70
     0
 40
0.0
 41
1.0
 50
0.0
 71
     0
 42
2.5
  3
ltypeshp.shx
  4

  0
STYLE
  5
2152
330
208C
100
AcDbSymbolTableRecord
100
AcDbTextStyleTableRecord
  2
textstyle6
 70
     0
 40
0.0
 41
1.0
 50
0.0
 71
     0
 42
2.5
  3
qcadshp.shx
  4

  0
STYLE
  5
2154
330
208C
100
AcDbSymbolTableRecord
100
AcDbTextStyleTableRecord
  2
textstyle7
 70
     0
 40
0.0
 41
1.0
 50
0.0
 71
     0
 42
2.5
  3
ltypeshp.shx
  4

  0
STYLE
  5
2157
330
208C
100
AcDbSymbolTableRecord
100
AcDbTextStyleTableRecord
  2
textstyle8
 70
     0
 40
0.0
 41
1.0
 50
0.0
 71
     0
 42
2.5
  3
qcadshp.shx
  4

  0
STYLE
  5
215B
330
208C
100
AcDbSymbolTableRecord
100
AcDbTextStyleTableRecord
  2
textstyle9
 70
     0
 40
0.0
 41
1.0
 50
0.0
 71
     0
 42
2.5
  3
ltypeshp.shx
  4

  0
STYLE
  5
215D
330
208C
100
AcDbSymbolTableRecord
100
AcDbTextStyleTableRecord
  2
textstyle10
 70
     0
 40
0.0
 41
1.0
 50
0.0
 71
     0
 42
2.5
  3
STANDARD
  4

  0
STYLE
  5
217D
330
208C
100
AcDbSymbolTableRecord
100
AcDbTextStyleTableRecord
  2
textstyle11
 70
     0
 40
0.0
 41
1.0
 50
0.0
 71
     0
 42
2.5
  3

  4

1001
ACAD
1000
Arial
1071
        0
  0
STYLE
  5
217E
330
208C
100
AcDbSymbolTableRecord
100
AcDbTextStyleTableRecord
  2
textstyle12
 70
     0
 40
0.0
 41
1.0
 50
0.0
 71
     0
 42
2.5
  3

  4

1001
ACAD
1000
Arial
1071
        0
  0
STYLE
  5
217F
330
208C
100
AcDbSymbolTableRecord
100
AcDbTextStyleTableRecord
  2
textstyle13
 70
     0
 40
0.0
 41
1.0
 50
0.0
 71
     0
 42
2.5
  3

  4

1001
ACAD
1000
Arial
1071
        0
  0
STYLE
  5
2180
330
208C
100
AcDbSymbolTableRecord
100
AcDbTextStyleTableRecord
  2
textstyle14
 70
     0
 40
0.0
 41
1.0
 50
0.0
 71
     0
 42
2.5
  3

  4

1001
ACAD
1000
Arial
1071
        0
  0
ENDTAB
  0
TABLE
  2
VIEW
  5
208E
330
0
100
AcDbSymbolTable
 70
     0
  0
ENDTAB
  0
TABLE
  2
UCS
  5
208F
330
0
100
AcDbSymbolTable
 70
     0
  0
ENDTAB
  0
TABLE
  2
APPID
  5
2091
330
0
100
AcDbSymbolTable
 70
     2
  0
APPID
  5
209A
330
2091
100
AcDbSymbolTableRecord
100
AcDbRegAppTableRecord
  2
ACAD
 70
     0
  0
APPID
  5
20F5
330
2091
100
AcDbSymbolTableRecord
100
AcDbRegAppTableRecord
  2
QCAD
 70
     0
  0
ENDTAB
  0
TABLE
  2
DIMSTYLE
  5
2092
330
0
100
AcDbSymbolTable
 70
     2
100
AcDbDimStyleTable
  0
DIMSTYLE
105
20AE
330
2092
100
AcDbSymbolTableRecord
100
AcDbDimStyleTableRecord
  2
Standard
 70
     0
178
     0
340
2099
  0
DIMSTYLE
105
212E
330
2092
100
AcDbSymbolTableRecord
100
AcDbDimStyleTableRecord
  2
QCADDimStyle
 70
     0
 41
2.5
 42
0.625
 44
1.25
 73
     0
 77
     1
140
2.5
147
0.625
178
     0
340
212D
  0
ENDTAB
  0
TABLE
  2
BLOCK_RECORD
  5
208A
330
0
100
AcDbSymbolTable
 70
     1
  0
BLOCK_RECORD
  5
20A6
330
208A
100
AcDbSymbolTableRecord
100
AcDbBlockTableRecord
  2
*Model_Space
340
20A9
 70
     0
280
     1
281
     0
  0
BLOCK_RECORD
  5
2177
330
208A
100
AcDbSymbolTableRecord
100
AcDbBlockTableRecord
  2
*Paper_Space
340
2178
 70
     0
280
     1
281
     0
  0
BLOCK_RECORD
  5
20A2
330
208A
100
AcDbSymbolTableRecord
100
AcDbBlockTableRecord
  2
*Paper_Space1
340
20A5
 70
     0
280
     1
281
     0
  0
ENDTAB
  0
ENDSEC
  0
SECTION
  2
BLOCKS
  0
BLOCK
  5
20A7
330
20A6
100
AcDbEntity
  8
0
100
AcDbBlockBegin
  2
*Model_Space
 70
     0
 10
0.0
 20
0.0
 30
0.0
  3
*Model_Space
  1

  0
ENDBLK
  5
20A8
330
20A6
100
AcDbEntity
  8
0
100
AcDbBlockEnd
  0
BLOCK
  5
2179
330
2177
100
AcDbEntity
 67
     1
  8
0
100
AcDbBlockBegin
  2
*Paper_Space
 70
     0
 10
0.0
 20
0.0
 30
0.0
  3
*Paper_Space
  1

  0
ENDBLK
  5
217A
330
2177
100
AcDbEntity
 67
     1
  8
0
100
AcDbBlockEnd
  0
BLOCK
  5
20A3
330
20A2
100
AcDbEntity
  8
0
100
AcDbBlockBegin
  2
*Paper_Space1
 70
     0
 10
0.0
 20
0.0
 30
0.0
  3
*Paper_Space1
  1

  0
VIEWPORT
  5
2175
330
20A2
100
AcDbEntity
  8
0
100
AcDbViewport
 10
128.5
 20
97.5
 30
0.0
 40
314.226
 41
222.18
 68
     1
 69
     1
 12
128.5
 22
97.5
 13
0.0
 23
0.0
 14
10.0
 24
10.0
 15
10.0
 25
10.0
 16
0.0
 26
0.0
 36
1.0
 17
0.0
 27
0.0
 37
0.0
 42
50.0
 43
0.0
 44
0.0
 45
222.18
 50
0.0
 51
0.0
 72
   100
 90
   557152
  1

281
     0
 71
     1
 74
     0
110
0.0
120
0.0
130
0.0
111
1.0
121
0.0
131
0.0
112
0.0
122
1.0
132
0.0
 79
     0
146
0.0
170
     0
 61
     5
348
20B6
292
     1
282
     1
141
0.0
142
0.0
 63
   256
361
2176
  0
ENDBLK
  5
20A4
330
20A2
100
AcDbEntity
  8
0
100
AcDbBlockEnd
  0
ENDSEC
  0
SECTION
  2
ENTITIES
  0
CIRCLE
  5
199A
330
20A6
100
AcDbEntity
  8
Multi-Layer
100
AcDbCircle
 10
2.499872999746003
 20
2.500127000253997
 30
0.0
 40
1.5
  0
CIRCLE
  5
1E31
330
20A6
100
AcDbEntity
  8
Multi-Layer
100
AcDbCircle
 10
-2.500127000253997
 20
2.499872999746003
 30
0.0
 40
1.5
  0
CIRCLE
  5
1E40
330
20A6
100
AcDbEntity
  8
Multi-Layer
100
AcDbCircle
 10
-2.499872999746003
 20
-2.500127000253997
 30
0.0
 40
1.5
  0
CIRCLE
  5
1E4F
330
20A6
100
AcDbEntity
  8
Multi-Layer
100
AcDbCircle
 10
2.500127000253995
 20
-2.499872999746005
 30
0.0
 40
1.5
  0
CIRCLE
  5
199B
330
20A6
100
AcDbEntity
  8
Multi-Layer
100
AcDbCircle
 10
19.0
 20
111.5001270002541
 30
0.0
 40
1.5
  0
CIRCLE
  5
1E2D
330
20A6
100
AcDbEntity
  8
Multi-Layer
100
AcDbCircle
 10
-111.5001270002541
 20
18.99999999999998
 30
0.0
 40
1.5
  0
CIRCLE
  5
1E3C
330
20A6
100
AcDbEntity
  8
Multi-Layer
100
AcDbCircle
 10
-18.99999999999999
 20
-111.5001270002541
 30
0.0
 40
1.5
  0
CIRCLE
  5
1E4B
330
20A6
100
AcDbEntity
  8
Multi-Layer
100
AcDbCircle
 10
111.5001270002541
 20
-19.0
 30
0.0
 40
1.5
  0
CIRCLE
  5
1EED
330
20A6
100
AcDbEntity
  8
Multi-Layer
100
AcDbCircle
 10
0.0
 20
143.0
 30
0.0
 40
1.5
  0
CIRCLE
  5
2074
330
20A6
100
AcDbEntity
  8
Multi-Layer
100
AcDbCircle
 10
101.1162697096765
 20
-101.1162697096762
 30
0.0
 40
1.5
  0
CIRCLE
  5
205A
330
20A6
100
AcDbEntity
  8
Multi-Layer
100
AcDbCircle
 10
101.1162697096763
 20
101.1162697096763
 30
0.0
 40
1.5
  0
CIRCLE
  5
2067
330
20A6
100
AcDbEntity
  8
Multi-Layer
100
AcDbCircle
 10
-101.1162697096763
 20
-101.1162697096763
 30
0.0
 40
1.5
  0
CIRCLE
  5
199C
330
20A6
100
AcDbEntity
  8
Multi-Layer
100
AcDbCircle
 10
111.4998729997462
 20
19.0
 30
0.0
 40
1.5
  0
CIRCLE
  5
1E2E
330
20A6
100
AcDbEntity
  8
Multi-Layer
100
AcDbCircle
 10
-18.99999999999996
 20
111.4998729997462
 30
0.0
 40
1.5
  0
CIRCLE
  5
1E3D
330
20A6
100
AcDbEntity
  8
Multi-Layer
100
AcDbCircle
 10
-111.4998729997462
 20
-18.99999999999998
 30
0.0
 40
1.5
  0
CIRCLE
  5
1E4C
330
20A6
100
AcDbEntity
  8
Multi-Layer
100
AcDbCircle
 10
18.99999999999997
 20
-111.4998729997462
 30
0.0
 40
1.5
  0
CIRCLE
  5
1E6A
330
20A6
100
AcDbEntity
  8
Multi-Layer
100
AcDbCircle
 10
-30.0
 20
-99.0
 30
0.0
 40
1.5
  0
CIRCLE
  5
1E6B
330
20A6
100
AcDbEntity
  8
Multi-Layer
100
AcDbCircle
 10
-29.99999999999999
 20
-41.00000000000001
 30
0.0
 40
1.5
  0
CIRCLE
  5
1E6C
330
20A6
100
AcDbEntity
  8
Multi-Layer
100
AcDbCircle
 10
29.99999999999997
 20
-99.00000000000003
 30
0.0
 40
1.5
  0
CIRCLE
  5
1E6D
330
20A6
100
AcDbEntity
  8
Multi-Layer
100
AcDbCircle
 10
30.0
 20
-41.00000000000003
 30
0.0
 40
1.5
  0
CIRCLE
  5
1E6E
330
20A6
100
AcDbEntity
  8
Construction
100
AcDbCircle
 10
-12.70000000000002
 20
-52.22
 30
0.0
 40
0.375
  0
CIRCLE
  5
1E6F
330
20A6
100
AcDbEntity
  8
Construction
100
AcDbCircle
 10
12.7
 20
-52.22000000000001
 30
0.0
 40
0.375
  0
CIRCLE
  5
1E70
330
20A6
100
AcDbEntity
  8
Construction
100
AcDbCircle
 10
-17.78000000000003
 20
-52.22
 30
0.0
 40
0.375
  0
CIRCLE
  5
1E71
330
20A6
100
AcDbEntity
  8
Construction
100
AcDbCircle
 10
17.78000000000003
 20
-52.22000000000001
 30
0.0
 40
0.375
  0
CIRCLE
  5
1E72
330
20A6
100
AcDbEntity
  8
Construction
100
AcDbCircle
 10
-25.0
 20
-45.00000000000004
 30
0.0
 40
0.9
  0
CIRCLE
  5
1E73
330
20A6
100
AcDbEntity
  8
Construction
100
AcDbCircle
 10
25.00000000000001
 20
-45.00000000000005
 30
0.0
 40
0.9
  0
CIRCLE
  5
1E74
330
20A6
100
AcDbEntity
  8
Construction
100
AcDbCircle
 10
-12.70000000000002
 20
-54.76
 30
0.0
 40
0.375
  0
CIRCLE
  5
1E75
330
20A6
100
AcDbEntity
  8
Construction
100
AcDbCircle
 10
-12.70000000000002
 20
-57.29999999999999
 30
0.0
 40
0.375
  0
CIRCLE
  5
1E76
330
20A6
100
AcDbEntity
  8
Construction
100
AcDbCircle
 10
-12.70000000000002
 20
-59.84000000000001
 30
0.0
 40
0.375
  0
CIRCLE
  5
1E77
330
20A6
100
AcDbEntity
  8
Construction
100
AcDbCircle
 10
-12.70000000000002
 20
-62.38
 30
0.0
 40
0.375
  0
CIRCLE
  5
1E78
330
20A6
100
AcDbEntity
  8
Construction
100
AcDbCircle
 10
-12.70000000000002
 20
-64.91999999999999
 30
0.0
 40
0.375
  0
CIRCLE
  5
1E79
330
20A6
100
AcDbEntity
  8
Construction
100
AcDbCircle
 10
-12.70000000000002
 20
-67.46
 30
0.0
 40
0.375
  0
CIRCLE
  5
1E7A
330
20A6
100
AcDbEntity
  8
Construction
100
AcDbCircle
 10
-12.70000000000002
 20
-70.00000000000001
 30
0.0
 40
0.375
  0
CIRCLE
  5
1E7B
330
20A6
100
AcDbEntity
  8
Construction
100
AcDbCircle
 10
-12.70000000000002
 20
-72.53999999999999
 30
0.0
 40
0.375
  0
CIRCLE
  5
1E7C
330
20A6
100
AcDbEntity
  8
Construction
100
AcDbCircle
 10
-12.70000000000002
 20
-75.08
 30
0.0
 40
0.375
  0
CIRCLE
  5
1E7D
330
20A6
100
AcDbEntity
  8
Construction
100
AcDbCircle
 10
-12.70000000000002
 20
-77.62
 30
0.0
 40
0.375
  0
CIRCLE
  5
1E7E
330
20A6
100
AcDbEntity
  8
Construction
100
AcDbCircle
 10
-12.70000000000002
 20
-80.16000000000001
 30
0.0
 40
0.375
  0
CIRCLE
  5
1E7F
330
20A6
100
AcDbEntity
  8
Construction
100
AcDbCircle
 10
-12.70000000000002
 20
-82.69999999999999
 30
0.0
 40
0.375
  0
CIRCLE
  5
1E80
330
20A6
100
AcDbEntity
  8
Construction
100
AcDbCircle
 10
-12.70000000000003
 20
-85.24000000000001
 30
0.0
 40
0.375
  0
CIRCLE
  5
1E81
330
20A6
100
AcDbEntity
  8
Construction
100
AcDbCircle
 10
-12.70000000000001
 20
-87.78000000000002
 30
0.0
 40
0.375
  0
CIRCLE
  5
1E82
330
20A6
100
AcDbEntity
  8
Construction
100
AcDbCircle
 10
12.7
 20
-54.76000000000001
 30
0.0
 40
0.375
  0
CIRCLE
  5
1E83
330
20A6
100
AcDbEntity
  8
Construction
100
AcDbCircle
 10
12.69999999999999
 20
-57.30000000000002
 30
0.0
 40
0.375
  0
CIRCLE
  5
1E84
330
20A6
100
AcDbEntity
  8
Construction
100
AcDbCircle
 10
12.69999999999999
 20
-59.84000000000002
 30
0.0
 40
0.375
  0
CIRCLE
  5
1E85
330
20A6
100
AcDbEntity
  8
Construction
100
AcDbCircle
 10
12.69999999999999
 20
-62.38000000000001
 30
0.0
 40
0.375
  0
CIRCLE
  5
1E86
330
20A6
100
AcDbEntity
  8
Construction
100
AcDbCircle
 10
12.69999999999999
 20
-64.92
 30
0.0
 40
0.375
  0
CIRCLE
  5
1E87
330
20A6
100
AcDbEntity
  8
Construction
100
AcDbCircle
 10
12.69999999999999
 20
-67.46000000000002
 30
0.0
 40
0.375
  0
CIRCLE
  5
1E88
330
20A6
100
AcDbEntity
  8
Construction
100
AcDbCircle
 10
12.69999999999999
 20
-70.00000000000001
 30
0.0
 40
0.375
  0
CIRCLE
  5
1E89
330
20A6
100
AcDbEntity
  8
Construction
100
AcDbCircle
 10
12.69999999999999
 20
-72.53999999999999
 30
0.0
 40
0.375
  0
CIRCLE
  5
1E8A
330
20A6
100
AcDbEntity
  8
Construction
100
AcDbCircle
 10
12.69999999999999
 20
-75.08
 30
0.0
 40
0.375
  0
CIRCLE
  5
1E8B
330
20A6
100
AcDbEntity
  8
Construction
100
AcDbCircle
 10
12.69999999999998
 20
-77.62000000000002
 30
0.0
 40
0.375
  0
CIRCLE
  5
1E8C
330
20A6
100
AcDbEntity
  8
Construction
100
AcDbCircle
 10
12.69999999999999
 20
-80.16000000000001
 30
0.0
 40
0.375
  0
CIRCLE
  5
1E8D
330
20A6
100
AcDbEntity
  8
Construction
100
AcDbCircle
 10
12.69999999999998
 20
-82.7
 30
0.0
 40
0.375
  0
CIRCLE
  5
1E8E
330
20A6
100
AcDbEntity
  8
Construction
100
AcDbCircle
 10
12.69999999999998
 20
-85.24000000000002
 30
0.0
 40
0.375
  0
CIRCLE
  5
1E8F
330
20A6
100
AcDbEntity
  8
Construction
100
AcDbCircle
 10
12.69999999999998
 20
-87.78000000000002
 30
0.0
 40
0.375
  0
CIRCLE
  5
1E90
330
20A6
100
AcDbEntity
  8
Construction
100
AcDbCircle
 10
-17.78000000000003
 20
-54.76
 30
0.0
 40
0.375
  0
CIRCLE
  5
1E91
330
20A6
100
AcDbEntity
  8
Construction
100
AcDbCircle
 10
-17.78000000000003
 20
-57.29999999999999
 30
0.0
 40
0.375
  0
CIRCLE
  5
1E92
330
20A6
100
AcDbEntity
  8
Construction
100
AcDbCircle
 10
-17.78000000000003
 20
-59.84000000000001
 30
0.0
 40
0.375
  0
CIRCLE
  5
1E93
330
20A6
100
AcDbEntity
  8
Construction
100
AcDbCircle
 10
-17.78000000000003
 20
-62.38
 30
0.0
 40
0.375
  0
CIRCLE
  5
1E94
330
20A6
100
AcDbEntity
  8
Construction
100
AcDbCircle
 10
-17.78000000000003
 20
-64.91999999999999
 30
0.0
 40
0.375
  0
CIRCLE
  5
1E95
330
20A6
100
AcDbEntity
  8
Construction
100
AcDbCircle
 10
-17.78000000000003
 20
-67.45999999999998
 30
0.0
 40
0.375
  0
CIRCLE
  5
1E96
330
20A6
100
AcDbEntity
  8
Construction
100
AcDbCircle
 10
-17.78000000000003
 20
-70.0
 30
0.0
 40
0.375
  0
CIRCLE
  5
1E97
330
20A6
100
AcDbEntity
  8
Construction
100
AcDbCircle
 10
-17.78000000000003
 20
-72.54
 30
0.0
 40
0.375
  0
CIRCLE
  5
1E98
330
20A6
100
AcDbEntity
  8
Construction
100
AcDbCircle
 10
-17.78000000000003
 20
-75.08
 30
0.0
 40
0.375
  0
CIRCLE
  5
1E99
330
20A6
100
AcDbEntity
  8
Construction
100
AcDbCircle
 10
-17.78000000000003
 20
-77.62
 30
0.0
 40
0.375
  0
CIRCLE
  5
1E9A
330
20A6
100
AcDbEntity
  8
Construction
100
AcDbCircle
 10
-17.78000000000003
 20
-80.16000000000001
 30
0.0
 40
0.375
  0
CIRCLE
  5
1E9B
330
20A6
100
AcDbEntity
  8
Construction
100
AcDbCircle
 10
-17.78000000000003
 20
-82.69999999999999
 30
0.0
 40
0.375
  0
CIRCLE
  5
1E9C
330
20A6
100
AcDbEntity
  8
Construction
100
AcDbCircle
 10
-17.78000000000003
 20
-85.24000000000001
 30
0.0
 40
0.375
  0
CIRCLE
  5
1E9D
330
20A6
100
AcDbEntity
  8
Construction
100
AcDbCircle
 10
-17.78000000000003
 20
-87.78
 30
0.0
 40
0.375
  0
CIRCLE
  5
1E9E
330
20A6
100
AcDbEntity
  8
Construction
100
AcDbCircle
 10
17.78
 20
-80.16
 30
0.0
 40
0.375
  0
CIRCLE
  5
1E9F
330
20A6
100
AcDbEntity
  8
Construction
100
AcDbCircle
 10
17.78
 20
-54.76000000000001
 30
0.0
 40
0.375
  0
CIRCLE
  5
1EA0
330
20A6
100
AcDbEntity
  8
Construction
100
AcDbCircle
 10
17.77999999999999
 20
-87.78000000000003
 30
0.0
 40
0.375
  0
CIRCLE
  5
1EA1
330
20A6
100
AcDbEntity
  8
Construction
100
AcDbCircle
 10
17.78
 20
-62.38
 30
0.0
 40
0.375
  0
CIRCLE
  5
1EA2
330
20A6
100
AcDbEntity
  8
Construction
100
AcDbCircle
 10
17.78
 20
-64.92
 30
0.0
 40
0.375
  0
CIRCLE
  5
1EA3
330
20A6
100
AcDbEntity
  8
Construction
100
AcDbCircle
 10
17.78000000000001
 20
-57.3
 30
0.0
 40
0.375
  0
CIRCLE
  5
1EA4
330
20A6
100
AcDbEntity
  8
Construction
100
AcDbCircle
 10
17.78
 20
-59.84000000000002
 30
0.0
 40
0.375
  0
CIRCLE
  5
1EA5
330
20A6
100
AcDbEntity
  8
Construction
100
AcDbCircle
 10
17.78
 20
-72.54
 30
0.0
 40
0.375
  0
CIRCLE
  5
1EA6
330
20A6
100
AcDbEntity
  8
Construction
100
AcDbCircle
 10
17.78
 20
-75.07999999999998
 30
0.0
 40
0.375
  0
CIRCLE
  5
1EA7
330
20A6
100
AcDbEntity
  8
Construction
100
AcDbCircle
 10
17.78
 20
-67.45999999999998
 30
0.0
 40
0.375
  0
CIRCLE
  5
1EA8
330
20A6
100
AcDbEntity
  8
Construction
100
AcDbCircle
 10
17.78
 20
-70.0
 30
0.0
 40
0.375
  0
CIRCLE
  5
1EA9
330
20A6
100
AcDbEntity
  8
Construction
100
AcDbCircle
 10
17.77999999999999
 20
-82.7
 30
0.0
 40
0.375
  0
CIRCLE
  5
1EAA
330
20A6
100
AcDbEntity
  8
Construction
100
AcDbCircle
 10
17.78
 20
-85.24000000000001
 30
0.0
 40
0.375
  0
CIRCLE
  5
1EAB
330
20A6
100
AcDbEntity
  8
Construction
100
AcDbCircle
 10
17.78000000000003
 20
-77.62000000000002
 30
0.0
 40
0.375
  0
CIRCLE
  5
1EAC
330
20A6
100
AcDbEntity
  8
Construction
100
AcDbCircle
 10
-25.0
 20
-91.42857142857144
 30
0.0
 40
0.9
  0
CIRCLE
  5
1EAD
330
20A6
100
AcDbEntity
  8
Construction
100
AcDbCircle
 10
-25.0
 20
-80.71428571428574
 30
0.0
 40
0.9
  0
CIRCLE
  5
1EAE
330
20A6
100
AcDbEntity
  8
Construction
100
AcDbCircle
 10
-25.0
 20
-84.28571428571428
 30
0.0
 40
0.9
  0
CIRCLE
  5
1EAF
330
20A6
100
AcDbEntity
  8
Construction
100
AcDbCircle
 10
-25.00000000000001
 20
-95.0
 30
0.0
 40
0.9
  0
CIRCLE
  5
1EB0
330
20A6
100
AcDbEntity
  8
Construction
100
AcDbCircle
 10
-25.0
 20
-59.28571428571431
 30
0.0
 40
0.9
  0
CIRCLE
  5
1EB1
330
20A6
100
AcDbEntity
  8
Construction
100
AcDbCircle
 10
-25.0
 20
-62.85714285714288
 30
0.0
 40
0.9
  0
CIRCLE
  5
1EB2
330
20A6
100
AcDbEntity
  8
Construction
100
AcDbCircle
 10
-25.0
 20
-52.14285714285714
 30
0.0
 40
0.9
  0
CIRCLE
  5
1EB3
330
20A6
100
AcDbEntity
  8
Construction
100
AcDbCircle
 10
-25.0
 20
-55.71428571428572
 30
0.0
 40
0.9
  0
CIRCLE
  5
1EB4
330
20A6
100
AcDbEntity
  8
Construction
100
AcDbCircle
 10
-25.0
 20
-73.5714285714286
 30
0.0
 40
0.9
  0
CIRCLE
  5
1EB5
330
20A6
100
AcDbEntity
  8
Construction
100
AcDbCircle
 10
-25.0
 20
-77.14285714285714
 30
0.0
 40
0.9
  0
CIRCLE
  5
1EB6
330
20A6
100
AcDbEntity
  8
Construction
100
AcDbCircle
 10
-25.0
 20
-66.42857142857142
 30
0.0
 40
0.9
  0
CIRCLE
  5
1EB7
330
20A6
100
AcDbEntity
  8
Construction
100
AcDbCircle
 10
-25.0
 20
-70.00000000000001
 30
0.0
 40
0.9
  0
CIRCLE
  5
1EB8
330
20A6
100
AcDbEntity
  8
Construction
100
AcDbCircle
 10
-25.0
 20
-48.5714285714286
 30
0.0
 40
0.9
  0
CIRCLE
  5
1EB9
330
20A6
100
AcDbEntity
  8
Construction
100
AcDbCircle
 10
-25.0
 20
-87.85714285714285
 30
0.0
 40
0.9
  0
CIRCLE
  5
1EBA
330
20A6
100
AcDbEntity
  8
Construction
100
AcDbCircle
 10
25.00000000000002
 20
-66.42857142857143
 30
0.0
 40
0.9
  0
CIRCLE
  5
1EBB
330
20A6
100
AcDbEntity
  8
Construction
100
AcDbCircle
 10
25.0
 20
-70.0
 30
0.0
 40
0.9
  0
CIRCLE
  5
1EBC
330
20A6
100
AcDbEntity
  8
Construction
100
AcDbCircle
 10
25.0
 20
-73.5714285714286
 30
0.0
 40
0.9
  0
CIRCLE
  5
1EBD
330
20A6
100
AcDbEntity
  8
Construction
100
AcDbCircle
 10
25.0
 20
-77.14285714285715
 30
0.0
 40
0.9
  0
CIRCLE
  5
1EBE
330
20A6
100
AcDbEntity
  8
Construction
100
AcDbCircle
 10
25.00000000000001
 20
-48.5714285714286
 30
0.0
 40
0.9
  0
CIRCLE
  5
1EBF
330
20A6
100
AcDbEntity
  8
Construction
100
AcDbCircle
 10
25.0
 20
-84.28571428571428
 30
0.0
 40
0.9
  0
CIRCLE
  5
1EC0
330
20A6
100
AcDbEntity
  8
Construction
100
AcDbCircle
 10
25.0
 20
-95.00000000000001
 30
0.0
 40
0.9
  0
CIRCLE
  5
1EC1
330
20A6
100
AcDbEntity
  8
Construction
100
AcDbCircle
 10
25.0
 20
-91.42857142857144
 30
0.0
 40
0.9
  0
CIRCLE
  5
1EC2
330
20A6
100
AcDbEntity
  8
Construction
100
AcDbCircle
 10
25.0
 20
-80.71428571428575
 30
0.0
 40
0.9
  0
CIRCLE
  5
1EC3
330
20A6
100
AcDbEntity
  8
Construction
100
AcDbCircle
 10
25.00000000000001
 20
-52.14285714285715
 30
0.0
 40
0.9
  0
CIRCLE
  5
1EC4
330
20A6
100
AcDbEntity
  8
Construction
100
AcDbCircle
 10
25.0
 20
-55.71428571428574
 30
0.0
 40
0.9
  0
CIRCLE
  5
1EC5
330
20A6
100
AcDbEntity
  8
Construction
100
AcDbCircle
 10
25.0
 20
-59.28571428571432
 30
0.0
 40
0.9
  0
CIRCLE
  5
1EC6
330
20A6
100
AcDbEntity
  8
Construction
100
AcDbCircle
 10
25.00000000000001
 20
-62.85714285714288
 30
0.0
 40
0.9
  0
CIRCLE
  5
1EC7
330
20A6
100
AcDbEntity
  8
Construction
100
AcDbCircle
 10
25.0
 20
-87.85714285714286
 30
0.0
 40
0.9
  0
LINE
  5
1EC8
330
20A6
100
AcDbEntity
  8
Construction
100
AcDbLine
 10
33.00000000000001
 20
-101.5
 30
0.0
 11
33.00000000000001
 21
-38.50000000000001
 31
0.0
  0
LINE
  5
1EC9
330
20A6
100
AcDbEntity
  8
Construction
100
AcDbLine
 10
33.00000000000001
 20
-38.50000000000001
 30
0.0
 11
-32.99999999999999
 21
-38.5
 31
0.0
  0
LINE
  5
1ECA
330
20A6
100
AcDbEntity
  8
Construction
100
AcDbLine
 10
-32.99999999999999
 20
-38.5
 30
0.0
 11
-33.00000000000001
 21
-101.5
 31
0.0
  0
LINE
  5
1ECB
330
20A6
100
AcDbEntity
  8
Construction
100
AcDbLine
 10
-33.00000000000001
 20
-101.5
 30
0.0
 11
33.00000000000001
 21
-101.5
 31
0.0
  0
LINE
  5
1ECE
330
20A6
100
AcDbEntity
  8
Construction
100
AcDbLine
 10
-16.67000000000002
 20
-88.89000000000001
 30
0.0
 11
-16.67000000000002
 21
-51.11000000000002
 31
0.0
  0
LINE
  5
1ECF
330
20A6
100
AcDbEntity
  8
Construction
100
AcDbLine
 10
-11.59000000000003
 20
-88.89000000000001
 30
0.0
 11
-11.59000000000003
 21
-51.11000000000002
 31
0.0
  0
LINE
  5
1ED0
330
20A6
100
AcDbEntity
  8
Construction
100
AcDbLine
 10
13.81
 20
-88.89000000000001
 30
0.0
 11
13.81000000000001
 21
-51.11000000000003
 31
0.0
  0
LINE
  5
1ED1
330
20A6
100
AcDbEntity
  8
Construction
100
AcDbLine
 10
18.89
 20
-88.89000000000004
 30
0.0
 11
18.89000000000002
 21
-51.11000000000003
 31
0.0
  0
LINE
  5
1ED2
330
20A6
100
AcDbEntity
  8
Construction
100
AcDbLine
 10
-23.43925759280091
 20
-96.56074240719913
 30
0.0
 11
-23.43925759280092
 21
-43.43925759280096
 31
0.0
  0
LINE
  5
1ED3
330
20A6
100
AcDbEntity
  8
Construction
100
AcDbLine
 10
23.4392575928009
 20
-96.56074240719911
 30
0.0
 11
23.4392575928009
 21
-43.43925759280094
 31
0.0
  0
LINE
  5
1ED4
330
20A6
100
AcDbEntity
  8
Construction
100
AcDbLine
 10
-16.67000000000002
 20
-51.11000000000002
 30
0.0
 11
-18.89000000000001
 21
-51.11000000000001
 31
0.0
  0
LINE
  5
1ED5
330
20A6
100
AcDbEntity
  8
Construction
100
AcDbLine
 10
-11.59000000000003
 20
-51.11000000000002
 30
0.0
 11
-13.81
 21
-51.11000000000002
 31
0.0
  0
LINE
  5
1ED6
330
20A6
100
AcDbEntity
  8
Construction
100
AcDbLine
 10
13.81000000000001
 20
-51.11000000000003
 30
0.0
 11
11.58999999999998
 21
-51.11000000000002
 31
0.0
  0
LINE
  5
1ED7
330
20A6
100
AcDbEntity
  8
Construction
100
AcDbLine
 10
18.89000000000002
 20
-51.11000000000003
 30
0.0
 11
16.67000000000001
 21
-51.11000000000001
 31
0.0
  0
LINE
  5
1ED8
330
20A6
100
AcDbEntity
  8
Construction
100
AcDbLine
 10
-23.43925759280092
 20
-43.43925759280096
 30
0.0
 11
-26.56074240719911
 21
-43.43925759280095
 31
0.0
  0
LINE
  5
1ED9
330
20A6
100
AcDbEntity
  8
Construction
100
AcDbLine
 10
23.4392575928009
 20
-43.43925759280094
 30
0.0
 11
26.56074240719911
 21
-43.43925759280095
 31
0.0
  0
LINE
  5
1EDA
330
20A6
100
AcDbEntity
  8
Construction
100
AcDbLine
 10
-18.89000000000001
 20
-51.11000000000001
 30
0.0
 11
-18.89000000000001
 21
-88.89000000000001
 31
0.0
  0
LINE
  5
1EDB
330
20A6
100
AcDbEntity
  8
Construction
100
AcDbLine
 10
-13.81
 20
-51.11000000000002
 30
0.0
 11
-13.81000000000001
 21
-88.89000000000001
 31
0.0
  0
LINE
  5
1EDC
330
20A6
100
AcDbEntity
  8
Construction
100
AcDbLine
 10
11.58999999999998
 20
-51.11000000000002
 30
0.0
 11
11.58999999999997
 21
-88.89000000000001
 31
0.0
  0
LINE
  5
1EDD
330
20A6
100
AcDbEntity
  8
Construction
100
AcDbLine
 10
16.67000000000001
 20
-51.11000000000001
 30
0.0
 11
16.67000000000001
 21
-88.89000000000003
 31
0.0
  0
LINE
  5
1EDE
330
20A6
100
AcDbEntity
  8
Construction
100
AcDbLine
 10
-26.56074240719911
 20
-43.43925759280095
 30
0.0
 11
-26.56074240719913
 21
-96.56074240719911
 31
0.0
  0
LINE
  5
1EDF
330
20A6
100
AcDbEntity
  8
Construction
100
AcDbLine
 10
26.56074240719911
 20
-43.43925759280095
 30
0.0
 11
26.56074240719909
 21
-96.56074240719914
 31
0.0
  0
LINE
  5
1EE0
330
20A6
100
AcDbEntity
  8
Construction
100
AcDbLine
 10
-18.89000000000001
 20
-88.89000000000001
 30
0.0
 11
-16.67000000000002
 21
-88.89000000000001
 31
0.0
  0
LINE
  5
1EE1
330
20A6
100
AcDbEntity
  8
Construction
100
AcDbLine
 10
-13.81000000000001
 20
-88.89000000000001
 30
0.0
 11
-11.59000000000003
 21
-88.89000000000001
 31
0.0
  0
LINE
  5
1EE2
330
20A6
100
AcDbEntity
  8
Construction
100
AcDbLine
 10
11.58999999999997
 20
-88.89000000000001
 30
0.0
 11
13.81
 21
-88.89000000000001
 31
0.0
  0
LINE
  5
1EE3
330
20A6
100
AcDbEntity
  8
Construction
100
AcDbLine
 10
16.67000000000001
 20
-88.89000000000003
 30
0.0
 11
18.89
 21
-88.89000000000004
 31
0.0
  0
LINE
  5
1EE4
330
20A6
100
AcDbEntity
  8
Construction
100
AcDbLine
 10
-26.56074240719913
 20
-96.56074240719911
 30
0.0
 11
-23.43925759280091
 21
-96.56074240719913
 31
0.0
  0
LINE
  5
1EE5
330
20A6
100
AcDbEntity
  8
Construction
100
AcDbLine
 10
26.56074240719909
 20
-96.56074240719914
 30
0.0
 11
23.4392575928009
 21
-96.56074240719911
 31
0.0
  0
MTEXT
  5
1EE6
330
20A6
100
AcDbEntity
  8
Text
100
AcDbMText
 10
0.0
 20
-69.99999999999997
 30
0.0
 40
5.0
 41
0.0
 46
0.0
 71
     5
 72
     1
  1
ESP32\P30P Adapter
  7
textstyle11
 11
6.123233995736766E-17
 21
1.0
 31
0.0
 73
     1
 44
1.0
  0
LINE
  5
1E0E
330
20A6
100
AcDbEntity
  8
BoardOutLine
100
AcDbLine
 10
2.689992379984687
 20
110.255397510795
 30
0.0
 11
10.31000762001531
 21
110.255397510795
 31
0.0
  0
LINE
  5
1E23
330
20A6
100
AcDbEntity
  8
BoardOutLine
100
AcDbLine
 10
-110.255397510795
 20
2.689992379984695
 30
0.0
 11
-110.255397510795
 21
10.3100076200153
 31
0.0
  0
LINE
  5
1E32
330
20A6
100
AcDbEntity
  8
BoardOutLine
100
AcDbLine
 10
-2.689992379984702
 20
-110.255397510795
 30
0.0
 11
-10.31000762001531
 21
-110.255397510795
 31
0.0
  0
LINE
  5
1E41
330
20A6
100
AcDbEntity
  8
BoardOutLine
100
AcDbLine
 10
110.255397510795
 20
-2.689992379984709
 30
0.0
 11
110.255397510795
 21
-10.31000762001532
 31
0.0
  0
LINE
  5
1E0F
330
20A6
100
AcDbEntity
  8
BoardOutLine
100
AcDbLine
 10
10.31000762001531
 20
110.255397510795
 30
0.0
 11
10.31000762001531
 21
112.7700025400051
 31
0.0
  0
LINE
  5
1E24
330
20A6
100
AcDbEntity
  8
BoardOutLine
100
AcDbLine
 10
-110.255397510795
 20
10.3100076200153
 30
0.0
 11
-112.7700025400051
 21
10.31000762001535
 31
0.0
  0
LINE
  5
1E33
330
20A6
100
AcDbEntity
  8
BoardOutLine
100
AcDbLine
 10
-10.31000762001531
 20
-110.255397510795
 30
0.0
 11
-10.31000762001536
 21
-112.7700025400051
 31
0.0
  0
LINE
  5
1E42
330
20A6
100
AcDbEntity
  8
BoardOutLine
100
AcDbLine
 10
110.255397510795
 20
-10.31000762001532
 30
0.0
 11
112.7700025400051
 21
-10.31000762001537
 31
0.0
  0
LINE
  5
1E10
330
20A6
100
AcDbEntity
  8
BoardOutLine
100
AcDbLine
 10
10.31000762001531
 20
112.7700025400051
 30
0.0
 11
2.689992379984687
 21
112.7700025400051
 31
0.0
  0
LINE
  5
1E2A
330
20A6
100
AcDbEntity
  8
BoardOutLine
100
AcDbLine
 10
-112.7700025400051
 20
10.31000762001535
 30
0.0
 11
-112.7700025400051
 21
2.689992379984693
 31
0.0
  0
LINE
  5
1E39
330
20A6
100
AcDbEntity
  8
BoardOutLine
100
AcDbLine
 10
-10.31000762001536
 20
-112.7700025400051
 30
0.0
 11
-2.68999237998475
 21
-112.7700025400051
 31
0.0
  0
LINE
  5
1E48
330
20A6
100
AcDbEntity
  8
BoardOutLine
100
AcDbLine
 10
112.7700025400051
 20
-10.31000762001537
 30
0.0
 11
112.7700025400051
 21
-2.689992379984757
 31
0.0
  0
LINE
  5
1E11
330
20A6
100
AcDbEntity
  8
BoardOutLine
100
AcDbLine
 10
2.689992379984687
 20
112.7700025400051
 30
0.0
 11
2.689992379984687
 21
110.255397510795
 31
0.0
  0
LINE
  5
1E2C
330
20A6
100
AcDbEntity
  8
BoardOutLine
100
AcDbLine
 10
-112.7700025400051
 20
2.689992379984693
 30
0.0
 11
-110.255397510795
 21
2.689992379984695
 31
0.0
  0
LINE
  5
1E3B
330
20A6
100
AcDbEntity
  8
BoardOutLine
100
AcDbLine
 10
-2.68999237998475
 20
-112.7700025400051
 30
0.0
 11
-2.689992379984702
 21
-110.255397510795
 31
0.0
  0
LINE
  5
1E4A
330
20A6
100
AcDbEntity
  8
BoardOutLine
100
AcDbLine
 10
112.7700025400051
 20
-2.689992379984757
 30
0.0
 11
110.255397510795
 21
-2.689992379984709
 31
0.0
  0
LINE
  5
1E12
330
20A6
100
AcDbEntity
  8
BoardOutLine
100
AcDbLine
 10
109.7553975107951
 20
11.31000762001531
 30
0.0
 11
112.270002540005
 21
11.31000762001531
 31
0.0
  0
LINE
  5
1E26
330
20A6
100
AcDbEntity
  8
BoardOutLine
100
AcDbLine
 10
-11.31000762001535
 20
109.7553975107951
 30
0.0
 11
-11.31000762001537
 21
112.270002540005
 31
0.0
  0
LINE
  5
1E35
330
20A6
100
AcDbEntity
  8
BoardOutLine
100
AcDbLine
 10
-109.7553975107951
 20
-11.31000762001534
 30
0.0
 11
-112.270002540005
 21
-11.31000762001536
 31
0.0
  0
LINE
  5
1E44
330
20A6
100
AcDbEntity
  8
BoardOutLine
100
AcDbLine
 10
11.31000762001529
 20
-109.7553975107951
 30
0.0
 11
11.31000762001531
 21
-112.270002540005
 31
0.0
  0
LINE
  5
1E13
330
20A6
100
AcDbEntity
  8
BoardOutLine
100
AcDbLine
 10
112.270002540005
 20
11.31000762001531
 30
0.0
 11
112.270002540005
 21
3.689992379984801
 31
0.0
  0
LINE
  5
1E29
330
20A6
100
AcDbEntity
  8
BoardOutLine
100
AcDbLine
 10
-11.31000762001537
 20
112.270002540005
 30
0.0
 11
-3.68999237998512
 21
112.270002540005
 31
0.0
  0
LINE
  5
1E38
330
20A6
100
AcDbEntity
  8
BoardOutLine
100
AcDbLine
 10
-112.270002540005
 20
-11.31000762001536
 30
0.0
 11
-112.270002540005
 21
-3.689992379985113
 31
0.0
  0
LINE
  5
1E47
330
20A6
100
AcDbEntity
  8
BoardOutLine
100
AcDbLine
 10
11.31000762001531
 20
-112.270002540005
 30
0.0
 11
3.689992379985156
 21
-112.270002540005
 31
0.0
  0
LINE
  5
1E14
330
20A6
100
AcDbEntity
  8
BoardOutLine
100
AcDbLine
 10
112.270002540005
 20
3.689992379984801
 30
0.0
 11
109.7553975107951
 21
3.689992379984801
 31
0.0
  0
LINE
  5
1E2F
330
20A6
100
AcDbEntity
  8
BoardOutLine
100
AcDbLine
 10
-3.68999237998512
 20
112.270002540005
 30
0.0
 11
-3.689992379984918
 21
109.7553975107951
 31
0.0
  0
LINE
  5
1E3E
330
20A6
100
AcDbEntity
  8
BoardOutLine
100
AcDbLine
 10
-112.270002540005
 20
-3.689992379985113
 30
0.0
 11
-109.7553975107951
 21
-3.689992379984911
 31
0.0
  0
LINE
  5
1E4D
330
20A6
100
AcDbEntity
  8
BoardOutLine
100
AcDbLine
 10
3.689992379985156
 20
-112.270002540005
 30
0.0
 11
3.689992379984954
 21
-109.7553975107951
 31
0.0
  0
LINE
  5
1E15
330
20A6
100
AcDbEntity
  8
BoardOutLine
100
AcDbLine
 10
109.7553975107951
 20
3.689992379984801
 30
0.0
 11
109.7553975107951
 21
11.31000762001531
 31
0.0
  0
LINE
  5
1E30
330
20A6
100
AcDbEntity
  8
BoardOutLine
100
AcDbLine
 10
-3.689992379984918
 20
109.7553975107951
 30
0.0
 11
-11.31000762001535
 21
109.7553975107951
 31
0.0
  0
LINE
  5
1E3F
330
20A6
100
AcDbEntity
  8
BoardOutLine
100
AcDbLine
 10
-109.7553975107951
 20
-3.689992379984911
 30
0.0
 11
-109.7553975107951
 21
-11.31000762001534
 31
0.0
  0
LINE
  5
1E4E
330
20A6
100
AcDbEntity
  8
BoardOutLine
100
AcDbLine
 10
3.689992379984954
 20
-109.7553975107951
 30
0.0
 11
11.31000762001529
 21
-109.7553975107951
 31
0.0
  0
ARC
  5
205B
330
20A6
100
AcDbEntity
  8
BoardOutLine
100
AcDbCircle
 10
94.75230867899741
 20
94.75230867899734
 30
0.0
 40
1.75
100
AcDbArc
 50
305.8458667153612
 51
135.0
  0
ARC
  5
1FAF
330
20A6
100
AcDbEntity
  8
BoardOutLine
100
AcDbCircle
 10
0.0
 20
126.5
 30
0.0
 40
3.5
100
AcDbArc
 50
180.0
 51
0.0
  0
ARC
  5
205C
330
20A6
100
AcDbEntity
  8
BoardOutLine
100
AcDbCircle
 10
89.4490078200983
 20
89.44900782009823
 30
0.0
 40
3.5
100
AcDbArc
 50
74.99999999999996
 51
15.42041879191601
  0
ARC
  5
2068
330
20A6
100
AcDbEntity
  8
BoardOutLine
100
AcDbCircle
 10
-89.44900782009827
 20
-89.44900782009825
 30
0.0
 40
3.5
100
AcDbArc
 50
315.0
 51
135.0
  0
LINE
  5
205D
330
20A6
100
AcDbEntity
  8
BoardOutLine
100
AcDbLine
 10
95.77712051689255
 20
93.3337669288506
 30
0.0
 11
92.82301028904632
 21
90.37965670100438
 31
0.0
  0
LINE
  5
205E
330
20A6
100
AcDbEntity
  8
BoardOutLine
100
AcDbLine
 10
93.5148718119208
 20
95.98974554607395
 30
0.0
 11
90.35487447795698
 21
92.82974821211009
 31
0.0
  0
ARC
  5
1E5D
330
20A6
100
AcDbEntity
  8
BoardOutLine
100
AcDbCircle
 10
0.0
 20
112.0
 30
0.0
 40
35.0
100
AcDbArc
 50
7.450101389521906
 51
172.5498986104781
  0
ARC
  5
2075
330
20A6
100
AcDbEntity
  8
BoardOutLine
100
AcDbCircle
 10
79.1959594928935
 20
-79.1959594928932
 30
0.0
 40
35.0
100
AcDbArc
 50
232.4501013895219
 51
37.54989861047812
  0
ARC
  5
205F
330
20A6
100
AcDbEntity
  8
BoardOutLine
100
AcDbCircle
 10
79.19595949289337
 20
79.1959594928933
 30
0.0
 40
35.0
100
AcDbArc
 50
322.4501013895219
 51
127.5498986104781
  0
ARC
  5
2069
330
20A6
100
AcDbEntity
  8
BoardOutLine
100
AcDbCircle
 10
-79.19595949289334
 20
-79.19595949289331
 30
0.0
 40
35.0
100
AcDbArc
 50
142.4501013895219
 51
307.5498986104781
  0
ARC
  5
1EEC
330
20A6
100
AcDbEntity
  8
BoardOutLine
100
AcDbCircle
 10
0.0
 20
0.0
 30
0.0
 40
116.0
100
AcDbArc
 50
110.7400057322263
 51
69.25999426777376
  0
ARC
  5
1EEA
330
20A6
100
AcDbEntity
  8
BoardOutLine
100
AcDbCircle
 10
-44.62011719949512
 20
117.8348214285714
 30
0.0
 40
10.0
100
AcDbArc
 50
290.7400057322262
 51
352.5498986104781
  0
ARC
  5
2076
330
20A6
100
AcDbEntity
  8
BoardOutLine
100
AcDbCircle
 10
114.8729887411505
 20
-51.77061384294718
 30
0.0
 40
10.0
100
AcDbArc
 50
189.3720270490493
 51
217.5498986104781
  0
ARC
  5
2060
330
20A6
100
AcDbEntity
  8
BoardOutLine
100
AcDbCircle
 10
51.77061384294712
 20
114.8729887411503
 30
0.0
 40
10.0
100
AcDbArc
 50
279.3720270490493
 51
307.5498986104781
  0
ARC
  5
206A
330
20A6
100
AcDbEntity
  8
BoardOutLine
100
AcDbCircle
 10
-51.77061384294713
 20
-114.8729887411503
 30
0.0
 40
10.0
100
AcDbArc
 50
99.37202704904932
 51
127.5498986104781
  0
ARC
  5
1EEB
330
20A6
100
AcDbEntity
  8
BoardOutLine
100
AcDbCircle
 10
44.62011719949512
 20
117.8348214285714
 30
0.0
 40
10.0
100
AcDbArc
 50
187.4501013895219
 51
249.2599942677738
  0
ARC
  5
2077
330
20A6
100
AcDbEntity
  8
BoardOutLine
100
AcDbCircle
 10
51.77061384294748
 20
-114.8729887411502
 30
0.0
 40
10.0
100
AcDbArc
 50
52.45010138952188
 51
80.6279729509519
  0
ARC
  5
2061
330
20A6
100
AcDbEntity
  8
BoardOutLine
100
AcDbCircle
 10
114.87298874115
 20
51.77061384294727
 30
0.0
 40
10.0
100
AcDbArc
 50
142.4501013895219
 51
170.6279729509519
  0
ARC
  5
206B
330
20A6
100
AcDbEntity
  8
BoardOutLine
100
AcDbCircle
 10
-114.8729887411501
 20
-51.77061384294728
 30
0.0
 40
10.0
100
AcDbArc
 50
322.4501013895219
 51
350.6279729509519
  0
ARC
  5
2078
330
20A6
100
AcDbEntity
  8
BoardOutLine
100
AcDbCircle
 10
104.0198191276929
 20
-53.56190090579392
 30
0.0
 40
1.0
100
AcDbArc
 50
9.372027049047997
 51
152.755148685894
  0
ARC
  5
2062
330
20A6
100
AcDbEntity
  8
BoardOutLine
100
AcDbCircle
 10
53.56190090579395
 20
104.0198191276928
 30
0.0
 40
1.0
100
AcDbArc
 50
99.37202704904804
 51
242.755148685894
  0
ARC
  5
206C
330
20A6
100
AcDbEntity
  8
BoardOutLine
100
AcDbCircle
 10
-53.56190090579396
 20
-104.0198191276928
 30
0.0
 40
1.0
100
AcDbArc
 50
279.372027049048
 51
62.75514868589396
  0
ARC
  5
2079
330
20A6
100
AcDbEntity
  8
BoardOutLine
100
AcDbCircle
 10
53.56190090579397
 20
-104.0198191276926
 30
0.0
 40
1.0
100
AcDbArc
 50
117.2448513141063
 51
260.6279729509518
  0
ARC
  5
2063
330
20A6
100
AcDbEntity
  8
BoardOutLine
100
AcDbCircle
 10
104.0198191276927
 20
53.56190090579393
 30
0.0
 40
1.0
100
AcDbArc
 50
207.2448513141063
 51
350.6279729509518
  0
ARC
  5
206D
330
20A6
100
AcDbEntity
  8
BoardOutLine
100
AcDbCircle
 10
-104.0198191276927
 20
-53.56190090579392
 30
0.0
 40
1.0
100
AcDbArc
 50
27.24485131410629
 51
170.6279729509518
  0
CIRCLE
  5
1F81
330
20A6
100
AcDbEntity
  8
Multi-Layer
100
AcDbCircle
 10
20.0
 20
120.0
 30
0.0
 40
1.5
  0
CIRCLE
  5
1F82
330
20A6
100
AcDbEntity
  8
Multi-Layer
100
AcDbCircle
 10
-20.0
 20
120.0
 30
0.0
 40
1.5
  0
CIRCLE
  5
207A
330
20A6
100
AcDbEntity
  8
Multi-Layer
100
AcDbCircle
 10
70.71067811865491
 20
-98.99494936611651
 30
0.0
 40
1.5
  0
CIRCLE
  5
207B
330
20A6
100
AcDbEntity
  8
Multi-Layer
100
AcDbCircle
 10
98.99494936611683
 20
-70.71067811865463
 30
0.0
 40
1.5
  0
CIRCLE
  5
2064
330
20A6
100
AcDbEntity
  8
Multi-Layer
100
AcDbCircle
 10
98.99494936611654
 20
70.71067811865484
 30
0.0
 40
1.5
  0
CIRCLE
  5
2065
330
20A6
100
AcDbEntity
  8
Multi-Layer
100
AcDbCircle
 10
70.71067811865466
 20
98.99494936611676
 30
0.0
 40
1.5
  0
CIRCLE
  5
206E
330
20A6
100
AcDbEntity
  8
Multi-Layer
100
AcDbCircle
 10
-98.99494936611657
 20
-70.71067811865484
 30
0.0
 40
1.5
  0
CIRCLE
  5
206F
330
20A6
100
AcDbEntity
  8
Multi-Layer
100
AcDbCircle
 10
-70.71067811865467
 20
-98.99494936611674
 30
0.0
 40
1.5
  0
LWPOLYLINE
  5
207C
330
20A6
100
AcDbEntity
  8
Text
100
AcDbPolyline
 90
        9
 70
   129
 43
0.0
 10
103.9717438377656
 20
-74.92627180243099
 10
110.8392652228502
 20
-77.95824535395803
 10
110.1302290916468
 20
-78.66728148516148
 10
105.2480088739318
 20
-76.35784951495602
 42
-0.0186659959615071
 10
104.1777019520675
 20
-75.80750242264098
 42
-0.0206773252414581
 10
104.7212963193235
 20
-76.88456206956428
 10
106.9800828515858
 20
-81.8174277252224
 10
106.3115630707369
 20
-82.48594750607135
 10
103.2998476943871
 20
-75.5981679458095
  0
LWPOLYLINE
  5
207D
330
20A6
100
AcDbEntity
  8
Text
100
AcDbPolyline
 90
        4
 70
   129
 43
0.0
 10
105.2397196006556
 20
-82.159976888923
 10
105.9386266442705
 20
-82.8588839325378
 10
105.3308813889532
 20
-83.46662918785503
 10
104.6319743453384
 20
-82.76772214424024
  0
LWPOLYLINE
  5
207E
330
20A6
100
AcDbEntity
  8
Text
100
AcDbPolyline
 90
        4
 70
   129
 43
0.0
 10
100.9888791759646
 20
-77.90913646423198
 10
104.5745761823362
 20
-81.4948334706036
 10
103.966830927019
 20
-82.10257872592081
 10
100.3811339206474
 20
-78.51688171954919
  0
LWPOLYLINE
  5
207F
330
20A6
100
AcDbEntity
  8
Text
100
AcDbPolyline
 90
       14
 70
   129
 43
0.0
 10
98.89975991524659
 20
-79.99825572495
 10
99.4636124576798
 20
-79.4344031825168
 10
104.4133599259856
 20
-84.38415065082263
 10
103.8056146706684
 20
-84.99189590613986
 10
102.0397770677189
 20
-83.22605830319037
 42
-0.2407821100914839
 10
101.540075413347
 20
-84.69139964101078
 42
-0.1076190496693542
 10
100.7803938442004
 20
-85.18434857032365
 42
-0.1217670918026174
 10
99.9194213991677
 20
-85.29576853379847
 42
-0.0910816993962107
 10
99.03819077895774
 20
-85.01215408131709
 42
-0.077214971635083
 10
98.20085287163177
 20
-84.39090337588169
 42
-0.0775591983939042
 10
97.46710980134925
 20
-83.38580105367095
 42
-0.1070373131572124
 10
97.23183682565376
 20
-82.51026944692786
 42
-0.2215037965110307
 10
97.82270026832329
 20
-80.91324997045538
 42
-0.2643078462596909
 10
99.34881613167543
 20
-80.44731194137886
  0
LWPOLYLINE
  5
2080
330
20A6
100
AcDbEntity
  8
Text
100
AcDbPolyline
 90
       12
 70
   129
 43
0.0
 10
100.7263720437278
 20
-81.81136240331305
 42
0.0465893747680095
 10
100.0393344164603
 20
-81.24167917940277
 42
0.0909501149707837
 10
99.61892513403865
 20
-81.05505719669605
 42
0.2794526950606865
 10
98.37304736063834
 20
-81.36230618688421
 42
0.2323717209068187
 10
98.03034656389002
 20
-82.39716130218827
 42
0.1063186836651412
 10
98.20895535950328
 20
-82.97629367761108
 42
0.0687089222669318
 10
98.77145813912406
 20
-83.71900723250323
 42
0.0657262536137078
 10
99.53019236274982
 20
-84.3007657942566
 42
0.1084752077617827
 10
100.08655134438
 20
-84.47700062038498
 42
0.2337141219504786
 10
101.0943955594477
 20
-84.1376761861662
 42
0.232371720906806
 10
101.437096356196
 20
-83.10282107086216
 42
0.1043218592830363
 10
101.2606788393288
 20
-82.52266682648114
 42
0.0706934348150722
  0
LWPOLYLINE
  5
2081
330
20A6
100
AcDbEntity
  8
Text
100
AcDbPolyline
 90
       18
 70
   129
 43
0.0
 10
94.30958494746693
 20
-86.89786266293511
 10
93.60392517879305
 20
-87.44820975525015
 42
-0.1706246737092021
 10
93.30005255113444
 20
-86.04364294296145
 42
-0.1662182050993646
 10
94.02259413245602
 20
-84.71335610632264
 42
-0.2132677683537132
 10
95.75466811011012
 20
-83.95029817464658
 42
-0.1087872642248403
 10
96.61880650261679
 20
-84.16334056908461
 42
-0.0819222426962962
 10
97.57452751353223
 20
-84.84841060750423
 42
-0.0802484878675703
 10
98.28783741317102
 20
-85.83657139730613
 42
-0.1079513825484603
 10
98.5131562967444
 20
-86.71891544886948
 42
-0.2170961198617782
 10
97.80412016554097
 20
-88.4273548888168
 42
-0.2173987848368101
 10
96.13957343847768
 20
-89.11275648231344
 42
-0.1079554760399435
 10
95.27581041228501
 20
-88.8914864246907
 42
-0.0800561346296016
 10
94.3062085849374
 20
-88.19100951174899
 42
-0.0071401023331536
 10
94.14751954604903
 20
-88.02556774780152
 10
96.8215986694448
 20
-85.35148862440573
 42
0.1807341869394803
 10
95.58247362110356
 20
-84.78088335691345
 42
0.2135243034248642
 10
94.51891942429842
 20
-85.21643412322413
 42
0.1648550964055137
 10
94.12388500834223
 20
-85.96261024225248
 42
0.1477886612671563
  0
LWPOLYLINE
  5
2082
330
20A6
100
AcDbEntity
  8
Text
100
AcDbPolyline
 90
        5
 70
   129
 43
0.0
 10
97.28753669852134
 20
-85.88495390407307
 10
95.28535371850404
 20
-87.88713688409037
 42
0.1508019853218612
 10
96.19359523895032
 20
-88.33619310051921
 42
0.2353338121817523
 10
97.29766578610995
 20
-87.93440595950393
 42
0.2043985512105945
 10
97.72139928356724
 20
-86.950196282143
 42
0.1899364710953931
  0
LWPOLYLINE
  5
2083
330
20A6
100
AcDbEntity
  8
Text
100
AcDbPolyline
 90
       22
 70
   129
 43
0.0
 10
87.98017892218016
 20
-94.3887373983837
 10
87.1597228275019
 20
-94.87830996516702
 42
-0.167452612834869
 10
86.67015026071857
 20
-92.90651424791558
 42
-0.1734317523154817
 10
87.5547572434581
 20
-91.1744402702615
 42
-0.1457010853463396
 10
89.18216398269644
 20
-90.19867149922439
 42
-0.1526037156175737
 10
90.88891524137898
 20
-90.3793068945548
 42
-0.1014508249177977
 10
92.47749381152761
 20
-91.4445492726247
 42
-0.1200622278741792
 10
93.53091892074413
 20
-93.08883782451075
 42
-0.1533466671568036
 10
93.56468254603952
 20
-94.80402998951713
 42
-0.1279481987830795
 10
92.66319375065231
 20
-96.30313495263296
 42
-0.1651989373363902
 10
91.03578701141397
 20
-97.1742364852543
 42
-0.1670220267051717
 10
89.26657304593493
 20
-96.81634205712305
 10
89.75952197524781
 20
-96.01952050015159
 42
0.1560195630246593
 10
91.0459160990026
 20
-96.3065113151625
 42
0.1658888217315905
 10
92.11622302086681
 20
-95.72915332261114
 42
0.158929512663026
 10
92.79656007056916
 20
-94.50184554312328
 42
0.161762732131277
 10
92.60073104385582
 20
-93.22895686948667
 42
0.0819833165773868
 10
91.80559766814902
 20
-92.12319814106216
 42
0.0933143233931414
 10
90.51920354439433
 20
-91.20482753302734
 42
0.1702616600855006
 10
89.24293850822815
 20
-91.07314939437529
 42
0.1384919633617929
 10
88.1692552238344
 20
-91.6808946496925
 42
0.1803822951545075
 10
87.55475724345808
 20
-92.93014878562235
 42
0.1701488676351867
  0
LWPOLYLINE
  5
2084
330
20A6
100
AcDbEntity
  8
Text
100
AcDbPolyline
 90
        4
 70
   129
 43
0.0
 10
84.85744793714949
 20
-94.0405677030471
 10
89.80719540545533
 20
-98.99031517135293
 10
89.19945015013809
 20
-99.59806042667017
 10
84.24970268183226
 20
-94.64831295836433
  0
LWPOLYLINE
  5
2085
330
20A6
100
AcDbEntity
  8
Text
100
AcDbPolyline
 90
       14
 70
   129
 43
0.0
 10
85.3309878363524
 20
-97.1527248102158
 42
-0.0357784099337599
 10
85.74852453663243
 20
-97.6347110100861
 42
-0.0445821824293332
 10
86.01761873180541
 20
-98.0704400925687
 42
-0.0640055368867048
 10
86.21537575158011
 20
-98.63614349147092
 42
-0.0701731859982792
 10
86.25273480691688
 20
-99.18191869046943
 42
-0.1853630499521444
 10
85.5234405005362
 20
-100.7080345538216
 42
-0.2114097886506141
 10
83.83019469197183
 20
-101.4322643164079
 42
-0.108495235350201
 10
82.95731524731026
 20
-101.2259758921839
 42
-0.0844952931647604
 10
82.02215255740309
 20
-100.5628509650513
 42
-0.1184665541720872
 10
81.1409219371931
 20
-99.26632775370791
 42
-0.1501036400028979
 10
81.12910466833972
 20
-98.04577269927915
 42
-0.1290503973388717
 10
81.77567809274665
 20
-96.96027214603201
 42
-0.212256435704328
 10
83.47567662637012
 20
-96.22591329585703
 42
-0.1113766976173581
 10
84.34003402716654
 20
-96.43875975102645
 42
-0.0807031721044495
  0
LWPOLYLINE
  5
2086
330
20A6
100
AcDbEntity
  8
Text
100
AcDbPolyline
 90
       12
 70
   129
 43
0.0
 10
84.70636076838747
 20
-97.77735187818071
 42
0.0709888485569337
 10
83.9594087144954
 20
-97.21695442322421
 42
0.1095337862781328
 10
83.37438575048391
 20
-97.04636939053529
 42
0.2265690558626974
 10
82.27537974711859
 20
-97.45997380040396
 42
0.2272981948107655
 10
81.86683988104424
 20
-98.5572916225045
 42
0.1101208847698016
 10
82.04002954656266
 20
-99.14339762965288
 42
0.0697940690180889
 10
82.61639236260216
 20
-99.90783663432055
 42
0.0729547982920575
 10
83.33904427017856
 20
-100.4455980769491
 42
0.1082575395042574
 10
83.92642102406373
 20
-100.6134964029944
 42
0.2257178997595413
 10
85.02036248363471
 20
-100.2049565369201
 42
0.2258311847054732
 10
85.43565507476815
 20
-99.10763871481954
 42
0.1100419851816694
 10
85.26646026489412
 20
-98.52424915237573
 42
0.0710994451550703
  0
LWPOLYLINE
  5
2087
330
20A6
100
AcDbEntity
  8
Text
100
AcDbPolyline
 90
       22
 70
   129
 43
0.0
 10
78.43475726089684
 20
-103.090068427282
 10
77.75948475498882
 20
-103.6100282568312
 42
-0.1815324225009852
 10
77.29354672591228
 20
-102.1413105564812
 42
-0.1860725013249218
 10
77.9350556065249
 20
-100.8008946322538
 42
-0.2172365058304904
 10
79.5996023335882
 20
-100.0986112261094
 42
-0.1092819332762005
 10
80.44695503262378
 20
-100.3186330544466
 42
-0.0785737501451658
 10
81.42621446206941
 20
-101.0304872842625
 42
-0.1047409264117411
 10
82.25004691927721
 20
-102.2392250698379
 42
-0.1681086795558699
 10
82.317574169868
 20
-103.4783501181791
 42
-0.1291534021177466
 10
81.67944165178491
 20
-104.5520334025728
 42
-0.1730811918113627
 10
80.4284993345903
 20
-105.212112277098
 42
-0.1840571700406752
 10
79.11340612933442
 20
-104.8491533051724
 10
79.61310778370634
 20
-104.1671280742053
 42
0.1622143571940288
 10
80.45551023482662
 20
-104.4119143575969
 42
0.1836309019709607
 10
81.1561054597062
 20
-104.0759662859077
 42
0.2273094999924213
 10
81.5730862321044
 20
-103.0005948202492
 42
0.1125101562072334
 10
81.40481892983938
 20
-102.4417501952217
 42
0.0673153643923772
 10
80.81846920675218
 20
-101.6719961648751
 42
0.0645390028538945
 10
80.0392444579879
 20
-101.0715955586926
 42
0.1114571572809428
 10
79.49155873264291
 20
-100.8988091456104
 42
0.2319656085231621
 10
78.44150998595593
 20
-101.2938435615666
 42
0.1939331864157468
 10
78.06335738264744
 20
-102.1109232937153
 42
0.1751925010550948
  0
LWPOLYLINE
  5
2088
330
20A6
100
AcDbEntity
  8
Text
100
AcDbPolyline
 90
       12
 70
   129
 43
0.0
 10
75.97969691164782
 20
-102.9183187285488
 10
80.92944437995365
 20
-107.8680661968546
 10
80.32169912463641
 20
-108.4758114521718
 10
77.49906004994088
 20
-105.6531723774763
 10
77.5193182251181
 20
-108.5500914278217
 10
76.73262575573526
 20
-109.3367838972046
 10
76.77314210608975
 20
-106.6356938735725
 10
73.00849788565249
 20
-105.8895177545441
 10
73.7580503672104
 20
-105.1399652729862
 10
76.77651846861929
 20
-105.7882268786579
 10
76.79340028126698
 20
-104.9475126088024
 10
75.3719516563306
 20
-103.526063983866
  0
ARC
  5
1FB0
330
20A6
100
AcDbEntity
  8
BoardOutLine
100
AcDbCircle
 10
0.0
 20
134.0
 30
0.0
 40
3.5
100
AcDbArc
 50
0.0
 51
180.0
  0
ARC
  5
2070
330
20A6
100
AcDbEntity
  8
BoardOutLine
100
AcDbCircle
 10
-94.75230867899738
 20
-94.75230867899735
 30
0.0
 40
3.5
100
AcDbArc
 50
135.0
 51
315.0
  0
LINE
  5
1FB1
330
20A6
100
AcDbEntity
  8
BoardOutLine
100
AcDbLine
 10
3.5
 20
134.0
 30
0.0
 11
3.5
 21
126.5
 31
0.0
  0
LINE
  5
2071
330
20A6
100
AcDbEntity
  8
BoardOutLine
100
AcDbLine
 10
-97.22718241315019
 20
-92.27743494484453
 30
0.0
 11
-91.92388155425108
 21
-86.97413408594542
 31
0.0
  0
LINE
  5
1FB2
330
20A6
100
AcDbEntity
  8
BoardOutLine
100
AcDbLine
 10
-3.5
 20
134.0
 30
0.0
 11
-3.5
 21
126.5
 31
0.0
  0
LINE
  5
2072
330
20A6
100
AcDbEntity
  8
BoardOutLine
100
AcDbLine
 10
-92.27743494484436
 20
-97.22718241315036
 30
0.0
 11
-86.97413408594527
 21
-91.92388155425125
 31
0.0
  0
MTEXT
  5
1FAE
330
20A6
100
AcDbEntity
  8
Text
100
AcDbMText
 10
10.00000000000011
 20
130.0
 30
0.0
 40
5.0
 41
0.0
 46
0.0
 71
     5
 72
     1
  1
2
  7
textstyle12
 73
     1
 44
1.0
  0
MTEXT
  5
2066
330
20A6
100
AcDbEntity
  8
Text
100
AcDbMText
 10
98.99494936611666
 20
84.85281374238585
 30
0.0
 40
5.0
 41
0.0
 46
0.0
 71
     5
 72
     1
  1
1
  7
textstyle13
 11
0.7071067811865474
 21
-0.7071067811865477
 31
0.0
 73
     1
 44
1.0
  0
MTEXT
  5
2073
330
20A6
100
AcDbEntity
  8
Text
100
AcDbMText
 10
-98.99494936611661
 20
-84.85281374238565
 30
0.0
 40
5.0
 41
0.0
 46
0.0
 71
     5
 72
     1
  1
3
  7
textstyle14
 11
-0.7071067811865475
 21
0.7071067811865476
 31
0.0
 73
     1
 44
1.0
  0
CIRCLE
  5
203F
330
20A6
100
AcDbEntity
  8
Multi-Layer
100
AcDbCircle
 10
-101.1162697096764
 20
101.1162697096763
 30
0.0
 40
1.5
  0
ARC
  5
2045
330
20A6
100
AcDbEntity
  8
BoardOutLine
100
AcDbCircle
 10
-53.56190090579395
 20
104.0198191276927
 30
0.0
 40
1.0
100
AcDbArc
 50
297.2448513141063
 51
80.62797295095181
  0
ARC
  5
2042
330
20A6
100
AcDbEntity
  8
BoardOutLine
100
AcDbCircle
 10
-51.77061384294741
 20
114.8729887411502
 30
0.0
 40
10.0
100
AcDbArc
 50
232.4501013895219
 51
260.6279729509519
1001
QCAD
1000
reversed:1
  0
ARC
  5
2040
330
20A6
100
AcDbEntity
  8
BoardOutLine
100
AcDbCircle
 10
-79.19595949289345
 20
79.19595949289328
 30
0.0
 40
35.0
100
AcDbArc
 50
52.4501013895219
 51
217.5498986104781
  0
ARC
  5
2041
330
20A6
100
AcDbEntity
  8
BoardOutLine
100
AcDbCircle
 10
-114.8729887411504
 20
51.77061384294724
 30
0.0
 40
10.0
100
AcDbArc
 50
9.37202704904932
 51
37.54989861047812
1001
QCAD
1000
reversed:1
  0
ARC
  5
2044
330
20A6
100
AcDbEntity
  8
BoardOutLine
100
AcDbCircle
 10
-104.0198191276928
 20
53.56190090579402
 30
0.0
 40
1.0
100
AcDbArc
 50
189.372027049048
 51
332.755148685894
  0
CIRCLE
  5
2046
330
20A6
100
AcDbEntity
  8
Multi-Layer
100
AcDbCircle
 10
-70.71067811865487
 20
98.99494936611661
 30
0.0
 40
1.5
  0
CIRCLE
  5
2047
330
20A6
100
AcDbEntity
  8
Multi-Layer
100
AcDbCircle
 10
-98.99494936611677
 20
70.71067811865473
 30
0.0
 40
1.5
  0
LWPOLYLINE
  5
2048
330
20A6
100
AcDbEntity
  8
Text
100
AcDbPolyline
 90
        5
 70
   129
 43
0.0
 10
-88.77450671650658
 20
100.9177967313946
 10
-85.77123224648065
 20
103.9210712014205
 42
0.1508019853218612
 10
-87.13359452715008
 20
104.5946555260638
 42
0.2353338121817523
 10
-88.78970034788952
 20
103.9919748145409
 42
0.2043985512105945
 10
-89.42530059407545
 20
102.5156602984995
 42
0.1899364710953931
  0
LWPOLYLINE
  5
2049
330
20A6
100
AcDbEntity
  8
Text
100
AcDbPolyline
 90
       14
 70
   129
 43
0.0
 10
-88.8589743365633
 20
82.70671711117727
 42
-0.0357784099337599
 10
-89.48527938698331
 20
83.42969641098269
 42
-0.0445821824293332
 10
-89.88892067974282
 20
84.08329003470661
 42
-0.0640055368867048
 10
-90.18555620940484
 20
84.93184513305992
 42
-0.0701731859982792
 10
-90.24159479240996
 20
85.7505079315577
 42
-0.1853630499521444
 10
-89.14765333283896
 20
88.03968172658591
 42
-0.2114097886506141
 10
-86.60778461999237
 20
89.12602637046542
 42
-0.108495235350201
 10
-85.29846545300003
 20
88.81659373412946
 42
-0.0844952931647604
 10
-83.89572141813926
 20
87.82190634343056
 42
-0.1184665541720872
 10
-82.57387548782435
 20
85.87712152641544
 42
-0.1501036400028979
 10
-82.55614958454424
 20
84.04628894477229
 42
-0.1290503973388717
 10
-83.52600972115465
 20
82.4180381149016
 42
-0.212256435704328
 10
-86.07600752158982
 20
81.31649983963909
 42
-0.1113766976173581
 10
-87.37254362278446
 20
81.63576952239323
 42
-0.0807031721044495
  0
LWPOLYLINE
  5
204A
330
20A6
100
AcDbEntity
  8
Text
100
AcDbPolyline
 90
       12
 70
   129
 43
0.0
 10
-87.92203373461587
 20
83.64365771312464
 42
0.0709888485569337
 10
-86.80160565377776
 20
82.80306153068986
 42
0.1095337862781328
 10
-85.9240712077605
 20
82.5471839816565
 42
0.2265690558626974
 10
-84.27556220271256
 20
83.16759059645949
 42
0.2272981948107655
 10
-83.66275240360102
 20
84.8135673296103
 42
0.1101208847698016
 10
-83.92253690187866
 20
85.6927263403329
 42
0.0697940690180889
 10
-84.7870811259379
 20
86.8393848473344
 42
0.0729547982920575
 10
-85.87105898730249
 20
87.64602701127724
 42
0.1082575395042574
 10
-86.75212411813024
 20
87.89787450034524
 42
0.2257178997595413
 10
-88.39303630748674
 20
87.2850647012337
 42
0.2258311847054732
 10
-89.0159751941869
 20
85.63908796808289
 42
0.1100419851816694
 10
-88.76218297937586
 20
84.76400362441719
 42
0.0710994451550703
  0
LWPOLYLINE
  5
204B
330
20A6
100
AcDbEntity
  8
Text
100
AcDbPolyline
 90
       22
 70
   129
 43
0.0
 10
-92.83276096530489
 20
78.5607359934291
 10
-91.60207682328749
 20
79.29509484360409
 42
-0.167452612834869
 10
-90.86771797311249
 20
76.33740126772695
 42
-0.1734317523154817
 10
-92.19462844722182
 20
73.7392903012458
 42
-0.1457010853463396
 10
-94.6357385560793
 20
72.27563714469012
 42
-0.1526037156175737
 10
-97.19586544410313
 20
72.54659023768576
 42
-0.1014508249177977
 10
-99.57873329932605
 20
74.14445380479063
 42
-0.1200622278741792
 10
-101.1588709631509
 20
76.6108866326197
 42
-0.1533466671568036
 10
-101.209516401094
 20
79.18367488012927
 42
-0.1279481987830795
 10
-99.85728320801314
 20
81.43233232480299
 42
-0.1651989373363902
 10
-97.4161730991556
 20
82.738984623735
 42
-0.1670220267051717
 10
-94.76235215093709
 20
82.20214298153813
 10
-95.50177554490637
 20
81.00691064608094
 42
0.1560195630246593
 10
-97.43136673053857
 20
81.4373968685973
 42
0.1658888217315905
 10
-99.03682711333491
 20
80.57135987977026
 42
0.158929512663026
 10
-100.0573326878884
 20
78.7303982105385
 42
0.161762732131277
 10
-99.76358914781838
 20
76.82106520008358
 42
0.0819833165773868
 10
-98.57088908425817
 20
75.16242710744682
 42
0.0933143233931414
 10
-96.64129789862616
 20
73.78487119539457
 42
0.1702616600855006
 10
-94.7269003443769
 20
73.58735398741649
 42
0.1384919633617929
 10
-93.11637541778626
 20
74.49897187039231
 42
0.1803822951545075
 10
-92.19462844722182
 20
76.37285307428711
 42
0.1701488676351867
  0
LWPOLYLINE
  5
204C
330
20A6
100
AcDbEntity
  8
Text
100
AcDbPolyline
 90
        4
 70
   129
 43
0.0
 10
-88.14866448775888
 20
78.03848145042423
 10
-95.57328569021763
 20
85.46310265288298
 10
-94.6616678072418
 20
86.3747205358588
 10
-87.23704660478305
 20
78.95009933340006
  0
LWPOLYLINE
  5
204D
330
20A6
100
AcDbEntity
  8
Text
100
AcDbPolyline
 90
        9
 70
   129
 43
0.0
 10
-98.80081742537297
 20
84.47977357893151
 10
-109.1020995029999
 20
89.02773390622207
 10
-108.0385453061948
 20
90.09128810302718
 10
-100.7152149796222
 20
86.62714014771902
 42
-0.0186659959615071
 10
-99.1097545968259
 20
85.80161950924648
 42
-0.0206773252414581
 10
-99.92514614770982
 20
87.41720897963143
 10
-103.3133259461034
 20
94.81650746311864
 10
-102.31054627483
 20
95.81928713439206
 10
-97.79297321030526
 20
85.48761779399925
  0
LWPOLYLINE
  5
204E
330
20A6
100
AcDbEntity
  8
Text
100
AcDbPolyline
 90
        4
 70
   129
 43
0.0
 10
-100.7027810697081
 20
95.3303312086695
 10
-101.7511416351303
 20
96.37869177409172
 10
-100.8395237521544
 20
97.29030965706757
 10
-99.79116318673223
 20
96.24194909164535
  0
LWPOLYLINE
  5
204F
330
20A6
100
AcDbEntity
  8
Text
100
AcDbPolyline
 90
       22
 70
   129
 43
0.0
 10
-78.51462847337993
 20
91.61273253677655
 10
-77.50171971451789
 20
92.39267228110027
 42
-0.1815324225009852
 10
-76.80281267090308
 20
90.18959573057533
 42
-0.1860725013249218
 10
-77.76507599182202
 20
88.17897184423421
 42
-0.2172365058304904
 10
-80.26189608241697
 20
87.12554673501766
 42
-0.1092819332762005
 10
-81.53292513097034
 20
87.4555794775234
 42
-0.0785737501451658
 10
-83.0018142751388
 20
88.52336082224731
 42
-0.1047409264117411
 10
-84.23756296095047
 20
90.33646750061035
 42
-0.1681086795558699
 10
-84.33885383683665
 20
92.19515507312218
 42
-0.1291534021177466
 10
-83.38165505971202
 20
93.80567999971285
 42
-0.1730811918113627
 10
-81.50524158392011
 20
94.79579831150046
 42
-0.1840571700406752
 10
-79.53260177603627
 20
94.25135985361213
 10
-80.28215425759419
 20
93.22832200716145
 42
0.1622143571940288
 10
-81.54575793427458
 20
93.59550143224894
 42
0.1836309019709607
 10
-82.59665077159397
 20
93.09157932471508
 42
0.2273094999924213
 10
-83.22212193019126
 20
91.47852212622729
 42
0.1125101562072334
 10
-82.96972097679375
 20
90.64025518868618
 42
0.0673153643923772
 10
-82.09019639216291
 20
89.48562414316625
 42
0.0645390028538945
 10
-80.92135926901653
 20
88.58502323389244
 42
0.1114571572809428
 10
-80.09983068099902
 20
88.32584361426922
 42
0.2319656085231621
 10
-78.52475756096857
 20
88.9183952382035
 42
0.1939331864157468
 10
-77.95752865600579
 20
90.14401483642655
 42
0.1751925010550948
  0
LWPOLYLINE
  5
2050
330
20A6
100
AcDbEntity
  8
Text
100
AcDbPolyline
 90
       12
 70
   129
 43
0.0
 10
-74.83203794950637
 20
91.35510798867672
 10
-82.25665915196512
 20
98.77972919113549
 10
-81.34504126898932
 20
99.69134707411132
 10
-77.111082656946
 20
95.45738846206798
 10
-77.14146991971185
 20
99.80276703758612
 10
-75.96143121563753
 20
100.9828057416604
 10
-76.02220574116927
 20
96.93117070621227
 10
-70.37523941051342
 20
95.81190652766968
 10
-71.49956813285024
 20
94.68757780533285
 10
-76.0272702849636
 20
95.65997021384038
 10
-76.05259300393516
 20
94.39889880905716
 10
-73.92042006653054
 20
92.26672587165255
  0
LWPOLYLINE
  5
2051
330
20A6
100
AcDbEntity
  8
Text
100
AcDbPolyline
 90
       12
 70
   129
 43
0.0
 10
-93.93275973431628
 20
94.80740948025458
 42
0.0465893747680095
 10
-92.90220329341497
 20
93.95288464438916
 42
0.0909501149707837
 10
-92.27158936978256
 20
93.67295167032908
 42
0.2794526950606865
 10
-90.4027727096821
 20
94.1338251556113
 42
0.2323717209068187
 10
-89.88872151455962
 20
95.6861078285674
 42
0.1063186836651412
 10
-90.15663470797949
 20
96.5548063917016
 42
0.0687089222669318
 10
-91.00038887741067
 20
97.66887672403985
 42
0.0657262536137078
 10
-92.13849021284935
 20
98.5415145666699
 42
0.1084752077617827
 10
-92.97302868529451
 20
98.80586680586246
 42
0.2337141219504786
 10
-94.48479500789611
 20
98.29688015453428
 42
0.232371720906806
 10
-94.99884620301862
 20
96.74459748157821
 42
0.1043218592830363
 10
-94.73421992771779
 20
95.87436611500671
 42
0.0706934348150722
  0
LWPOLYLINE
  5
2052
330
20A6
100
AcDbEntity
  8
Text
100
AcDbPolyline
 90
       18
 70
   129
 43
0.0
 10
-84.30757908992499
 20
102.4371598696877
 10
-83.24908943691415
 20
103.2626805081602
 42
-0.1706246737092021
 10
-82.79328049542625
 20
101.1558302897271
 42
-0.1662182050993646
 10
-83.87709286740863
 20
99.16040003476897
 42
-0.2132677683537132
 10
-86.47520383388976
 20
98.01581313725488
 42
-0.1087872642248403
 10
-87.7714114226498
 20
98.33537672891192
 42
-0.0819222426962962
 10
-89.20499293902293
 20
99.36298178654138
 42
-0.0802484878675703
 10
-90.27495778848109
 20
100.8452229712442
 42
-0.1079513825484603
 10
-90.61293611384119
 20
102.1687390485892
 42
-0.2170961198617782
 10
-89.54938191703604
 20
104.7313982085102
 42
-0.2173987848368101
 10
-87.05256182644112
 20
105.7595005987552
 42
-0.1079554760399435
 10
-85.7569172871521
 20
105.4275955123211
 42
-0.0800561346296016
 10
-84.30251454613068
 20
104.3768801429085
 42
-0.0071401023331536
 10
-84.0644809877981
 20
104.1287174969873
 10
-88.07559967289177
 20
100.1175988118936
 42
0.1807341869394803
 10
-86.21691210037994
 20
99.2616909106552
 42
0.2135243034248642
 10
-84.62158080517221
 20
99.91501706012119
 42
0.1648550964055137
 10
-84.02902918123792
 20
101.0342812386637
 42
0.1477886612671563
  0
LWPOLYLINE
  5
2053
330
20A6
100
AcDbEntity
  8
Text
100
AcDbPolyline
 90
        4
 70
   129
 43
0.0
 10
-94.32652043267154
 20
88.95407057163297
 10
-99.70506594222897
 20
94.33261608119038
 10
-98.79344805925311
 20
95.24423396416624
 10
-93.41490254969568
 20
89.86568845460882
  0
LWPOLYLINE
  5
2054
330
20A6
100
AcDbEntity
  8
Text
100
AcDbPolyline
 90
       14
 70
   129
 43
0.0
 10
-91.1928415415945
 20
92.08774946271001
 10
-92.03862035524432
 20
91.24197064906019
 10
-99.46324155770307
 20
98.66659185151894
 10
-98.55162367472721
 20
99.57820973449479
 10
-95.90286727030298
 20
96.92945333007056
 42
-0.2407821100914839
 10
-95.15331478874504
 20
99.1274653368012
 42
-0.1076190496693542
 10
-94.01379243502527
 20
99.86688873077044
 42
-0.1217670918026174
 10
-92.72233376747616
 20
100.0340186759827
 42
-0.0910816993962107
 10
-91.40048783716122
 20
99.60859699726065
 42
-0.077214971635083
 10
-90.14448097617225
 20
98.67672093910754
 42
-0.0775591983939042
 10
-89.0438663707485
 20
97.16906745579142
 42
-0.1070373131572124
 10
-88.69095690720522
 20
95.85577004567679
 42
-0.2215037965110307
 10
-89.5772520712095
 20
93.46024083096806
 42
-0.2643078462596909
 10
-91.86642586623773
 20
92.76133378735325
  0
VIEWPORT
  5
217B
330
2177
100
AcDbEntity
 67
     1
  8
0
100
AcDbViewport
 10
128.5
 20
97.5
 30
0.0
 40
314.226
 41
222.18
 68
     1
 69
     1
 12
128.5
 22
97.5
 13
0.0
 23
0.0
 14
10.0
 24
10.0
 15
10.0
 25
10.0
 16
0.0
 26
0.0
 36
1.0
 17
0.0
 27
0.0
 37
0.0
 42
50.0
 43
0.0
 44
0.0
 45
222.18
 50
0.0
 51
0.0
 72
   100
 90
   557152
  1

281
     0
 71
     1
 74
     0
110
0.0
120
0.0
130
0.0
111
1.0
121
0.0
131
0.0
112
0.0
122
1.0
132
0.0
 79
     0
146
0.0
170
     0
 61
     5
348
20B6
292
     1
282
     1
141
0.0
142
0.0
 63
   256
361
217C
  0
ENDSEC
  0
SECTION
  2
OBJECTS
  0
DICTIONARY
  5
2094
330
0
100
AcDbDictionary
281
     1
  3
ACAD_DETAILVIEWSTYLE
350
2188
  3
ACAD_GROUP
350
2095
  3
ACAD_LAYOUT
350
20A1
  3
ACAD_MATERIAL
350
20CA
  3
ACAD_MLEADERSTYLE
350
20F2
  3
ACAD_MLINESTYLE
350
209E
  3
ACAD_PLOTSETTINGS
350
20A0
  3
ACAD_PLOTSTYLENAME
350
2096
  3
ACAD_SCALELIST
350
20CE
  3
ACAD_SECTIONVIEWSTYLE
350
2189
  3
ACAD_TABLESTYLE
350
20F0
  3
ACAD_VISUALSTYLE
350
20B1
  3
ACDB_RECOMPOSE_DATA
350
2185
  3
AcDbVariableDictionary
350
2181
  3
QCAD_OBJECTS
350
20F6
  0
SUN
  5
20F4
330
20B0
100
AcDbSun
 90
        1
290
     0
 63
     7
421
 16777215
 40
1.0
291
     1
 91
  2455826
 92
 54000000
292
     0
 70
     2
 71
   256
280
     1
  0
SUN
  5
2176
330
2175
100
AcDbSun
 90
        1
290
     0
 63
     7
421
 16777215
 40
1.0
291
     1
 91
  2455826
 92
 54000000
292
     0
 70
     2
 71
   256
280
     1
  0
SUN
  5
217C
330
217B
100
AcDbSun
 90
        1
290
     0
 63
     7
421
 16777215
 40
1.0
291
     1
 91
  2455826
 92
 54000000
292
     0
 70
     2
 71
   256
280
     1
  0
DICTIONARY
  5
2188
102
{ACAD_REACTORS
330
2094
102
}
330
2094
100
AcDbDictionary
281
     1
  0
DICTIONARY
  5
2095
102
{ACAD_REACTORS
330
2094
102
}
330
2094
100
AcDbDictionary
281
     1
  0
DICTIONARY
  5
20A1
102
{ACAD_REACTORS
330
2094
102
}
330
2094
100
AcDbDictionary
281
     1
  3
Model
350
20A9
  3
布局1
350
20A5
  3
布局2
350
2178
  0
DICTIONARY
  5
20CA
102
{ACAD_REACTORS
330
2094
102
}
330
2094
100
AcDbDictionary
281
     1
  3
ByBlock
350
20CC
  3
ByLayer
350
20CB
  3
Global
350
20CD
  0
DICTIONARY
  5
20F2
102
{ACAD_REACTORS
330
2094
102
}
330
2094
100
AcDbDictionary
281
     1
  3
Standard
350
20F3
  0
DICTIONARY
  5
209E
102
{ACAD_REACTORS
330
2094
102
}
330
2094
100
AcDbDictionary
281
     1
  3
Standard
350
209F
  0
DICTIONARY
  5
20A0
102
{ACAD_REACTORS
330
2094
102
}
330
2094
100
AcDbDictionary
281
     1
  0
ACDBDICTIONARYWDFLT
  5
2096
102
{ACAD_REACTORS
330
2094
102
}
330
2094
100
AcDbDictionary
281
     1
  3
Normal
350
2097
100
AcDbDictionaryWithDefault
340
2097
  0
DICTIONARY
  5
20CE
102
{ACAD_REACTORS
330
2094
102
}
330
2094
100
AcDbDictionary
281
     1
  3
A0
350
20CF
  3
A1
350
20D0
  3
A2
350
20D1
  3
A3
350
20D2
  3
A4
350
20D3
  3
A5
350
20D4
  3
A6
350
20D5
  3
A7
350
20D6
  3
A8
350
20D7
  3
A9
350
20D8
  3
B0
350
20D9
  3
B1
350
20DA
  3
B2
350
20DB
  3
B3
350
20DC
  3
B4
350
20DD
  3
B5
350
20DE
  3
B6
350
20DF
  3
B7
350
20E0
  3
B8
350
20E1
  3
B9
350
20E2
  3
C0
350
20E3
  3
C1
350
20E4
  3
C2
350
20E5
  3
C3
350
20E6
  3
C4
350
20E7
  3
C5
350
20E8
  3
C6
350
20E9
  3
C7
350
20EA
  3
C8
350
20EB
  3
C9
350
20EC
  3
D0
350
20ED
  3
D1
350
20EE
  3
D2
350
20EF
  0
DICTIONARY
  5
2189
102
{ACAD_REACTORS
330
2094
102
}
330
2094
100
AcDbDictionary
281
     1
  0
DICTIONARY
  5
20F0
102
{ACAD_REACTORS
330
2094
102
}
330
2094
100
AcDbDictionary
281
     1
  3
Standard
350
20F1
  0
DICTIONARY
  5
20B1
102
{ACAD_REACTORS
330
2094
102
}
330
2094
100
AcDbDictionary
281
     1
  3
2dWireframe
350
20B6
  3
Basic
350
20B9
  3
Brighten
350
20BD
  3
ColorChange
350
20C1
  3
Conceptual
350
20BB
  3
Dim
350
20BC
  3
EdgeColorOff
350
20C4
  3
Facepattern
350
20C0
  3
Flat
350
20B2
  3
FlatWithEdges
350
20B3
  3
Gouraud
350
20B4
  3
GouraudWithEdges
350
20B5
  3
Hidden
350
20B8
  3
JitterOff
350
20C2
  3
Linepattern
350
20BF
  3
OverhangOff
350
20C3
  3
Realistic
350
20BA
  3
Shaded
350
20C9
  3
Shaded with edges
350
20C8
  3
Shades of Gray
350
20C5
  3
Sketchy
350
20C6
  3
Thicken
350
20BE
  3
Wireframe
350
20B7
  3
X-Ray
350
20C7
  0
XRECORD
  5
2185
102
{ACAD_REACTORS
330
2094
102
}
330
2094
100
AcDbXrecord
280
     1
 90
        1
330
20F1
  0
DICTIONARY
  5
2181
102
{ACAD_REACTORS
330
2094
102
}
330
2094
100
AcDbDictionary
281
     1
  3
CANNOSCALE
350
2182
  3
CMLEADERSTYLE
350
2187
  3
CTABLESTYLE
350
2186
  0
DICTIONARY
  5
20F6
102
{ACAD_REACTORS
330
2094
102
}
330
2094
100
AcDbDictionary
281
     1
  3
ColorSettings/BackgroundColor
350
20F8
  3
ColorSettings/ColorMode
350
20F9
  3
Grid/DisplayGrid00
350
20FA
  3
Grid/DisplayGrid01
350
20FB
  3
Grid/DisplayGrid02
350
20FC
  3
Grid/DisplayGrid03
350
20FD
  3
Grid/GridSpacingX00
350
20FE
  3
Grid/GridSpacingX01
350
20FF
  3
Grid/GridSpacingX02
350
2100
  3
Grid/GridSpacingX03
350
2101
  3
Grid/GridSpacingY00
350
2102
  3
Grid/GridSpacingY01
350
2103
  3
Grid/GridSpacingY02
350
2104
  3
Grid/GridSpacingY03
350
2105
  3
Grid/IsometricGrid00
350
2106
  3
Grid/IsometricGrid01
350
2107
  3
Grid/IsometricGrid02
350
2108
  3
Grid/IsometricGrid03
350
2109
  3
Grid/IsometricProjection00
350
210A
  3
Grid/IsometricProjection01
350
210B
  3
Grid/IsometricProjection02
350
210C
  3
Grid/IsometricProjection03
350
210D
  3
Grid/MetaGridSpacingX00
350
210E
  3
Grid/MetaGridSpacingX01
350
210F
  3
Grid/MetaGridSpacingX02
350
2110
  3
Grid/MetaGridSpacingX03
350
2111
  3
Grid/MetaGridSpacingY00
350
2112
  3
Grid/MetaGridSpacingY01
350
2113
  3
Grid/MetaGridSpacingY02
350
2114
  3
Grid/MetaGridSpacingY03
350
2115
  3
MultiPageSettings/Columns
350
2116
  3
MultiPageSettings/GlueMarginsBottom
350
2117
  3
MultiPageSettings/GlueMarginsLeft
350
2118
  3
MultiPageSettings/GlueMarginsRight
350
2119
  3
MultiPageSettings/GlueMarginsTop
350
211A
  3
MultiPageSettings/PrintCropMarks
350
211B
  3
MultiPageSettings/Rows
350
211C
  3
PageSettings/OffsetX
350
211D
  3
PageSettings/OffsetY
350
211E
  3
PageSettings/PageOrientation
350
211F
  3
PageSettings/PaperHeight
350
2120
  3
PageSettings/PaperWidth
350
2121
  3
PageSettings/Scale
350
2122
  3
PageSettings/ShowPaperBorders
350
2123
  3
PageTagSettings/EnablePageTags
350
2124
  3
PageTagSettings/TagAlignment
350
2125
  3
PageTagSettings/TagFont
350
2126
  3
PageTagSettings/TagPosition
350
2127
  3
QCADVersion
350
2128
  3
UnitSettings/PaperUnit
350
2129
  3
ViewportCenter
350
212A
  3
ViewportHeight
350
212B
  3
ViewportWidth
350
212C
  0
LAYOUT
  5
20A9
102
{ACAD_REACTORS
330
20A1
102
}
330
20A1
100
AcDbPlotSettings
  1

  2
none_device
  4
Letter_(8.50_x_11.00_Inches)
  6

 40
6.35
 41
6.35
 42
6.35000508
 43
6.35000508
 44
215.9
 45
279.4
 46
0.0
 47
0.0
 48
0.0
 49
0.0
140
0.0
141
0.0
142
1.0
143
1.0
 70
  1712
 72
     0
 73
     0
 74
     0
  7

 75
     0
 76
     0
 77
     2
 78
   300
147
1.0
148
0.0
149
0.0
100
AcDbLayout
  1
Model
 70
     1
 71
     0
 10
0.0
 20
0.0
 11
420.0
 21
297.0
 12
0.0
 22
0.0
 32
0.0
 14
-116.0
 24
-116.0
 34
0.0
 15
116.0
 25
147.0
 35
0.0
146
0.0
 13
0.0
 23
0.0
 33
0.0
 16
1.0
 26
0.0
 36
0.0
 17
0.0
 27
1.0
 37
0.0
 76
     0
330
20A6
331
20B0
  0
LAYOUT
  5
20A5
102
{ACAD_REACTORS
330
20A1
102
}
330
20A1
100
AcDbPlotSettings
  1

  2
none_device
  4
ISO_A4_(210.00_x_297.00_MM)
  6

 40
7.5
 41
20.0
 42
7.5
 43
20.0
 44
210.0
 45
297.0
 46
0.0
 47
0.0
 48
0.0
 49
0.0
140
0.0
141
0.0
142
1.0
143
1.0
 70
   688
 72
     1
 73
     1
 74
     5
  7

 75
    16
 76
     0
 77
     2
 78
   300
147
1.0
148
0.0
149
0.0
100
AcDbLayout
  1
布局1
 70
     1
 71
     1
 10
-20.0
 20
-7.5
 11
277.0
 21
202.5
 12
0.0
 22
0.0
 32
0.0
 14
0.0
 24
0.0
 34
0.0
 15
0.0
 25
0.0
 35
0.0
146
0.0
 13
0.0
 23
0.0
 33
0.0
 16
1.0
 26
0.0
 36
0.0
 17
0.0
 27
1.0
 37
0.0
 76
     0
330
20A2
331
2175
  0
LAYOUT
  5
2178
102
{ACAD_REACTORS
330
20A1
102
}
330
20A1
100
AcDbPlotSettings
  1

  2
none_device
  4
ISO_A4_(210.00_x_297.00_MM)
  6

 40
7.5
 41
20.0
 42
7.5
 43
20.0
 44
210.0
 45
297.0
 46
0.0
 47
0.0
 48
0.0
 49
0.0
140
0.0
141
0.0
142
1.0
143
1.0
 70
   688
 72
     1
 73
     1
 74
     5
  7

 75
    16
 76
     0
 77
     2
 78
   300
147
1.0
148
0.0
149
0.0
100
AcDbLayout
  1
布局2
 70
     1
 71
     2
 10
0.0
 20
0.0
 11
12.0
 21
9.0
 12
0.0
 22
0.0
 32
0.0
 14
0.0
 24
0.0
 34
0.0
 15
0.0
 25
0.0
 35
0.0
146
0.0
 13
0.0
 23
0.0
 33
0.0
 16
1.0
 26
0.0
 36
0.0
 17
0.0
 27
1.0
 37
0.0
 76
     0
330
2177
331
217B
  0
MATERIAL
  5
20CC
102
{ACAD_REACTORS
330
20CA
102
}
330
20CA
100
AcDbMaterial
  1
ByBlock
 72
     1
 94
      127
  0
MATERIAL
  5
20CB
102
{ACAD_REACTORS
330
20CA
102
}
330
20CA
100
AcDbMaterial
  1
ByLayer
 72
     1
 94
      127
  0
MATERIAL
  5
20CD
102
{ACAD_REACTORS
330
20CA
102
}
330
20CA
100
AcDbMaterial
  1
Global
 72
     1
 94
      127
  0
MLEADERSTYLE
  5
20F3
102
{ACAD_REACTORS
330
20F2
102
}
330
20F2
100
AcDbMLeaderStyle
179
     2
170
     2
171
     1
172
     0
 90
        2
 40
0.0
 41
0.0
173
     1
 91
-1056964608
340
209B
 92
       -2
290
     1
 42
0.09
291
     1
 43
0.36
  3
Standard
341
0
 44
0.18
300

342
2099
174
     1
178
     6
175
     1
176
     0
 93
-1056964608
 45
0.18
292
     0
297
     0
 46
0.18
343
0
 94
-1056964608
 47
1.0
 49
1.0
140
1.0
293
     1
141
0.0
294
     1
177
     0
142
1.0
295
     0
296
     0
143
0.125
271
     0
272
     9
273
     9
298
     0
  0
MLINESTYLE
  5
209F
102
{ACAD_REACTORS
330
209E
102
}
330
209E
100
AcDbMlineStyle
  2
Standard
 70
     0
  3

 62
   256
 51
90.0
 52
90.0
 71
     2
 49
0.5
 62
   256
  6
BYLAYER
 49
-0.5
 62
   256
  6
BYLAYER
  0
ACDBPLACEHOLDER
  5
2097
102
{ACAD_REACTORS
330
2096
102
}
330
2096
  0
SCALE
  5
20CF
102
{ACAD_REACTORS
330
20CE
102
}
330
20CE
100
AcDbScale
 70
     0
300
1:1
140
1.0
141
1.0
290
     1
  0
SCALE
  5
20D0
102
{ACAD_REACTORS
330
20CE
102
}
330
20CE
100
AcDbScale
 70
     0
300
1:2
140
1.0
141
2.0
290
     0
  0
SCALE
  5
20D1
102
{ACAD_REACTORS
330
20CE
102
}
330
20CE
100
AcDbScale
 70
     0
300
1:4
140
1.0
141
4.0
290
     0
  0
SCALE
  5
20D2
102
{ACAD_REACTORS
330
20CE
102
}
330
20CE
100
AcDbScale
 70
     0
300
1:5
140
1.0
141
5.0
290
     0
  0
SCALE
  5
20D3
102
{ACAD_REACTORS
330
20CE
102
}
330
20CE
100
AcDbScale
 70
     0
300
1:8
140
1.0
141
8.0
290
     0
  0
SCALE
  5
20D4
102
{ACAD_REACTORS
330
20CE
102
}
330
20CE
100
AcDbScale
 70
     0
300
1:10
140
1.0
141
10.0
290
     0
  0
SCALE
  5
20D5
102
{ACAD_REACTORS
330
20CE
102
}
330
20CE
100
AcDbScale
 70
     0
300
1:16
140
1.0
141
16.0
290
     0
  0
SCALE
  5
20D6
102
{ACAD_REACTORS
330
20CE
102
}
330
20CE
100
AcDbScale
 70
     0
300
1:20
140
1.0
141
20.0
290
     0
  0
SCALE
  5
20D7
102
{ACAD_REACTORS
330
20CE
102
}
330
20CE
100
AcDbScale
 70
     0
300
1:30
140
1.0
141
30.0
290
     0
  0
SCALE
  5
20D8
102
{ACAD_REACTORS
330
20CE
102
}
330
20CE
100
AcDbScale
 70
     0
300
1:40
140
1.0
141
40.0
290
     0
  0
SCALE
  5
20D9
102
{ACAD_REACTORS
330
20CE
102
}
330
20CE
100
AcDbScale
 70
     0
300
1:50
140
1.0
141
50.0
290
     0
  0
SCALE
  5
20DA
102
{ACAD_REACTORS
330
20CE
102
}
330
20CE
100
AcDbScale
 70
     0
300
1:100
140
1.0
141
100.0
290
     0
  0
SCALE
  5
20DB
102
{ACAD_REACTORS
330
20CE
102
}
330
20CE
100
AcDbScale
 70
     0
300
2:1
140
2.0
141
1.0
290
     0
  0
SCALE
  5
20DC
102
{ACAD_REACTORS
330
20CE
102
}
330
20CE
100
AcDbScale
 70
     0
300
4:1
140
4.0
141
1.0
290
     0
  0
SCALE
  5
20DD
102
{ACAD_REACTORS
330
20CE
102
}
330
20CE
100
AcDbScale
 70
     0
300
8:1
140
8.0
141
1.0
290
     0
  0
SCALE
  5
20DE
102
{ACAD_REACTORS
330
20CE
102
}
330
20CE
100
AcDbScale
 70
     0
300
10:1
140
10.0
141
1.0
290
     0
  0
SCALE
  5
20DF
102
{ACAD_REACTORS
330
20CE
102
}
330
20CE
100
AcDbScale
 70
     0
300
100:1
140
100.0
141
1.0
290
     0
  0
SCALE
  5
20E0
102
{ACAD_REACTORS
330
20CE
102
}
330
20CE
100
AcDbScale
 70
     0
300
1/128" = 1'-0"
140
0.0078125
141
12.0
290
     0
  0
SCALE
  5
20E1
102
{ACAD_REACTORS
330
20CE
102
}
330
20CE
100
AcDbScale
 70
     0
300
1/64" = 1'-0"
140
0.015625
141
12.0
290
     0
  0
SCALE
  5
20E2
102
{ACAD_REACTORS
330
20CE
102
}
330
20CE
100
AcDbScale
 70
     0
300
1/32" = 1'-0"
140
0.03125
141
12.0
290
     0
  0
SCALE
  5
20E3
102
{ACAD_REACTORS
330
20CE
102
}
330
20CE
100
AcDbScale
 70
     0
300
1/16" = 1'-0"
140
0.0625
141
12.0
290
     0
  0
SCALE
  5
20E4
102
{ACAD_REACTORS
330
20CE
102
}
330
20CE
100
AcDbScale
 70
     0
300
3/32" = 1'-0"
140
0.09375
141
12.0
290
     0
  0
SCALE
  5
20E5
102
{ACAD_REACTORS
330
20CE
102
}
330
20CE
100
AcDbScale
 70
     0
300
1/8" = 1'-0"
140
0.125
141
12.0
290
     0
  0
SCALE
  5
20E6
102
{ACAD_REACTORS
330
20CE
102
}
330
20CE
100
AcDbScale
 70
     0
300
3/16" = 1'-0"
140
0.1875
141
12.0
290
     0
  0
SCALE
  5
20E7
102
{ACAD_REACTORS
330
20CE
102
}
330
20CE
100
AcDbScale
 70
     0
300
1/4" = 1'-0"
140
0.25
141
12.0
290
     0
  0
SCALE
  5
20E8
102
{ACAD_REACTORS
330
20CE
102
}
330
20CE
100
AcDbScale
 70
     0
300
3/8" = 1'-0"
140
0.375
141
12.0
290
     0
  0
SCALE
  5
20E9
102
{ACAD_REACTORS
330
20CE
102
}
330
20CE
100
AcDbScale
 70
     0
300
1/2" = 1'-0"
140
0.5
141
12.0
290
     0
  0
SCALE
  5
20EA
102
{ACAD_REACTORS
330
20CE
102
}
330
20CE
100
AcDbScale
 70
     0
300
3/4" = 1'-0"
140
0.75
141
12.0
290
     0
  0
SCALE
  5
20EB
102
{ACAD_REACTORS
330
20CE
102
}
330
20CE
100
AcDbScale
 70
     0
300
1" = 1'-0"
140
1.0
141
12.0
290
     0
  0
SCALE
  5
20EC
102
{ACAD_REACTORS
330
20CE
102
}
330
20CE
100
AcDbScale
 70
     0
300
1-1/2" = 1'-0"
140
1.5
141
12.0
290
     0
  0
SCALE
  5
20ED
102
{ACAD_REACTORS
330
20CE
102
}
330
20CE
100
AcDbScale
 70
     0
300
3" = 1'-0"
140
3.0
141
12.0
290
     0
  0
SCALE
  5
20EE
102
{ACAD_REACTORS
330
20CE
102
}
330
20CE
100
AcDbScale
 70
     0
300
6" = 1'-0"
140
6.0
141
12.0
290
     0
  0
SCALE
  5
20EF
102
{ACAD_REACTORS
330
20CE
102
}
330
20CE
100
AcDbScale
 70
     0
300
1'-0" = 1'-0"
140
12.0
141
12.0
290
     0
  0
TABLESTYLE
  5
20F1
102
{ACAD_REACTORS
330
20F0
102
}
102
{ACAD_XDICTIONARY
360
2183
102
}
330
20F0
100
AcDbTableStyle
  3
Standard
 70
     0
 71
     0
 40
0.06
 41
0.06
280
     0
281
     0
  7
Standard
140
0.18
170
     2
 62
     0
 63
   257
283
     0
 90
        4
 91
        0
  1

274
    -2
284
     1
 64
     0
275
    -2
285
     1
 65
     0
276
    -2
286
     1
 66
     0
277
    -2
287
     1
 67
     0
278
    -2
288
     1
 68
     0
279
    -2
289
     1
 69
     0
  7
Standard
140
0.25
170
     5
 62
     0
 63
   257
283
     0
 90
        4
 91
        0
  1

274
    -2
284
     1
 64
     0
275
    -2
285
     1
 65
     0
276
    -2
286
     1
 66
     0
277
    -2
287
     1
 67
     0
278
    -2
288
     1
 68
     0
279
    -2
289
     1
 69
     0
  7
Standard
140
0.18
170
     5
 62
     0
 63
   257
283
     0
 90
        4
 91
        0
  1

274
    -2
284
     1
 64
     0
275
    -2
285
     1
 65
     0
276
    -2
286
     1
 66
     0
277
    -2
287
     1
 67
     0
278
    -2
288
     1
 68
     0
279
    -2
289
     1
 69
     0
  0
VISUALSTYLE
  5
20B6
102
{ACAD_REACTORS
330
20B1
102
}
330
20B1
100
AcDbVisualStyle
  2
2dWireframe
 70
     4
177
     3
291
     0
 70
    58
 90
        0
176
     1
 90
        2
176
     1
 90
        0
176
     1
 90
        0
176
     1
 40
0.6
176
     1
 40
30.0
176
     1
 62
     7
420
 16777215
176
     1
 90
        1
176
     1
 90
        4
176
     1
 62
     7
176
     1
 62
   257
176
     1
 90
        1
176
     1
 90
        1
176
     1
 40
1.0
176
     1
 90
        0
176
     1
 62
   257
176
     1
 40
1.0
176
     1
 90
        1
176
     1
 90
        6
176
     1
 90
        2
176
     1
 62
     7
176
     1
 90
        5
176
     1
 90
        0
176
     1
 90
        0
176
     1
290
     0
176
     1
 90
        1
176
     1
 40
0.0
176
     1
 90
        0
176
     1
290
     1
176
     1
290
     1
176
     1
290
     0
176
     1
290
     0
176
     1
290
     0
176
     1
290
     0
176
     1
290
     0
176
     1
290
     0
176
     1
290
     0
176
     1
 90
       50
176
     1
 40
0.0
176
     1
 40
1.0
176
     1
 90
        0
176
     1
 62
    18
420
        0
176
     1
 90
       50
176
     1
 90
        3
176
     1
 62
     5
420
      255
176
     1
290
     0
176
     1
 90
       50
176
     1
 90
       50
176
     1
 90
       50
176
     1
290
     0
176
     1
 90
       50
176
     1
 62
   256
176
     0
 40
1.0
176
     0
 90
        2
176
     1
  1
strokes_ogs.tif
176
     1
290
     0
176
     1
 40
1.0
176
     1
 40
1.0
176
     1
  0
VISUALSTYLE
  5
20B9
102
{ACAD_REACTORS
330
20B1
102
}
330
20B1
100
AcDbVisualStyle
  2
Basic
 70
     7
177
     3
291
     1
 70
    58
 90
        1
176
     1
 90
        0
176
     1
 90
        1
176
     1
 90
        0
176
     1
 40
0.6
176
     1
 40
30.0
176
     1
 62
     7
420
 16777215
176
     1
 90
        0
176
     1
 90
        4
176
     1
 62
     7
176
     1
 62
   257
176
     1
 90
        1
176
     1
 90
        1
176
     1
 40
1.0
176
     1
 90
        8
176
     1
 62
     7
176
     1
 40
1.0
176
     1
 90
        1
176
     1
 90
        6
176
     1
 90
        2
176
     1
 62
     7
176
     1
 90
        5
176
     1
 90
        0
176
     1
 90
        0
176
     1
290
     0
176
     1
 90
        1
176
     1
 40
0.0
176
     1
 90
        0
176
     1
290
     0
176
     1
290
     1
176
     1
290
     1
176
     1
290
     0
176
     1
290
     0
176
     1
290
     0
176
     1
290
     0
176
     1
290
     0
176
     1
290
     0
176
     1
 90
       50
176
     1
 40
0.0
176
     1
 40
1.0
176
     1
 90
        0
176
     1
 62
    18
420
        0
176
     1
 90
       50
176
     1
 90
        3
176
     1
 62
     5
420
      255
176
     1
290
     0
176
     1
 90
       50
176
     1
 90
       50
176
     1
 90
       50
176
     1
290
     0
176
     1
 90
       50
176
     1
 62
   256
176
     0
 40
1.0
176
     0
 90
        2
176
     1
  1
strokes_ogs.tif
176
     1
290
     0
176
     1
 40
1.0
176
     1
 40
1.0
176
     1
  0
VISUALSTYLE
  5
20BD
102
{ACAD_REACTORS
330
20B1
102
}
330
20B1
100
AcDbVisualStyle
  2
Brighten
 70
    12
177
     3
291
     1
 70
    58
 90
        2
176
     1
 90
        2
176
     1
 90
        0
176
     1
 90
        0
176
     1
 40
0.6
176
     1
 40
30.0
176
     1
 62
     7
420
 16777215
176
     1
 90
        1
176
     1
 90
        4
176
     1
 62
     7
176
     1
 62
   257
176
     1
 90
        1
176
     1
 90
        1
176
     1
 40
1.0
176
     1
 90
        8
176
     1
 62
     7
176
     1
 40
1.0
176
     1
 90
        1
176
     1
 90
        6
176
     1
 90
        2
176
     1
 62
     7
176
     1
 90
        5
176
     1
 90
        0
176
     1
 90
        0
176
     1
290
     0
176
     1
 90
        1
176
     1
 40
50.0
176
     1
 90
        0
176
     1
290
     0
176
     1
290
     1
176
     1
290
     1
176
     1
290
     0
176
     1
290
     0
176
     1
290
     0
176
     1
290
     0
176
     1
290
     0
176
     1
290
     0
176
     1
 90
       50
176
     1
 40
0.0
176
     1
 40
1.0
176
     1
 90
        0
176
     1
 62
    18
420
        0
176
     1
 90
       50
176
     1
 90
        3
176
     1
 62
     5
420
      255
176
     1
290
     0
176
     1
 90
       50
176
     1
 90
       50
176
     1
 90
       50
176
     1
290
     0
176
     1
 90
       50
176
     1
 62
   256
176
     0
 40
1.0
176
     0
 90
        2
176
     1
  1
strokes_ogs.tif
176
     1
290
     0
176
     1
 40
1.0
176
     1
 40
1.0
176
     1
  0
VISUALSTYLE
  5
20C1
102
{ACAD_REACTORS
330
20B1
102
}
330
20B1
100
AcDbVisualStyle
  2
ColorChange
 70
    16
177
     3
291
     1
 70
    58
 90
        2
176
     1
 90
        2
176
     1
 90
        3
176
     1
 90
        0
176
     1
 40
0.6
176
     1
 40
30.0
176
     1
 62
     8
420
  8421504
176
     1
 90
        1
176
     1
 90
        4
176
     1
 62
     7
176
     1
 62
   257
176
     1
 90
        1
176
     1
 90
        1
176
     1
 40
1.0
176
     1
 90
        8
176
     1
 62
     8
420
  8421504
176
     1
 40
1.0
176
     1
 90
        1
176
     1
 90
        6
176
     1
 90
        2
176
     1
 62
     7
176
     1
 90
        5
176
     1
 90
        0
176
     1
 90
        0
176
     1
290
     0
176
     1
 90
        1
176
     1
 40
0.0
176
     1
 90
        0
176
     1
290
     0
176
     1
290
     1
176
     1
290
     1
176
     1
290
     0
176
     1
290
     0
176
     1
290
     0
176
     1
290
     0
176
     1
290
     0
176
     1
290
     0
176
     1
 90
       50
176
     1
 40
0.0
176
     1
 40
1.0
176
     1
 90
        0
176
     1
 62
    18
420
        0
176
     1
 90
       50
176
     1
 90
        3
176
     1
 62
     5
420
      255
176
     1
290
     0
176
     1
 90
       50
176
     1
 90
       50
176
     1
 90
       50
176
     1
290
     0
176
     1
 90
       50
176
     1
 62
   256
176
     0
 40
1.0
176
     0
 90
        2
176
     1
  1
strokes_ogs.tif
176
     1
290
     0
176
     1
 40
1.0
176
     1
 40
1.0
176
     1
  0
VISUALSTYLE
  5
20BB
102
{ACAD_REACTORS
330
20B1
102
}
330
20B1
100
AcDbVisualStyle
  2
Conceptual
 70
     9
177
     3
291
     0
 70
    58
 90
        3
176
     1
 90
        2
176
     1
 90
        0
176
     1
 90
        0
176
     1
 40
0.6
176
     1
 40
30.0
176
     1
 62
     7
420
 16777215
176
     1
 90
        2
176
     1
 90
        2
176
     1
 62
     7
176
     1
 62
   257
176
     1
 90
        1
176
     1
 90
        1
176
     1
 40
179.0
176
     1
 90
        8
176
     1
 62
     7
176
     1
 40
1.0
176
     1
 90
        1
176
     1
 90
        6
176
     1
 90
        2
176
     1
 62
     7
176
     1
 90
        3
176
     1
 90
        0
176
     1
 90
        0
176
     1
290
     0
176
     1
 90
        1
176
     1
 40
0.0
176
     1
 90
        0
176
     1
290
     0
176
     1
290
     1
176
     1
290
     1
176
     1
290
     0
176
     1
290
     0
176
     1
290
     0
176
     1
290
     0
176
     1
290
     0
176
     1
290
     0
176
     1
 90
       50
176
     1
 40
0.0
176
     1
 40
1.0
176
     1
 90
        0
176
     1
 62
    18
420
        0
176
     1
 90
       50
176
     1
 90
        3
176
     1
 62
     5
420
      255
176
     1
290
     0
176
     1
 90
       50
176
     1
 90
       50
176
     1
 90
       50
176
     1
290
     0
176
     1
 90
       50
176
     1
 62
   256
176
     0
 40
1.0
176
     0
 90
        2
176
     1
  1
strokes_ogs.tif
176
     1
290
     0
176
     1
 40
1.0
176
     1
 40
1.0
176
     1
  0
VISUALSTYLE
  5
20BC
102
{ACAD_REACTORS
330
20B1
102
}
330
20B1
100
AcDbVisualStyle
  2
Dim
 70
    11
177
     3
291
     1
 70
    58
 90
        2
176
     1
 90
        2
176
     1
 90
        0
176
     1
 90
        0
176
     1
 40
0.6
176
     1
 40
30.0
176
     1
 62
     7
420
 16777215
176
     1
 90
        1
176
     1
 90
        4
176
     1
 62
     7
176
     1
 62
   257
176
     1
 90
        1
176
     1
 90
        1
176
     1
 40
1.0
176
     1
 90
        8
176
     1
 62
     7
176
     1
 40
1.0
176
     1
 90
        1
176
     1
 90
        6
176
     1
 90
        2
176
     1
 62
     7
176
     1
 90
        5
176
     1
 90
        0
176
     1
 90
        0
176
     1
290
     0
176
     1
 90
        1
176
     1
 40
-50.0
176
     1
 90
        0
176
     1
290
     0
176
     1
290
     1
176
     1
290
     1
176
     1
290
     0
176
     1
290
     0
176
     1
290
     0
176
     1
290
     0
176
     1
290
     0
176
     1
290
     0
176
     1
 90
       50
176
     1
 40
0.0
176
     1
 40
1.0
176
     1
 90
        0
176
     1
 62
    18
420
        0
176
     1
 90
       50
176
     1
 90
        3
176
     1
 62
     5
420
      255
176
     1
290
     0
176
     1
 90
       50
176
     1
 90
       50
176
     1
 90
       50
176
     1
290
     0
176
     1
 90
       50
176
     1
 62
   256
176
     0
 40
1.0
176
     0
 90
        2
176
     1
  1
strokes_ogs.tif
176
     1
290
     0
176
     1
 40
1.0
176
     1
 40
1.0
176
     1
  0
VISUALSTYLE
  5
20C4
102
{ACAD_REACTORS
330
20B1
102
}
330
20B1
100
AcDbVisualStyle
  2
EdgeColorOff
 70
    22
177
     3
291
     1
 70
    58
 90
        2
176
     0
 90
        2
176
     0
 90
        0
176
     0
 90
        0
176
     0
 40
0.6
176
     0
 40
30.0
176
     0
 62
     7
420
 16777215
176
     0
 90
        1
176
     0
 90
        4
176
     0
 62
     7
176
     0
 62
   257
176
     0
 90
        1
176
     0
 90
        1
176
     0
 40
1.0
176
     0
 90
        8
176
     2
 62
     7
176
     0
 40
1.0
176
     0
 90
        1
176
     0
 90
        6
176
     0
 90
        2
176
     0
 62
     7
176
     0
 90
        5
176
     0
 90
        0
176
     0
 90
        0
176
     0
290
     0
176
     0
 90
        1
176
     0
 40
0.0
176
     0
 90
        0
176
     0
290
     0
176
     0
290
     1
176
     0
290
     1
176
     0
290
     0
176
     0
290
     0
176
     0
290
     0
176
     0
290
     0
176
     0
290
     0
176
     0
290
     0
176
     0
 90
       50
176
     0
 40
0.0
176
     0
 40
1.0
176
     0
 90
        0
176
     0
 62
    18
420
        0
176
     0
 90
       50
176
     0
 90
        3
176
     0
 62
     5
420
      255
176
     0
290
     0
176
     0
 90
       50
176
     0
 90
       50
176
     0
 90
       50
176
     0
290
     0
176
     0
 90
       50
176
     0
 62
   256
176
     0
 40
1.0
176
     0
 90
        2
176
     0
  1
strokes_ogs.tif
176
     0
290
     0
176
     0
 40
1.0
176
     0
 40
1.0
176
     0
  0
VISUALSTYLE
  5
20C0
102
{ACAD_REACTORS
330
20B1
102
}
330
20B1
100
AcDbVisualStyle
  2
Facepattern
 70
    15
177
     3
291
     1
 70
    58
 90
        2
176
     1
 90
        2
176
     1
 90
        0
176
     1
 90
        0
176
     1
 40
0.6
176
     1
 40
30.0
176
     1
 62
     7
420
 16777215
176
     1
 90
        1
176
     1
 90
        4
176
     1
 62
     7
176
     1
 62
   257
176
     1
 90
        1
176
     1
 90
        1
176
     1
 40
1.0
176
     1
 90
        8
176
     1
 62
     7
176
     1
 40
1.0
176
     1
 90
        1
176
     1
 90
        6
176
     1
 90
        2
176
     1
 62
     7
176
     1
 90
        5
176
     1
 90
        0
176
     1
 90
        0
176
     1
290
     0
176
     1
 90
        1
176
     1
 40
0.0
176
     1
 90
        0
176
     1
290
     0
176
     1
290
     1
176
     1
290
     1
176
     1
290
     0
176
     1
290
     0
176
     1
290
     0
176
     1
290
     0
176
     1
290
     0
176
     1
290
     0
176
     1
 90
       50
176
     1
 40
0.0
176
     1
 40
1.0
176
     1
 90
        0
176
     1
 62
    18
420
        0
176
     1
 90
       50
176
     1
 90
        3
176
     1
 62
     5
420
      255
176
     1
290
     0
176
     1
 90
       50
176
     1
 90
       50
176
     1
 90
       50
176
     1
290
     0
176
     1
 90
       50
176
     1
 62
   256
176
     0
 40
1.0
176
     0
 90
        2
176
     1
  1
strokes_ogs.tif
176
     1
290
     0
176
     1
 40
1.0
176
     1
 40
1.0
176
     1
  0
VISUALSTYLE
  5
20B2
102
{ACAD_REACTORS
330
20B1
102
}
330
20B1
100
AcDbVisualStyle
  2
Flat
 70
     0
177
     3
291
     1
 70
    58
 90
        2
176
     1
 90
        1
176
     1
 90
        1
176
     1
 90
        2
176
     1
 40
0.6
176
     1
 40
30.0
176
     1
 62
     7
420
 16777215
176
     1
 90
        0
176
     1
 90
        0
176
     1
 62
     7
176
     1
 62
   257
176
     1
 90
        1
176
     1
 90
        1
176
     1
 40
1.0
176
     1
 90
        8
176
     1
 62
     7
176
     1
 40
1.0
176
     1
 90
        1
176
     1
 90
        6
176
     1
 90
        2
176
     1
 62
     7
176
     1
 90
        5
176
     1
 90
        0
176
     1
 90
        0
176
     1
290
     0
176
     1
 90
       13
176
     1
 40
0.0
176
     1
 90
        0
176
     1
290
     0
176
     1
290
     1
176
     1
290
     1
176
     1
290
     0
176
     1
290
     0
176
     1
290
     0
176
     1
290
     0
176
     1
290
     0
176
     1
290
     0
176
     1
 90
       50
176
     1
 40
0.0
176
     1
 40
1.0
176
     1
 90
        0
176
     1
 62
    18
420
        0
176
     1
 90
       50
176
     1
 90
        3
176
     1
 62
     5
420
      255
176
     1
290
     0
176
     1
 90
       50
176
     1
 90
       50
176
     1
 90
       50
176
     1
290
     0
176
     1
 90
       50
176
     1
 62
   256
176
     0
 40
1.0
176
     0
 90
        2
176
     1
  1
strokes_ogs.tif
176
     1
290
     0
176
     1
 40
1.0
176
     1
 40
1.0
176
     1
  0
VISUALSTYLE
  5
20B3
102
{ACAD_REACTORS
330
20B1
102
}
330
20B1
100
AcDbVisualStyle
  2
FlatWithEdges
 70
     1
177
     3
291
     1
 70
    58
 90
        2
176
     1
 90
        1
176
     1
 90
        1
176
     1
 90
        2
176
     1
 40
0.6
176
     1
 40
30.0
176
     1
 62
     7
420
 16777215
176
     1
 90
        1
176
     1
 90
        0
176
     1
 62
     7
176
     1
 62
   257
176
     1
 90
        1
176
     1
 90
        1
176
     1
 40
1.0
176
     1
 90
        0
176
     1
 62
   257
176
     1
 40
1.0
176
     1
 90
        1
176
     1
 90
        6
176
     1
 90
        2
176
     1
 62
     7
176
     1
 90
        5
176
     1
 90
        0
176
     1
 90
        0
176
     1
290
     0
176
     1
 90
       13
176
     1
 40
0.0
176
     1
 90
        0
176
     1
290
     0
176
     1
290
     1
176
     1
290
     1
176
     1
290
     0
176
     1
290
     0
176
     1
290
     0
176
     1
290
     0
176
     1
290
     0
176
     1
290
     0
176
     1
 90
       50
176
     1
 40
0.0
176
     1
 40
1.0
176
     1
 90
        0
176
     1
 62
    18
420
        0
176
     1
 90
       50
176
     1
 90
        3
176
     1
 62
     5
420
      255
176
     1
290
     0
176
     1
 90
       50
176
     1
 90
       50
176
     1
 90
       50
176
     1
290
     0
176
     1
 90
       50
176
     1
 62
   256
176
     0
 40
1.0
176
     0
 90
        2
176
     1
  1
strokes_ogs.tif
176
     1
290
     0
176
     1
 40
1.0
176
     1
 40
1.0
176
     1
  0
VISUALSTYLE
  5
20B4
102
{ACAD_REACTORS
330
20B1
102
}
330
20B1
100
AcDbVisualStyle
  2
Gouraud
 70
     2
177
     3
291
     1
 70
    58
 90
        2
176
     1
 90
        2
176
     1
 90
        1
176
     1
 90
        2
176
     1
 40
0.6
176
     1
 40
30.0
176
     1
 62
     7
420
 16777215
176
     1
 90
        0
176
     1
 90
        0
176
     1
 62
     7
176
     1
 62
   257
176
     1
 90
        1
176
     1
 90
        1
176
     1
 40
1.0
176
     1
 90
        0
176
     1
 62
     7
176
     1
 40
1.0
176
     1
 90
        1
176
     1
 90
        6
176
     1
 90
        2
176
     1
 62
     7
176
     1
 90
        5
176
     1
 90
        0
176
     1
 90
        0
176
     1
290
     0
176
     1
 90
       13
176
     1
 40
0.0
176
     1
 90
        0
176
     1
290
     0
176
     1
290
     1
176
     1
290
     1
176
     1
290
     0
176
     1
290
     0
176
     1
290
     0
176
     1
290
     0
176
     1
290
     0
176
     1
290
     0
176
     1
 90
       50
176
     1
 40
0.0
176
     1
 40
1.0
176
     1
 90
        0
176
     1
 62
    18
420
        0
176
     1
 90
       50
176
     1
 90
        3
176
     1
 62
     5
420
      255
176
     1
290
     0
176
     1
 90
       50
176
     1
 90
       50
176
     1
 90
       50
176
     1
290
     0
176
     1
 90
       50
176
     1
 62
   256
176
     0
 40
1.0
176
     0
 90
        2
176
     1
  1
strokes_ogs.tif
176
     1
290
     0
176
     1
 40
1.0
176
     1
 40
1.0
176
     1
  0
VISUALSTYLE
  5
20B5
102
{ACAD_REACTORS
330
20B1
102
}
330
20B1
100
AcDbVisualStyle
  2
GouraudWithEdges
 70
     3
177
     3
291
     1
 70
    58
 90
        2
176
     1
 90
        2
176
     1
 90
        1
176
     1
 90
        2
176
     1
 40
0.6
176
     1
 40
30.0
176
     1
 62
     7
420
 16777215
176
     1
 90
        1
176
     1
 90
        0
176
     1
 62
     7
176
     1
 62
   257
176
     1
 90
        1
176
     1
 90
        1
176
     1
 40
1.0
176
     1
 90
        0
176
     1
 62
   257
176
     1
 40
1.0
176
     1
 90
        1
176
     1
 90
        6
176
     1
 90
        2
176
     1
 62
     7
176
     1
 90
        5
176
     1
 90
        0
176
     1
 90
        0
176
     1
290
     0
176
     1
 90
       13
176
     1
 40
0.0
176
     1
 90
        0
176
     1
290
     0
176
     1
290
     1
176
     1
290
     1
176
     1
290
     0
176
     1
290
     0
176
     1
290
     0
176
     1
290
     0
176
     1
290
     0
176
     1
290
     0
176
     1
 90
       50
176
     1
 40
0.0
176
     1
 40
1.0
176
     1
 90
        0
176
     1
 62
    18
420
        0
176
     1
 90
       50
176
     1
 90
        3
176
     1
 62
     5
420
      255
176
     1
290
     0
176
     1
 90
       50
176
     1
 90
       50
176
     1
 90
       50
176
     1
290
     0
176
     1
 90
       50
176
     1
 62
   256
176
     0
 40
1.0
176
     0
 90
        2
176
     1
  1
strokes_ogs.tif
176
     1
290
     0
176
     1
 40
1.0
176
     1
 40
1.0
176
     1
  0
VISUALSTYLE
  5
20B8
102
{ACAD_REACTORS
330
20B1
102
}
330
20B1
100
AcDbVisualStyle
  2
Hidden
 70
     6
177
     3
291
     0
 70
    58
 90
        1
176
     1
 90
        2
176
     1
 90
        2
176
     1
 90
        0
176
     1
 40
0.6
176
     1
 40
30.0
176
     1
 62
     7
420
 16777215
176
     1
 90
        2
176
     1
 90
        2
176
     1
 62
     7
176
     1
 62
   257
176
     1
 90
        2
176
     1
 90
        1
176
     1
 40
40.0
176
     1
 90
        0
176
     1
 62
   257
176
     1
 40
1.0
176
     1
 90
        1
176
     1
 90
        6
176
     1
 90
        2
176
     1
 62
     7
176
     1
 90
        3
176
     1
 90
        0
176
     1
 90
        0
176
     1
290
     0
176
     1
 90
        1
176
     1
 40
0.0
176
     1
 90
        0
176
     1
290
     0
176
     1
290
     1
176
     1
290
     1
176
     1
290
     0
176
     1
290
     0
176
     1
290
     0
176
     1
290
     0
176
     1
290
     0
176
     1
290
     0
176
     1
 90
       50
176
     1
 40
0.0
176
     1
 40
1.0
176
     1
 90
        0
176
     1
 62
    18
420
        0
176
     1
 90
       50
176
     1
 90
        3
176
     1
 62
     5
420
      255
176
     1
290
     0
176
     1
 90
       50
176
     1
 90
       50
176
     1
 90
       50
176
     1
290
     0
176
     1
 90
       50
176
     1
 62
   256
176
     0
 40
1.0
176
     0
 90
        2
176
     1
  1
strokes_ogs.tif
176
     1
290
     0
176
     1
 40
1.0
176
     1
 40
1.0
176
     1
  0
VISUALSTYLE
  5
20C2
102
{ACAD_REACTORS
330
20B1
102
}
330
20B1
100
AcDbVisualStyle
  2
JitterOff
 70
    20
177
     3
291
     1
 70
    58
 90
        2
176
     0
 90
        2
176
     0
 90
        0
176
     0
 90
        0
176
     0
 40
0.6
176
     0
 40
30.0
176
     0
 62
     7
420
 16777215
176
     0
 90
        1
176
     0
 90
        4
176
     0
 62
     7
176
     0
 62
   257
176
     0
 90
        1
176
     0
 90
        1
176
     0
 40
1.0
176
     0
 90
       10
176
     2
 62
     7
176
     0
 40
1.0
176
     0
 90
        1
176
     0
 90
        6
176
     0
 90
        2
176
     0
 62
     7
176
     0
 90
        5
176
     0
 90
        0
176
     0
 90
        0
176
     0
290
     0
176
     0
 90
        1
176
     0
 40
0.0
176
     0
 90
        0
176
     0
290
     0
176
     0
290
     1
176
     0
290
     1
176
     0
290
     0
176
     0
290
     0
176
     0
290
     0
176
     0
290
     0
176
     0
290
     0
176
     0
290
     0
176
     0
 90
       50
176
     0
 40
0.0
176
     0
 40
1.0
176
     0
 90
        0
176
     0
 62
    18
420
        0
176
     0
 90
       50
176
     0
 90
        3
176
     0
 62
     5
420
      255
176
     0
290
     0
176
     0
 90
       50
176
     0
 90
       50
176
     0
 90
       50
176
     0
290
     0
176
     0
 90
       50
176
     0
 62
   256
176
     0
 40
1.0
176
     0
 90
        2
176
     0
  1
strokes_ogs.tif
176
     0
290
     0
176
     0
 40
1.0
176
     0
 40
1.0
176
     0
  0
VISUALSTYLE
  5
20BF
102
{ACAD_REACTORS
330
20B1
102
}
330
20B1
100
AcDbVisualStyle
  2
Linepattern
 70
    14
177
     3
291
     1
 70
    58
 90
        2
176
     1
 90
        2
176
     1
 90
        0
176
     1
 90
        0
176
     1
 40
0.6
176
     1
 40
30.0
176
     1
 62
     7
420
 16777215
176
     1
 90
        1
176
     1
 90
        4
176
     1
 62
     7
176
     1
 62
   257
176
     1
 90
        7
176
     1
 90
        7
176
     1
 40
1.0
176
     1
 90
        8
176
     1
 62
     7
176
     1
 40
1.0
176
     1
 90
        1
176
     1
 90
        6
176
     1
 90
        2
176
     1
 62
     7
176
     1
 90
        5
176
     1
 90
        0
176
     1
 90
        0
176
     1
290
     0
176
     1
 90
        1
176
     1
 40
0.0
176
     1
 90
        0
176
     1
290
     0
176
     1
290
     1
176
     1
290
     1
176
     1
290
     0
176
     1
290
     0
176
     1
290
     0
176
     1
290
     0
176
     1
290
     0
176
     1
290
     0
176
     1
 90
       50
176
     1
 40
0.0
176
     1
 40
1.0
176
     1
 90
        0
176
     1
 62
    18
420
        0
176
     1
 90
       50
176
     1
 90
        3
176
     1
 62
     5
420
      255
176
     1
290
     0
176
     1
 90
       50
176
     1
 90
       50
176
     1
 90
       50
176
     1
290
     0
176
     1
 90
       50
176
     1
 62
   256
176
     0
 40
1.0
176
     0
 90
        2
176
     1
  1
strokes_ogs.tif
176
     1
290
     0
176
     1
 40
1.0
176
     1
 40
1.0
176
     1
  0
VISUALSTYLE
  5
20C3
102
{ACAD_REACTORS
330
20B1
102
}
330
20B1
100
AcDbVisualStyle
  2
OverhangOff
 70
    21
177
     3
291
     1
 70
    58
 90
        2
176
     0
 90
        2
176
     0
 90
        0
176
     0
 90
        0
176
     0
 40
0.6
176
     0
 40
30.0
176
     0
 62
     7
420
 16777215
176
     0
 90
        1
176
     0
 90
        4
176
     0
 62
     7
176
     0
 62
   257
176
     0
 90
        1
176
     0
 90
        1
176
     0
 40
1.0
176
     0
 90
        9
176
     2
 62
     7
176
     0
 40
1.0
176
     0
 90
        1
176
     0
 90
        6
176
     0
 90
        2
176
     0
 62
     7
176
     0
 90
        5
176
     0
 90
        0
176
     0
 90
        0
176
     0
290
     0
176
     0
 90
        1
176
     0
 40
0.0
176
     0
 90
        0
176
     0
290
     0
176
     0
290
     1
176
     0
290
     1
176
     0
290
     0
176
     0
290
     0
176
     0
290
     0
176
     0
290
     0
176
     0
290
     0
176
     0
290
     0
176
     0
 90
       50
176
     0
 40
0.0
176
     0
 40
1.0
176
     0
 90
        0
176
     0
 62
    18
420
        0
176
     0
 90
       50
176
     0
 90
        3
176
     0
 62
     5
420
      255
176
     0
290
     0
176
     0
 90
       50
176
     0
 90
       50
176
     0
 90
       50
176
     0
290
     0
176
     0
 90
       50
176
     0
 62
   256
176
     0
 40
1.0
176
     0
 90
        2
176
     0
  1
strokes_ogs.tif
176
     0
290
     0
176
     0
 40
1.0
176
     0
 40
1.0
176
     0
  0
VISUALSTYLE
  5
20BA
102
{ACAD_REACTORS
330
20B1
102
}
330
20B1
100
AcDbVisualStyle
  2
Realistic
 70
     8
177
     3
291
     0
 70
    58
 90
        2
176
     1
 90
        3
176
     1
 90
        0
176
     1
 90
        2
176
     1
 40
0.6
176
     1
 40
30.0
176
     1
 62
     7
420
 16777215
176
     1
 90
        0
176
     1
 90
        0
176
     1
 62
     7
176
     1
 62
   257
176
     1
 90
        1
176
     1
 90
        1
176
     1
 40
1.0
176
     1
 90
        8
176
     1
 62
   257
176
     1
 40
1.0
176
     1
 90
        1
176
     1
 90
        6
176
     1
 90
        2
176
     1
 62
     7
176
     1
 90
        3
176
     1
 90
        0
176
     1
 90
        0
176
     1
290
     0
176
     1
 90
       13
176
     1
 40
0.0
176
     1
 90
        0
176
     1
290
     0
176
     1
290
     1
176
     1
290
     1
176
     1
290
     0
176
     1
290
     0
176
     1
290
     0
176
     1
290
     0
176
     1
290
     0
176
     1
290
     0
176
     1
 90
       50
176
     1
 40
0.0
176
     1
 40
1.0
176
     1
 90
        0
176
     1
 62
    18
420
        0
176
     1
 90
       50
176
     1
 90
        3
176
     1
 62
     5
420
      255
176
     1
290
     0
176
     1
 90
       50
176
     1
 90
       50
176
     1
 90
       50
176
     1
290
     0
176
     1
 90
       50
176
     1
 62
   256
176
     0
 40
1.0
176
     0
 90
        2
176
     1
  1
strokes_ogs.tif
176
     1
290
     0
176
     1
 40
1.0
176
     1
 40
1.0
176
     1
  0
VISUALSTYLE
  5
20C9
102
{ACAD_REACTORS
330
20B1
102
}
330
20B1
100
AcDbVisualStyle
  2
Shaded
 70
    27
177
     3
291
     0
 70
    58
 90
        2
176
     1
 90
        2
176
     1
 90
        1
176
     1
 90
        2
176
     1
 40
0.6
176
     1
 40
30.0
176
     1
 62
     7
420
 16777215
176
     1
 90
        0
176
     1
 90
        4
176
     1
 62
     7
176
     1
 62
   257
176
     1
 90
        1
176
     1
 90
        1
176
     1
 40
1.0
176
     1
 90
        8
176
     1
 62
   257
176
     1
 40
1.0
176
     1
 90
        1
176
     1
 90
        6
176
     1
 90
        2
176
     1
 62
     8
420
  7895160
176
     1
 90
        3
176
     1
 90
        0
176
     1
 90
        0
176
     1
290
     0
176
     1
 90
        5
176
     1
 40
0.0
176
     1
 90
        0
176
     1
290
     0
176
     1
290
     1
176
     1
290
     1
176
     1
290
     0
176
     1
290
     0
176
     1
290
     0
176
     1
290
     0
176
     1
290
     0
176
     1
290
     0
176
     1
 90
       50
176
     1
 40
0.0
176
     1
 40
1.0
176
     1
 90
        0
176
     1
 62
    18
420
        0
176
     1
 90
       50
176
     1
 90
        3
176
     1
 62
     5
420
      255
176
     1
290
     0
176
     1
 90
       50
176
     1
 90
       50
176
     1
 90
       50
176
     1
290
     0
176
     1
 90
       50
176
     1
 62
   256
176
     0
 40
1.0
176
     0
 90
        2
176
     1
  1
strokes_ogs.tif
176
     1
290
     0
176
     1
 40
1.0
176
     1
 40
1.0
176
     1
  0
VISUALSTYLE
  5
20C8
102
{ACAD_REACTORS
330
20B1
102
}
330
20B1
100
AcDbVisualStyle
  2
Shaded with edges
 70
    26
177
     3
291
     0
 70
    58
 90
        2
176
     1
 90
        2
176
     1
 90
        1
176
     1
 90
        2
176
     1
 40
0.6
176
     1
 40
30.0
176
     1
 62
     7
420
 16777215
176
     1
 90
        1
176
     1
 90
       10
176
     1
 62
     7
176
     1
 62
   257
176
     1
 90
        2
176
     1
 90
        1
176
     1
 40
1.0
176
     1
 90
        8
176
     1
 62
   257
176
     1
 40
1.0
176
     1
 90
        1
176
     1
 90
        6
176
     1
 90
        2
176
     1
 62
     7
176
     1
 90
        3
176
     1
 90
        0
176
     1
 90
        0
176
     1
290
     0
176
     1
 90
        5
176
     1
 40
0.0
176
     1
 90
        0
176
     1
290
     0
176
     1
290
     1
176
     1
290
     1
176
     1
290
     0
176
     1
290
     0
176
     1
290
     0
176
     1
290
     0
176
     1
290
     0
176
     1
290
     0
176
     1
 90
       50
176
     1
 40
0.0
176
     1
 40
1.0
176
     1
 90
        0
176
     1
 62
    18
420
        0
176
     1
 90
       50
176
     1
 90
        3
176
     1
 62
     5
420
      255
176
     1
290
     0
176
     1
 90
       50
176
     1
 90
       50
176
     1
 90
       50
176
     1
290
     0
176
     1
 90
       50
176
     1
 62
   256
176
     0
 40
1.0
176
     0
 90
        2
176
     1
  1
strokes_ogs.tif
176
     1
290
     0
176
     1
 40
1.0
176
     1
 40
1.0
176
     1
  0
VISUALSTYLE
  5
20C5
102
{ACAD_REACTORS
330
20B1
102
}
330
20B1
100
AcDbVisualStyle
  2
Shades of Gray
 70
    23
177
     3
291
     0
 70
    58
 90
        2
176
     1
 90
        2
176
     1
 90
        3
176
     1
 90
        0
176
     1
 40
0.6
176
     1
 40
30.0
176
     1
 62
     7
420
 16777215
176
     1
 90
        2
176
     1
 90
        2
176
     1
 62
     7
176
     1
 62
     7
176
     1
 90
        1
176
     1
 90
        1
176
     1
 40
40.0
176
     1
 90
        8
176
     1
 62
     7
176
     1
 40
1.0
176
     1
 90
        1
176
     1
 90
        6
176
     1
 90
        2
176
     1
 62
     7
176
     1
 90
        3
176
     1
 90
        0
176
     1
 90
        0
176
     1
290
     0
176
     1
 90
        1
176
     1
 40
0.0
176
     1
 90
        0
176
     1
290
     0
176
     1
290
     1
176
     1
290
     1
176
     1
290
     0
176
     1
290
     0
176
     1
290
     0
176
     1
290
     0
176
     1
290
     0
176
     1
290
     0
176
     1
 90
       50
176
     1
 40
0.0
176
     1
 40
1.0
176
     1
 90
        0
176
     1
 62
    18
420
        0
176
     1
 90
       50
176
     1
 90
        3
176
     1
 62
     5
420
      255
176
     1
290
     0
176
     1
 90
       50
176
     1
 90
       50
176
     1
 90
       50
176
     1
290
     0
176
     1
 90
       50
176
     1
 62
   256
176
     0
 40
1.0
176
     0
 90
        2
176
     1
  1
strokes_ogs.tif
176
     1
290
     0
176
     1
 40
1.0
176
     1
 40
1.0
176
     1
  0
VISUALSTYLE
  5
20C6
102
{ACAD_REACTORS
330
20B1
102
}
330
20B1
100
AcDbVisualStyle
  2
Sketchy
 70
    24
177
     3
291
     0
 70
    58
 90
        1
176
     1
 90
        2
176
     1
 90
        2
176
     1
 90
        0
176
     1
 40
0.6
176
     1
 40
30.0
176
     1
 62
     7
420
 16777215
176
     1
 90
        2
176
     1
 90
        2
176
     1
 62
     7
176
     1
 62
     7
176
     1
 90
        1
176
     1
 90
        1
176
     1
 40
40.0
176
     1
 90
       11
176
     1
 62
     7
176
     1
 40
1.0
176
     1
 90
        1
176
     1
 90
        6
176
     1
 90
        2
176
     1
 62
     7
176
     1
 90
        6
176
     1
 90
        0
176
     1
 90
        0
176
     1
290
     0
176
     1
 90
        1
176
     1
 40
0.0
176
     1
 90
        0
176
     1
290
     0
176
     1
290
     1
176
     1
290
     1
176
     1
290
     0
176
     1
290
     0
176
     1
290
     0
176
     1
290
     0
176
     1
290
     0
176
     1
290
     0
176
     1
 90
       50
176
     1
 40
0.0
176
     1
 40
1.0
176
     1
 90
        0
176
     1
 62
    18
420
        0
176
     1
 90
       50
176
     1
 90
        3
176
     1
 62
     5
420
      255
176
     1
290
     0
176
     1
 90
       50
176
     1
 90
       50
176
     1
 90
       50
176
     1
290
     0
176
     1
 90
       50
176
     1
 62
   256
176
     0
 40
1.0
176
     0
 90
        2
176
     1
  1
strokes_ogs.tif
176
     1
290
     0
176
     1
 40
1.0
176
     1
 40
1.0
176
     1
  0
VISUALSTYLE
  5
20BE
102
{ACAD_REACTORS
330
20B1
102
}
330
20B1
100
AcDbVisualStyle
  2
Thicken
 70
    13
177
     3
291
     1
 70
    58
 90
        2
176
     1
 90
        2
176
     1
 90
        0
176
     1
 90
        0
176
     1
 40
0.6
176
     1
 40
30.0
176
     1
 62
     7
420
 16777215
176
     1
 90
        1
176
     1
 90
        4
176
     1
 62
     7
176
     1
 62
   257
176
     1
 90
        1
176
     1
 90
        1
176
     1
 40
1.0
176
     1
 90
       12
176
     1
 62
     7
176
     1
 40
1.0
176
     1
 90
        1
176
     1
 90
        6
176
     1
 90
        2
176
     1
 62
     7
176
     1
 90
        5
176
     1
 90
        0
176
     1
 90
        0
176
     1
290
     0
176
     1
 90
        1
176
     1
 40
0.0
176
     1
 90
        0
176
     1
290
     0
176
     1
290
     1
176
     1
290
     1
176
     1
290
     0
176
     1
290
     0
176
     1
290
     0
176
     1
290
     0
176
     1
290
     0
176
     1
290
     0
176
     1
 90
       50
176
     1
 40
0.0
176
     1
 40
1.0
176
     1
 90
        0
176
     1
 62
    18
420
        0
176
     1
 90
       50
176
     1
 90
        3
176
     1
 62
     5
420
      255
176
     1
290
     0
176
     1
 90
       50
176
     1
 90
       50
176
     1
 90
       50
176
     1
290
     0
176
     1
 90
       50
176
     1
 62
   256
176
     0
 40
1.0
176
     0
 90
        2
176
     1
  1
strokes_ogs.tif
176
     1
290
     0
176
     1
 40
1.0
176
     1
 40
1.0
176
     1
  0
VISUALSTYLE
  5
20B7
102
{ACAD_REACTORS
330
20B1
102
}
330
20B1
100
AcDbVisualStyle
  2
Wireframe
 70
     5
177
     3
291
     0
 70
    58
 90
        0
176
     1
 90
        2
176
     1
 90
        0
176
     1
 90
        0
176
     1
 40
0.6
176
     1
 40
30.0
176
     1
 62
     7
420
 16777215
176
     1
 90
        1
176
     1
 90
        4
176
     1
 62
     7
176
     1
 62
   257
176
     1
 90
        1
176
     1
 90
        1
176
     1
 40
1.0
176
     1
 90
        0
176
     1
 62
   257
176
     1
 40
1.0
176
     1
 90
        1
176
     1
 90
        6
176
     1
 90
        2
176
     1
 62
     7
176
     1
 90
        3
176
     1
 90
        0
176
     1
 90
        0
176
     1
290
     0
176
     1
 90
        1
176
     1
 40
0.0
176
     1
 90
        0
176
     1
290
     0
176
     1
290
     1
176
     1
290
     1
176
     1
290
     0
176
     1
290
     0
176
     1
290
     0
176
     1
290
     0
176
     1
290
     0
176
     1
290
     0
176
     1
 90
       50
176
     1
 40
0.0
176
     1
 40
1.0
176
     1
 90
        0
176
     1
 62
    18
420
        0
176
     1
 90
       50
176
     1
 90
        3
176
     1
 62
     5
420
      255
176
     1
290
     0
176
     1
 90
       50
176
     1
 90
       50
176
     1
 90
       50
176
     1
290
     0
176
     1
 90
       50
176
     1
 62
   256
176
     0
 40
1.0
176
     0
 90
        2
176
     1
  1
strokes_ogs.tif
176
     1
290
     0
176
     1
 40
1.0
176
     1
 40
1.0
176
     1
  0
VISUALSTYLE
  5
20C7
102
{ACAD_REACTORS
330
20B1
102
}
330
20B1
100
AcDbVisualStyle
  2
X-Ray
 70
    25
177
     3
291
     0
 70
    58
 90
        2
176
     1
 90
        2
176
     1
 90
        1
176
     1
 90
        1
176
     1
 40
0.5
176
     1
 40
30.0
176
     1
 62
     7
420
 16777215
176
     1
 90
        1
176
     1
 90
        0
176
     1
 62
     7
176
     1
 62
   257
176
     1
 90
        1
176
     1
 90
        1
176
     1
 40
1.0
176
     1
 90
        8
176
     1
 62
     7
176
     1
 40
1.0
176
     1
 90
        1
176
     1
 90
        6
176
     1
 90
        2
176
     1
 62
     7
176
     1
 90
        3
176
     1
 90
        0
176
     1
 90
        0
176
     1
290
     0
176
     1
 90
       13
176
     1
 40
0.0
176
     1
 90
        0
176
     1
290
     0
176
     1
290
     1
176
     1
290
     1
176
     1
290
     0
176
     1
290
     0
176
     1
290
     0
176
     1
290
     0
176
     1
290
     0
176
     1
290
     0
176
     1
 90
       50
176
     1
 40
0.0
176
     1
 40
1.0
176
     1
 90
        0
176
     1
 62
    18
420
        0
176
     1
 90
       50
176
     1
 90
        3
176
     1
 62
     5
420
      255
176
     1
290
     0
176
     1
 90
       50
176
     1
 90
       50
176
     1
 90
       50
176
     1
290
     0
176
     1
 90
       50
176
     1
 62
   256
176
     0
 40
1.0
176
     0
 90
        2
176
     1
  1
strokes_ogs.tif
176
     1
290
     0
176
     1
 40
1.0
176
     1
 40
1.0
176
     1
  0
DICTIONARYVAR
  5
2182
102
{ACAD_REACTORS
330
2181
102
}
330
2181
100
DictionaryVariables
280
     0
  1
1:1
  0
DICTIONARYVAR
  5
2187
102
{ACAD_REACTORS
330
2181
102
}
330
2181
100
DictionaryVariables
280
     0
  1
Standard
  0
DICTIONARYVAR
  5
2186
102
{ACAD_REACTORS
330
2181
102
}
330
2181
100
DictionaryVariables
280
     0
  1
Standard
  0
XRECORD
  5
20F8
102
{ACAD_REACTORS
330
20F6
102
}
330
20F6
100
AcDbXrecord
280
     1
1000
#ffffff
  0
XRECORD
  5
20F9
102
{ACAD_REACTORS
330
20F6
102
}
330
20F6
100
AcDbXrecord
280
     1
1000
FullColor
  0
XRECORD
  5
20FA
102
{ACAD_REACTORS
330
20F6
102
}
330
20F6
100
AcDbXrecord
280
     1
290
     1
  0
XRECORD
  5
20FB
102
{ACAD_REACTORS
330
20F6
102
}
330
20F6
100
AcDbXrecord
280
     1
290
     1
  0
XRECORD
  5
20FC
102
{ACAD_REACTORS
330
20F6
102
}
330
20F6
100
AcDbXrecord
280
     1
290
     1
  0
XRECORD
  5
20FD
102
{ACAD_REACTORS
330
20F6
102
}
330
20F6
100
AcDbXrecord
280
     1
290
     1
  0
XRECORD
  5
20FE
102
{ACAD_REACTORS
330
20F6
102
}
330
20F6
100
AcDbXrecord
280
     1
1000
auto
  0
XRECORD
  5
20FF
102
{ACAD_REACTORS
330
20F6
102
}
330
20F6
100
AcDbXrecord
280
     1
1000
auto
  0
XRECORD
  5
2100
102
{ACAD_REACTORS
330
20F6
102
}
330
20F6
100
AcDbXrecord
280
     1
1000
auto
  0
XRECORD
  5
2101
102
{ACAD_REACTORS
330
20F6
102
}
330
20F6
100
AcDbXrecord
280
     1
1000
auto
  0
XRECORD
  5
2102
102
{ACAD_REACTORS
330
20F6
102
}
330
20F6
100
AcDbXrecord
280
     1
1000
auto
  0
XRECORD
  5
2103
102
{ACAD_REACTORS
330
20F6
102
}
330
20F6
100
AcDbXrecord
280
     1
1000
auto
  0
XRECORD
  5
2104
102
{ACAD_REACTORS
330
20F6
102
}
330
20F6
100
AcDbXrecord
280
     1
1000
auto
  0
XRECORD
  5
2105
102
{ACAD_REACTORS
330
20F6
102
}
330
20F6
100
AcDbXrecord
280
     1
1000
auto
  0
XRECORD
  5
2106
102
{ACAD_REACTORS
330
20F6
102
}
330
20F6
100
AcDbXrecord
280
     1
290
     0
  0
XRECORD
  5
2107
102
{ACAD_REACTORS
330
20F6
102
}
330
20F6
100
AcDbXrecord
280
     1
290
     0
  0
XRECORD
  5
2108
102
{ACAD_REACTORS
330
20F6
102
}
330
20F6
100
AcDbXrecord
280
     1
290
     0
  0
XRECORD
  5
2109
102
{ACAD_REACTORS
330
20F6
102
}
330
20F6
100
AcDbXrecord
280
     1
290
     0
  0
XRECORD
  5
210A
102
{ACAD_REACTORS
330
20F6
102
}
330
20F6
100
AcDbXrecord
280
     1
 90
    65537
  0
XRECORD
  5
210B
102
{ACAD_REACTORS
330
20F6
102
}
330
20F6
100
AcDbXrecord
280
     1
 90
    65537
  0
XRECORD
  5
210C
102
{ACAD_REACTORS
330
20F6
102
}
330
20F6
100
AcDbXrecord
280
     1
 90
    65537
  0
XRECORD
  5
210D
102
{ACAD_REACTORS
330
20F6
102
}
330
20F6
100
AcDbXrecord
280
     1
 90
    65537
  0
XRECORD
  5
210E
102
{ACAD_REACTORS
330
20F6
102
}
330
20F6
100
AcDbXrecord
280
     1
1000
auto
  0
XRECORD
  5
210F
102
{ACAD_REACTORS
330
20F6
102
}
330
20F6
100
AcDbXrecord
280
     1
1000
auto
  0
XRECORD
  5
2110
102
{ACAD_REACTORS
330
20F6
102
}
330
20F6
100
AcDbXrecord
280
     1
1000
auto
  0
XRECORD
  5
2111
102
{ACAD_REACTORS
330
20F6
102
}
330
20F6
100
AcDbXrecord
280
     1
1000
auto
  0
XRECORD
  5
2112
102
{ACAD_REACTORS
330
20F6
102
}
330
20F6
100
AcDbXrecord
280
     1
1000
auto
  0
XRECORD
  5
2113
102
{ACAD_REACTORS
330
20F6
102
}
330
20F6
100
AcDbXrecord
280
     1
1000
auto
  0
XRECORD
  5
2114
102
{ACAD_REACTORS
330
20F6
102
}
330
20F6
100
AcDbXrecord
280
     1
1000
auto
  0
XRECORD
  5
2115
102
{ACAD_REACTORS
330
20F6
102
}
330
20F6
100
AcDbXrecord
280
     1
1000
auto
  0
XRECORD
  5
2116
102
{ACAD_REACTORS
330
20F6
102
}
330
20F6
100
AcDbXrecord
280
     1
 90
        1
  0
XRECORD
  5
2117
102
{ACAD_REACTORS
330
20F6
102
}
330
20F6
100
AcDbXrecord
280
     1
 40
10.0
  0
XRECORD
  5
2118
102
{ACAD_REACTORS
330
20F6
102
}
330
20F6
100
AcDbXrecord
280
     1
 40
10.0
  0
XRECORD
  5
2119
102
{ACAD_REACTORS
330
20F6
102
}
330
20F6
100
AcDbXrecord
280
     1
 40
10.0
  0
XRECORD
  5
211A
102
{ACAD_REACTORS
330
20F6
102
}
330
20F6
100
AcDbXrecord
280
     1
 40
10.0
  0
XRECORD
  5
211B
102
{ACAD_REACTORS
330
20F6
102
}
330
20F6
100
AcDbXrecord
280
     1
290
     0
  0
XRECORD
  5
211C
102
{ACAD_REACTORS
330
20F6
102
}
330
20F6
100
AcDbXrecord
280
     1
 90
        1
  0
XRECORD
  5
211D
102
{ACAD_REACTORS
330
20F6
102
}
330
20F6
100
AcDbXrecord
280
     1
 40
0.0
  0
XRECORD
  5
211E
102
{ACAD_REACTORS
330
20F6
102
}
330
20F6
100
AcDbXrecord
280
     1
 40
0.0
  0
XRECORD
  5
211F
102
{ACAD_REACTORS
330
20F6
102
}
330
20F6
100
AcDbXrecord
280
     1
1000
Portrait
  0
XRECORD
  5
2120
102
{ACAD_REACTORS
330
20F6
102
}
330
20F6
100
AcDbXrecord
280
     1
 40
279.4
  0
XRECORD
  5
2121
102
{ACAD_REACTORS
330
20F6
102
}
330
20F6
100
AcDbXrecord
280
     1
 40
215.9
  0
XRECORD
  5
2122
102
{ACAD_REACTORS
330
20F6
102
}
330
20F6
100
AcDbXrecord
280
     1
1000
1:1
  0
XRECORD
  5
2123
102
{ACAD_REACTORS
330
20F6
102
}
330
20F6
100
AcDbXrecord
280
     1
290
     1
  0
XRECORD
  5
2124
102
{ACAD_REACTORS
330
20F6
102
}
330
20F6
100
AcDbXrecord
280
     1
290
     0
  0
XRECORD
  5
2125
102
{ACAD_REACTORS
330
20F6
102
}
330
20F6
100
AcDbXrecord
280
     1
1000
Inside
  0
XRECORD
  5
2126
102
{ACAD_REACTORS
330
20F6
102
}
330
20F6
100
AcDbXrecord
280
     1
1000
Arial,10,-1,5,50,0,0,0,0,0
  0
XRECORD
  5
2127
102
{ACAD_REACTORS
330
20F6
102
}
330
20F6
100
AcDbXrecord
280
     1
1000
TopLeft
  0
XRECORD
  5
2128
102
{ACAD_REACTORS
330
20F6
102
}
330
20F6
100
AcDbXrecord
280
     1
1000
3.26.1
  0
XRECORD
  5
2129
102
{ACAD_REACTORS
330
20F6
102
}
330
20F6
100
AcDbXrecord
280
     1
 90
        4
  0
XRECORD
  5
212A
102
{ACAD_REACTORS
330
20F6
102
}
330
20F6
100
AcDbXrecord
280
     1
  0
XRECORD
  5
212B
102
{ACAD_REACTORS
330
20F6
102
}
330
20F6
100
AcDbXrecord
280
     1
 40
282.7151424287856
  0
XRECORD
  5
212C
102
{ACAD_REACTORS
330
20F6
102
}
330
20F6
100
AcDbXrecord
280
     1
 40
578.047976011994
  0
DICTIONARY
  5
2183
330
20F1
100
AcDbDictionary
280
     1
281
     1
  3
ACAD_ROUNDTRIP_2008_TABLESTYLE_CELLSTYLEMAP
360
2184
  0
CELLSTYLEMAP
  5
2184
102
{ACAD_REACTORS
330
2183
102
}
330
2183
100
AcDbCellStyleMap
 90
        3
300
CELLSTYLE
  1
TABLEFORMAT_BEGIN
 90
        5
170
     1
 91
        0
 92
    32768
 62
   257
 93
        1
300
CONTENTFORMAT
  1
CONTENTFORMAT_BEGIN
 90
        0
 91
        0
 92
        4
 93
        0
300

 40
0.0
140
1.0
 94
        5
 62
     0
340
2099
144
0.25
309
CONTENTFORMAT_END
171
     1
301
MARGIN
  1
CELLMARGIN_BEGIN
 40
0.06
 40
0.06
 40
0.06
 40
0.06
 40
0.06
 40
0.06
309
CELLMARGIN_END
 94
        6
 95
        1
302
GRIDFORMAT
  1
GRIDFORMAT_BEGIN
 90
        0
 91
        1
 62
     0
 92
       -2
340
209B
 93
        0
 40
0.045
309
GRIDFORMAT_END
 95
        2
302
GRIDFORMAT
  1
GRIDFORMAT_BEGIN
 90
        0
 91
        1
 62
     0
 92
       -2
340
209B
 93
        0
 40
0.045
309
GRIDFORMAT_END
 95
        4
302
GRIDFORMAT
  1
GRIDFORMAT_BEGIN
 90
        0
 91
        1
 62
     0
 92
       -2
340
209B
 93
        0
 40
0.045
309
GRIDFORMAT_END
 95
        8
302
GRIDFORMAT
  1
GRIDFORMAT_BEGIN
 90
        0
 91
        1
 62
     0
 92
       -2
340
209B
 93
        0
 40
0.045
309
GRIDFORMAT_END
 95
       16
302
GRIDFORMAT
  1
GRIDFORMAT_BEGIN
 90
        0
 91
        1
 62
     0
 92
       -2
340
209B
 93
        0
 40
0.045
309
GRIDFORMAT_END
 95
       32
302
GRIDFORMAT
  1
GRIDFORMAT_BEGIN
 90
        0
 91
        1
 62
     0
 92
       -2
340
209B
 93
        0
 40
0.045
309
GRIDFORMAT_END
309
TABLEFORMAT_END
  1
CELLSTYLE_BEGIN
 90
        1
 91
        1
300
_TITLE
309
CELLSTYLE_END
300
CELLSTYLE
  1
TABLEFORMAT_BEGIN
 90
        5
170
     1
 91
        0
 92
        0
 62
   257
 93
        1
300
CONTENTFORMAT
  1
CONTENTFORMAT_BEGIN
 90
        0
 91
        0
 92
        4
 93
        0
300

 40
0.0
140
1.0
 94
        5
 62
     0
340
2099
144
0.18
309
CONTENTFORMAT_END
171
     1
301
MARGIN
  1
CELLMARGIN_BEGIN
 40
0.06
 40
0.06
 40
0.06
 40
0.06
 40
0.06
 40
0.06
309
CELLMARGIN_END
 94
        6
 95
        1
302
GRIDFORMAT
  1
GRIDFORMAT_BEGIN
 90
        0
 91
        1
 62
     0
 92
       -2
340
209B
 93
        0
 40
0.045
309
GRIDFORMAT_END
 95
        2
302
GRIDFORMAT
  1
GRIDFORMAT_BEGIN
 90
        0
 91
        1
 62
     0
 92
       -2
340
209B
 93
        0
 40
0.045
309
GRIDFORMAT_END
 95
        4
302
GRIDFORMAT
  1
GRIDFORMAT_BEGIN
 90
        0
 91
        1
 62
     0
 92
       -2
340
209B
 93
        0
 40
0.045
309
GRIDFORMAT_END
 95
        8
302
GRIDFORMAT
  1
GRIDFORMAT_BEGIN
 90
        0
 91
        1
 62
     0
 92
       -2
340
209B
 93
        0
 40
0.045
309
GRIDFORMAT_END
 95
       16
302
GRIDFORMAT
  1
GRIDFORMAT_BEGIN
 90
        0
 91
        1
 62
     0
 92
       -2
340
209B
 93
        0
 40
0.045
309
GRIDFORMAT_END
 95
       32
302
GRIDFORMAT
  1
GRIDFORMAT_BEGIN
 90
        0
 91
        1
 62
     0
 92
       -2
340
209B
 93
        0
 40
0.045
309
GRIDFORMAT_END
309
TABLEFORMAT_END
  1
CELLSTYLE_BEGIN
 90
        2
 91
        1
300
_HEADER
309
CELLSTYLE_END
300
CELLSTYLE
  1
TABLEFORMAT_BEGIN
 90
        5
170
     1
 91
        0
 92
        0
 62
   257
 93
        1
300
CONTENTFORMAT
  1
CONTENTFORMAT_BEGIN
 90
        0
 91
        0
 92
        4
 93
        0
300

 40
0.0
140
1.0
 94
        2
 62
     0
340
2099
144
0.18
309
CONTENTFORMAT_END
171
     1
301
MARGIN
  1
CELLMARGIN_BEGIN
 40
0.06
 40
0.06
 40
0.06
 40
0.06
 40
0.06
 40
0.06
309
CELLMARGIN_END
 94
        6
 95
        1
302
GRIDFORMAT
  1
GRIDFORMAT_BEGIN
 90
        0
 91
        1
 62
     0
 92
       -2
340
209B
 93
        0
 40
0.045
309
GRIDFORMAT_END
 95
        2
302
GRIDFORMAT
  1
GRIDFORMAT_BEGIN
 90
        0
 91
        1
 62
     0
 92
       -2
340
209B
 93
        0
 40
0.045
309
GRIDFORMAT_END
 95
        4
302
GRIDFORMAT
  1
GRIDFORMAT_BEGIN
 90
        0
 91
        1
 62
     0
 92
       -2
340
209B
 93
        0
 40
0.045
309
GRIDFORMAT_END
 95
        8
302
GRIDFORMAT
  1
GRIDFORMAT_BEGIN
 90
        0
 91
        1
 62
     0
 92
       -2
340
209B
 93
        0
 40
0.045
309
GRIDFORMAT_END
 95
       16
302
GRIDFORMAT
  1
GRIDFORMAT_BEGIN
 90
        0
 91
        1
 62
     0
 92
       -2
340
209B
 93
        0
 40
0.045
309
GRIDFORMAT_END
 95
       32
302
GRIDFORMAT
  1
GRIDFORMAT_BEGIN
 90
        0
 91
        1
 62
     0
 92
       -2
340
209B
 93
        0
 40
0.045
309
GRIDFORMAT_END
309
TABLEFORMAT_END
  1
CELLSTYLE_BEGIN
 90
        3
 91
        2
300
_DATA
309
CELLSTYLE_END
  0
ENDSEC
  0
EOF
