  0
SECTION
  2
HEADER
  9
$ACADVER
  1
AC1032
  9
$ACADMAINTVER
 90
      228
  9
$DWGCODEPAGE
  3
ANSI_1252
  9
$REQUIREDVERSIONS
160
                 0
  9
$INSBASE
 10
0.0
 20
0.0
 30
0.0
  9
$EXTMIN
 10
1.000000000000000E+20
 20
1.000000000000000E+20
 30
1.000000000000000E+20
  9
$EXTMAX
 10
-1.000000000000000E+20
 20
-1.000000000000000E+20
 30
-1.000000000000000E+20
  9
$LIMMIN
 10
0.0
 20
0.0
  9
$LIMMAX
 10
12.0
 20
9.0
  9
$ORTHOMODE
 70
     0
  9
$REGENMODE
 70
     1
  9
$FILLMODE
 70
     1
  9
$QTEXTMODE
 70
     0
  9
$MIRRTEXT
 70
     0
  9
$LTSCALE
 40
1.0
  9
$ATTMODE
 70
     1
  9
$TEXTSIZE
 40
0.2
  9
$TRACEWID
 40
0.05
  9
$TEXTSTYLE
  7
Standard
  9
$CLAYER
  8
0
  9
$CELTYPE
  6
ByLayer
  9
$CECOLOR
 62
   256
  9
$CELTSCALE
 40
1.0
  9
$DISPSILH
 70
     0
  9
$DIMSCALE
 40
1.0
  9
$DIMASZ
 40
0.18
  9
$DIMEXO
 40
0.0625
  9
$DIMDLI
 40
0.38
  9
$DIMRND
 40
0.0
  9
$DIMDLE
 40
0.0
  9
$DIMEXE
 40
0.18
  9
$DIMTP
 40
0.0
  9
$DIMTM
 40
0.0
  9
$DIMTXT
 40
0.18
  9
$DIMCEN
 40
0.09
  9
$DIMTSZ
 40
0.0
  9
$DIMTOL
 70
     0
  9
$DIMLIM
 70
     0
  9
$DIMTIH
 70
     1
  9
$DIMTOH
 70
     1
  9
$DIMSE1
 70
     0
  9
$DIMSE2
 70
     0
  9
$DIMTAD
 70
     0
  9
$DIMZIN
 70
     0
  9
$DIMBLK
  1

  9
$DIMASO
 70
     1
  9
$DIMSHO
 70
     1
  9
$DIMPOST
  1

  9
$DIMAPOST
  1

  9
$DIMALT
 70
     0
  9
$DIMALTD
 70
     2
  9
$DIMALTF
 40
25.4
  9
$DIMLFAC
 40
1.0
  9
$DIMTOFL
 70
     0
  9
$DIMTVP
 40
0.0
  9
$DIMTIX
 70
     0
  9
$DIMSOXD
 70
     0
  9
$DIMSAH
 70
     0
  9
$DIMBLK1
  1

  9
$DIMBLK2
  1

  9
$DIMSTYLE
  2
Standard
  9
$DIMCLRD
 70
     0
  9
$DIMCLRE
 70
     0
  9
$DIMCLRT
 70
     0
  9
$DIMTFAC
 40
1.0
  9
$DIMGAP
 40
0.09
  9
$DIMJUST
 70
     0
  9
$DIMSD1
 70
     0
  9
$DIMSD2
 70
     0
  9
$DIMTOLJ
 70
     1
  9
$DIMTZIN
 70
     0
  9
$DIMALTZ
 70
     0
  9
$DIMALTTZ
 70
     0
  9
$DIMUPT
 70
     0
  9
$DIMDEC
 70
     4
  9
$DIMTDEC
 70
     4
  9
$DIMALTU
 70
     2
  9
$DIMALTTD
 70
     2
  9
$DIMTXSTY
  7
Standard
  9
$DIMAUNIT
 70
     0
  9
$DIMADEC
 70
     0
  9
$DIMALTRND
 40
0.0
  9
$DIMAZIN
 70
     0
  9
$DIMDSEP
 70
    46
  9
$DIMATFIT
 70
     3
  9
$DIMFRAC
 70
     0
  9
$DIMLDRBLK
  1

  9
$DIMLUNIT
 70
     2
  9
$DIMLWD
 70
    -2
  9
$DIMLWE
 70
    -2
  9
$DIMTMOVE
 70
     0
  9
$DIMFXL
 40
1.0
  9
$DIMFXLON
 70
     0
  9
$DIMJOGANG
 40
0.7853981633974483
  9
$DIMTFILL
 70
     0
  9
$DIMTFILLCLR
 70
     0
  9
$DIMARCSYM
 70
     0
  9
$DIMLTYPE
  6

  9
$DIMLTEX1
  6

  9
$DIMLTEX2
  6

  9
$DIMTXTDIRECTION
 70
     0
  9
$LUNITS
 70
     2
  9
$LUPREC
 70
     4
  9
$SKETCHINC
 40
0.1
  9
$FILLETRAD
 40
0.0
  9
$AUNITS
 70
     0
  9
$AUPREC
 70
     0
  9
$MENU
  1
.
  9
$ELEVATION
 40
0.0
  9
$PELEVATION
 40
0.0
  9
$THICKNESS
 40
0.0
  9
$LIMCHECK
 70
     0
  9
$CHAMFERA
 40
0.0
  9
$CHAMFERB
 40
0.0
  9
$CHAMFERC
 40
0.0
  9
$CHAMFERD
 40
0.0
  9
$SKPOLY
 70
     0
  9
$TDCREATE
 40
2460472.932685185
  9
$TDUCREATE
 40
2460472.849351852
  9
$TDUPDATE
 40
2460472.932685185
  9
$TDUUPDATE
 40
2460472.849351852
  9
$TDINDWG
 40
0.0000000000
  9
$TDUSRTIMER
 40
0.0000000000
  9
$USRTIMER
 70
     1
  9
$ANGBASE
 50
0.0
  9
$ANGDIR
 70
     0
  9
$PDMODE
 70
     0
  9
$PDSIZE
 40
0.0
  9
$PLINEWID
 40
0.0
  9
$SPLFRAME
 70
     0
  9
$SPLINETYPE
 70
     6
  9
$SPLINESEGS
 70
     8
  9
$HANDSEED
  5
F8
  9
$SURFTAB1
 70
     6
  9
$SURFTAB2
 70
     6
  9
$SURFTYPE
 70
     6
  9
$SURFU
 70
     6
  9
$SURFV
 70
     6
  9
$UCSBASE
  2

  9
$UCSNAME
  2

  9
$UCSORG
 10
0.0
 20
0.0
 30
0.0
  9
$UCSXDIR
 10
1.0
 20
0.0
 30
0.0
  9
$UCSYDIR
 10
0.0
 20
1.0
 30
0.0
  9
$UCSORTHOREF
  2

  9
$UCSORTHOVIEW
 70
     0
  9
$UCSORGTOP
 10
0.0
 20
0.0
 30
0.0
  9
$UCSORGBOTTOM
 10
0.0
 20
0.0
 30
0.0
  9
$UCSORGLEFT
 10
0.0
 20
0.0
 30
0.0
  9
$UCSORGRIGHT
 10
0.0
 20
0.0
 30
0.0
  9
$UCSORGFRONT
 10
0.0
 20
0.0
 30
0.0
  9
$UCSORGBACK
 10
0.0
 20
0.0
 30
0.0
  9
$PUCSBASE
  2

  9
$PUCSNAME
  2

  9
$PUCSORG
 10
0.0
 20
0.0
 30
0.0
  9
$PUCSXDIR
 10
1.0
 20
0.0
 30
0.0
  9
$PUCSYDIR
 10
0.0
 20
1.0
 30
0.0
  9
$PUCSORTHOREF
  2

  9
$PUCSORTHOVIEW
 70
     0
  9
$PUCSORGTOP
 10
0.0
 20
0.0
 30
0.0
  9
$PUCSORGBOTTOM
 10
0.0
 20
0.0
 30
0.0
  9
$PUCSORGLEFT
 10
0.0
 20
0.0
 30
0.0
  9
$PUCSORGRIGHT
 10
0.0
 20
0.0
 30
0.0
  9
$PUCSORGFRONT
 10
0.0
 20
0.0
 30
0.0
  9
$PUCSORGBACK
 10
0.0
 20
0.0
 30
0.0
  9
$USERI1
 70
     0
  9
$USERI2
 70
     0
  9
$USERI3
 70
     0
  9
$USERI4
 70
     0
  9
$USERI5
 70
     0
  9
$USERR1
 40
0.0
  9
$USERR2
 40
0.0
  9
$USERR3
 40
0.0
  9
$USERR4
 40
0.0
  9
$USERR5
 40
0.0
  9
$WORLDVIEW
 70
     1
  9
$SHADEDGE
 70
     3
  9
$SHADEDIF
 70
    70
  9
$TILEMODE
 70
     1
  9
$MAXACTVP
 70
    64
  9
$PINSBASE
 10
0.0
 20
0.0
 30
0.0
  9
$PLIMCHECK
 70
     0
  9
$PEXTMIN
 10
1.000000000000000E+20
 20
1.000000000000000E+20
 30
1.000000000000000E+20
  9
$PEXTMAX
 10
-1.000000000000000E+20
 20
-1.000000000000000E+20
 30
-1.000000000000000E+20
  9
$PLIMMIN
 10
0.0
 20
0.0
  9
$PLIMMAX
 10
12.0
 20
9.0
  9
$UNITMODE
 70
     0
  9
$VISRETAIN
 70
     1
  9
$PLINEGEN
 70
     0
  9
$PSLTSCALE
 70
     1
  9
$TREEDEPTH
 70
  3020
  9
$CMLSTYLE
  2
Standard
  9
$CMLJUST
 70
     0
  9
$CMLSCALE
 40
1.0
  9
$PROXYGRAPHICS
 70
     1
  9
$MEASUREMENT
 70
     0
  9
$CELWEIGHT
370
    -1
  9
$ENDCAPS
280
     0
  9
$JOINSTYLE
280
     0
  9
$LWDISPLAY
290
     1
  9
$INSUNITS
 70
     4
  9
$HYPERLINKBASE
  1

  9
$STYLESHEET
  1

  9
$XEDIT
290
     1
  9
$CEPSNTYPE
380
     0
  9
$PSTYLEMODE
290
     1
  9
$FINGERPRINTGUID
  2
{CC9F0EF7-242E-7243-8A5A-C0326669DA67}
  9
$VERSIONGUID
  2
{148B580A-E3C1-9F40-88F8-AF07B2568080}
  9
$EXTNAMES
290
     1
  9
$PSVPSCALE
 40
0.0
  9
$OLESTARTUP
290
     0
  9
$SORTENTS
280
   127
  9
$INDEXCTL
280
     0
  9
$HIDETEXT
280
     1
  9
$XCLIPFRAME
280
     2
  9
$HALOGAP
280
     0
  9
$OBSCOLOR
 70
   257
  9
$OBSLTYPE
280
     0
  9
$INTERSECTIONDISPLAY
280
     0
  9
$INTERSECTIONCOLOR
 70
   257
  9
$DIMASSOC
280
     2
  9
$PROJECTNAME
  1

  9
$CAMERADISPLAY
290
     0
  9
$LENSLENGTH
 40
50.0
  9
$CAMERAHEIGHT
 40
0.0
  9
$STEPSPERSEC
 40
2.0
  9
$STEPSIZE
 40
6.0
  9
$3DDWFPREC
 40
2.0
  9
$PSOLWIDTH
 40
0.25
  9
$PSOLHEIGHT
 40
4.0
  9
$LOFTANG1
 40
1.570796326794896
  9
$LOFTANG2
 40
1.570796326794896
  9
$LOFTMAG1
 40
0.0
  9
$LOFTMAG2
 40
0.0
  9
$LOFTPARAM
 70
     7
  9
$LOFTNORMALS
280
     1
  9
$LATITUDE
 40
37.795
  9
$LONGITUDE
 40
-122.394
  9
$NORTHDIRECTION
 40
0.0
  9
$TIMEZONE
 70
 -8000
  9
$LIGHTGLYPHDISPLAY
280
     1
  9
$TILEMODELIGHTSYNCH
280
     1
  9
$CMATERIAL
347
11
  9
$SOLIDHIST
280
     0
  9
$SHOWHIST
280
     1
  9
$DWFFRAME
280
     2
  9
$DGNFRAME
280
     0
  9
$REALWORLDSCALE
290
     1
  9
$INTERFERECOLOR
 62
     1
  9
$INTERFEREOBJVS
345
33
  9
$INTERFEREVPVS
346
30
  9
$CSHADOW
280
     0
  9
$SHADOWPLANELOCATION
 40
0.0
  0
ENDSEC
  0
SECTION
  2
CLASSES
  0
CLASS
  1
ACDBDICTIONARYWDFLT
  2
AcDbDictionaryWithDefault
  3
ObjectDBX Classes
 90
        0
 91
        1
280
     0
281
     0
  0
CLASS
  1
MATERIAL
  2
AcDbMaterial
  3
ObjectDBX Classes
 90
     1153
 91
        3
280
     0
281
     0
  0
CLASS
  1
VISUALSTYLE
  2
AcDbVisualStyle
  3
ObjectDBX Classes
 90
     4095
 91
       24
280
     0
281
     0
  0
CLASS
  1
SCALE
  2
AcDbScale
  3
ObjectDBX Classes
 90
     1153
 91
       17
280
     0
281
     0
  0
CLASS
  1
TABLESTYLE
  2
AcDbTableStyle
  3
ObjectDBX Classes
 90
     4095
 91
        1
280
     0
281
     0
  0
CLASS
  1
MLEADERSTYLE
  2
AcDbMLeaderStyle
  3
ACDB_MLEADERSTYLE_CLASS
 90
     4095
 91
        1
280
     0
281
     0
  0
CLASS
  1
ACDBSECTIONVIEWSTYLE
  2
AcDbSectionViewStyle
  3
ObjectDBX Classes
 90
     1025
 91
        1
280
     0
281
     0
  0
CLASS
  1
ACDBDETAILVIEWSTYLE
  2
AcDbDetailViewStyle
  3
ObjectDBX Classes
 90
     1025
 91
        1
280
     0
281
     0
  0
CLASS
  1
DICTIONARYVAR
  2
AcDbDictionaryVar
  3
ObjectDBX Classes
 90
        0
 91
        5
280
     0
281
     0
  0
CLASS
  1
CELLSTYLEMAP
  2
AcDbCellStyleMap
  3
ObjectDBX Classes
 90
     1152
 91
        1
280
     0
281
     0
  0
ENDSEC
  0
SECTION
  2
TABLES
  0
TABLE
  2
VPORT
  5
8
330
0
100
AcDbSymbolTable
 70
     1
  0
VPORT
  5
57
330
8
100
AcDbSymbolTableRecord
100
AcDbViewportTableRecord
  2
*Active
 70
     0
 10
0.0
 20
0.0
 11
1.0
 21
1.0
 12
0.0
 22
0.0
 13
0.0
 23
0.0
 14
1.0
 24
1.0
 15
0.0
 25
0.0
 16
0.0
 26
0.0
 36
1.0
 17
299.9999999249995
 27
-224.9999999437495
 37
0.0
 40
458.999999885249
 41
1.333333333333333
 42
50.0
 43
0.0
 44
0.0
 50
0.0
 51
0.0
 71
     0
 72
   100
 73
     1
 74
     1
 75
     0
 76
     0
 77
     0
 78
     0
281
     0
 65
     1
110
0.0
120
0.0
130
0.0
111
1.0
121
0.0
131
0.0
112
0.0
122
1.0
132
0.0
 79
     0
146
0.0
 60
     3
 61
     5
292
     1
282
     1
141
0.0
142
0.0
 63
   250
421
  3355443
  0
ENDTAB
  0
TABLE
  2
LTYPE
  5
5
330
0
100
AcDbSymbolTable
 70
     1
  0
LTYPE
  5
5B
330
5
100
AcDbSymbolTableRecord
100
AcDbLinetypeTableRecord
  2
ByBlock
 70
     0
  3

 72
    65
 73
     0
 40
0.0
  0
LTYPE
  5
5C
330
5
100
AcDbSymbolTableRecord
100
AcDbLinetypeTableRecord
  2
ByLayer
 70
     0
  3

 72
    65
 73
     0
 40
0.0
  0
LTYPE
  5
5D
330
5
100
AcDbSymbolTableRecord
100
AcDbLinetypeTableRecord
  2
Continuous
 70
     0
  3
Solid line
 72
    65
 73
     0
 40
0.0
  0
ENDTAB
  0
TABLE
  2
LAYER
  5
2
330
0
100
AcDbSymbolTable
 70
     2
  0
LAYER
  5
54
330
2
100
AcDbSymbolTableRecord
100
AcDbLayerTableRecord
  2
0
 70
     0
 62
     7
  6
Continuous
370
    -3
390
F
347
21
348
0
  0
LAYER
  5
78
330
2
100
AcDbSymbolTableRecord
100
AcDbLayerTableRecord
  2
Layer 1
 70
     0
 62
     7
  6
Continuous
370
     0
390
F
347
21
348
0
  0
ENDTAB
  0
TABLE
  2
STYLE
  5
3
330
0
100
AcDbSymbolTable
 70
     2
  0
STYLE
  5
55
330
3
100
AcDbSymbolTableRecord
100
AcDbTextStyleTableRecord
  2
Standard
 70
     0
 40
0.0
 41
1.0
 50
0.0
 71
     0
 42
0.2
  3
txt
  4

  0
STYLE
  5
5A
330
3
100
AcDbSymbolTableRecord
100
AcDbTextStyleTableRecord
  2
Annotative
 70
     0
 40
0.0
 41
1.0
 50
0.0
 71
     0
 42
0.2
  3
txt
  4

1001
AcadAnnotative
1000
AnnotativeData
1002
{
1070
     1
1070
     1
1002
}
  0
ENDTAB
  0
TABLE
  2
VIEW
  5
6
330
0
100
AcDbSymbolTable
 70
     0
  0
ENDTAB
  0
TABLE
  2
UCS
  5
7
330
0
100
AcDbSymbolTable
 70
     0
  0
ENDTAB
  0
TABLE
  2
APPID
  5
9
330
0
100
AcDbSymbolTable
 70
     2
  0
APPID
  5
56
330
9
100
AcDbSymbolTableRecord
100
AcDbRegAppTableRecord
  2
ACAD
 70
     0
  0
APPID
  5
5E
330
9
100
AcDbSymbolTableRecord
100
AcDbRegAppTableRecord
  2
AcadAnnotative
 70
     0
  0
ENDTAB
  0
TABLE
  2
DIMSTYLE
  5
A
330
0
100
AcDbSymbolTable
 70
     2
100
AcDbDimStyleTable
 71
     0
  0
DIMSTYLE
105
58
330
A
100
AcDbSymbolTableRecord
100
AcDbDimStyleTableRecord
  2
Standard
 70
     0
340
55
  0
DIMSTYLE
105
59
330
A
100
AcDbSymbolTableRecord
100
AcDbDimStyleTableRecord
  2
Annotative
 70
     0
340
55
1001
AcadAnnotative
1000
AnnotativeData
1002
{
1070
     1
1070
     1
1002
}
  0
ENDTAB
  0
TABLE
  2
BLOCK_RECORD
  5
1
330
0
100
AcDbSymbolTable
 70
     5
  0
BLOCK_RECORD
  5
70
330
1
100
AcDbSymbolTableRecord
100
AcDbBlockTableRecord
  2
*Model_Space
340
73
 70
     0
280
     1
281
     0
  0
BLOCK_RECORD
  5
6C
330
1
100
AcDbSymbolTableRecord
100
AcDbBlockTableRecord
  2
*Paper_Space
340
6F
 70
     0
280
     1
281
     0
  0
BLOCK_RECORD
  5
74
330
1
100
AcDbSymbolTableRecord
100
AcDbBlockTableRecord
  2
*Paper_Space0
340
77
 70
     0
280
     1
281
     0
  0
BLOCK_RECORD
  5
79
330
1
100
AcDbSymbolTableRecord
100
AcDbBlockTableRecord
  2
Block_0
340
0
102
{BLKREFS
331
7A
102
}
 70
     0
280
     1
281
     0
  0
BLOCK_RECORD
  5
91
330
1
100
AcDbSymbolTableRecord
100
AcDbBlockTableRecord
  2
Block_1
340
0
102
{BLKREFS
331
92
102
}
 70
     0
280
     1
281
     0
  0
BLOCK_RECORD
  5
A5
330
1
100
AcDbSymbolTableRecord
100
AcDbBlockTableRecord
  2
Block_2
340
0
102
{BLKREFS
331
A6
102
}
 70
     0
280
     1
281
     0
  0
BLOCK_RECORD
  5
B9
330
1
100
AcDbSymbolTableRecord
100
AcDbBlockTableRecord
  2
Block_3
340
0
102
{BLKREFS
331
BA
102
}
 70
     0
280
     1
281
     0
  0
ENDTAB
  0
ENDSEC
  0
SECTION
  2
BLOCKS
  0
BLOCK
  5
71
330
70
100
AcDbEntity
  8
0
100
AcDbBlockBegin
  2
*Model_Space
 70
     0
 10
0.0
 20
0.0
 30
0.0
  3
*Model_Space
  1

  0
ENDBLK
  5
72
330
70
100
AcDbEntity
  8
0
100
AcDbBlockEnd
  0
BLOCK
  5
6D
330
6C
100
AcDbEntity
 67
     1
  8
0
100
AcDbBlockBegin
  2
*Paper_Space
 70
     0
 10
0.0
 20
0.0
 30
0.0
  3
*Paper_Space
  1

  0
ENDBLK
  5
6E
330
6C
100
AcDbEntity
 67
     1
  8
0
100
AcDbBlockEnd
  0
BLOCK
  5
75
330
74
100
AcDbEntity
 67
     1
  8
0
100
AcDbBlockBegin
  2
*Paper_Space0
 70
     0
 10
0.0
 20
0.0
 30
0.0
  3
*Paper_Space0
  1

  0
ENDBLK
  5
76
330
74
100
AcDbEntity
 67
     1
  8
0
100
AcDbBlockEnd
  0
BLOCK
  5
7B
330
79
100
AcDbEntity
  8
0
100
AcDbBlockBegin
  2
Block_0
 70
     0
 10
0.0
 20
0.0
 30
0.0
  3
Block_0
  1

  0
LINE
  5
7D
330
79
100
AcDbEntity
  8
Layer 1
 62
     1
420
 16711680
370
     0
100
AcDbLine
 10
337.9339792511818
 20
-53.74186050308665
 30
0.0
 11
337.9339792511818
 21
-13.74186050308653
 31
0.0
  0
LINE
  5
7E
330
79
100
AcDbEntity
  8
Layer 1
 62
     1
420
 16711680
370
     0
100
AcDbLine
 10
297.9339792511833
 20
-3.741860503086817
 30
0.0
 11
247.9339792511821
 21
-3.741860503086817
 31
0.0
  0
LINE
  5
7F
330
79
100
AcDbEntity
  8
Layer 1
 62
     1
420
 16711680
370
     0
100
AcDbLine
 10
197.9339792511816
 20
-3.741860503086817
 30
0.0
 11
29.93397925118212
 21
-3.741860503086817
 31
0.0
  0
LINE
  5
80
330
79
100
AcDbEntity
  8
Layer 1
 62
     1
420
 16711680
370
     0
100
AcDbLine
 10
540.9339792511811
 20
-203.7418605030862
 30
0.0
 11
540.9339792511811
 21
-28.74186050308642
 31
0.0
  0
LINE
  5
81
330
79
100
AcDbEntity
  8
Layer 1
 62
     1
420
 16711680
370
     0
100
AcDbLine
 10
207.933979251182
 20
-13.74186050308653
 30
0.0
 11
207.933979251182
 21
-53.74186050308665
 31
0.0
  0
LINE
  5
82
330
79
100
AcDbEntity
  8
Layer 1
 62
     1
420
 16711680
370
     0
100
AcDbLine
 10
307.933979251182
 20
-53.74186050308665
 30
0.0
 11
337.9339792511818
 21
-53.74186050308665
 31
0.0
  0
LINE
  5
83
330
79
100
AcDbEntity
  8
Layer 1
 62
     1
420
 16711680
370
     0
100
AcDbLine
 10
237.9339792511818
 20
-53.74186050308665
 30
0.0
 11
237.9339792511818
 21
-13.74186050308653
 31
0.0
  0
LINE
  5
84
330
79
100
AcDbEntity
  8
Layer 1
 62
     1
420
 16711680
370
     0
100
AcDbLine
 10
29.93397925118212
 20
-228.7418605030861
 30
0.0
 11
515.9339792511842
 21
-228.7418605030861
 31
0.0
  0
LINE
  5
85
330
79
100
AcDbEntity
  8
Layer 1
 62
     1
420
 16711680
370
     0
100
AcDbLine
 10
515.9339792511842
 20
-3.741860503086817
 30
0.0
 11
347.9339792511821
 21
-3.741860503086817
 31
0.0
  0
LINE
  5
86
330
79
100
AcDbEntity
  8
Layer 1
 62
     1
420
 16711680
370
     0
100
AcDbLine
 10
207.933979251182
 20
-53.74186050308665
 30
0.0
 11
237.9339792511818
 21
-53.74186050308665
 31
0.0
  0
LINE
  5
87
330
79
100
AcDbEntity
  8
Layer 1
 62
     1
420
 16711680
370
     0
100
AcDbLine
 10
307.933979251182
 20
-13.74186050308653
 30
0.0
 11
307.933979251182
 21
-53.74186050308665
 31
0.0
  0
LINE
  5
88
330
79
100
AcDbEntity
  8
Layer 1
 62
     1
420
 16711680
370
     0
100
AcDbLine
 10
4.933979251182197
 20
-28.74186050308642
 30
0.0
 11
4.933979251182197
 21
-203.7418605030862
 31
0.0
  0
SPLINE
  5
89
330
79
100
AcDbEntity
  8
Layer 1
 62
     1
420
 16711680
370
     0
100
AcDbSpline
210
0.0
220
0.0
230
1.0
 70
     8
 71
     3
 72
     8
 73
     4
 74
     0
 42
0.0000000001
 43
0.0000000001
 40
0.0
 40
0.0
 40
0.0
 40
0.0
 40
1.0
 40
1.0
 40
1.0
 40
1.0
 10
515.9339792511842
 20
-228.7418605030861
 30
0.0
 10
529.7410979969535
 20
-228.7418605030861
 30
0.0
 10
540.9339792511811
 20
-217.5489792488569
 30
0.0
 10
540.9339792511811
 20
-203.7418605030862
 30
0.0
  0
SPLINE
  5
8A
330
79
100
AcDbEntity
  8
Layer 1
 62
     1
420
 16711680
370
     0
100
AcDbSpline
210
0.0
220
0.0
230
1.0
 70
     8
 71
     3
 72
     8
 73
     4
 74
     0
 42
0.0000000001
 43
0.0000000001
 40
0.0
 40
0.0
 40
0.0
 40
0.0
 40
1.0
 40
1.0
 40
1.0
 40
1.0
 10
540.9339792511811
 20
-28.74186050308642
 30
0.0
 10
540.9339792511811
 20
-14.93474175731702
 30
0.0
 10
529.7410979969535
 20
-3.741860503086817
 30
0.0
 10
515.9339792511842
 20
-3.741860503086817
 30
0.0
  0
SPLINE
  5
8B
330
79
100
AcDbEntity
  8
Layer 1
 62
     1
420
 16711680
370
     0
100
AcDbSpline
210
0.0
220
0.0
230
1.0
 70
     8
 71
     3
 72
     8
 73
     4
 74
     0
 42
0.0000000001
 43
0.0000000001
 40
0.0
 40
0.0
 40
0.0
 40
0.0
 40
1.0
 40
1.0
 40
1.0
 40
1.0
 10
29.93397925118212
 20
-3.741860503086817
 30
0.0
 10
16.1268605054124
 20
-3.741860503086817
 30
0.0
 10
4.933979251182197
 20
-14.93474175731702
 30
0.0
 10
4.933979251182197
 20
-28.74186050308642
 30
0.0
  0
SPLINE
  5
8C
330
79
100
AcDbEntity
  8
Layer 1
 62
     1
420
 16711680
370
     0
100
AcDbSpline
210
0.0
220
0.0
230
1.0
 70
     8
 71
     3
 72
     8
 73
     4
 74
     0
 42
0.0000000001
 43
0.0000000001
 40
0.0
 40
0.0
 40
0.0
 40
0.0
 40
1.0
 40
1.0
 40
1.0
 40
1.0
 10
207.933979251182
 20
-13.74186050308653
 30
0.0
 10
207.933979251182
 20
-8.219013004778899
 30
0.0
 10
203.4568267494899
 20
-3.741860503086817
 30
0.0
 10
197.9339792511816
 20
-3.741860503086817
 30
0.0
  0
SPLINE
  5
8D
330
79
100
AcDbEntity
  8
Layer 1
 62
     1
420
 16711680
370
     0
100
AcDbSpline
210
0.0
220
0.0
230
1.0
 70
     8
 71
     3
 72
     8
 73
     4
 74
     0
 42
0.0000000001
 43
0.0000000001
 40
0.0
 40
0.0
 40
0.0
 40
0.0
 40
1.0
 40
1.0
 40
1.0
 40
1.0
 10
247.9339792511821
 20
-3.741860503086817
 30
0.0
 10
242.4111317528738
 20
-3.741860503086817
 30
0.0
 10
237.9339792511818
 20
-8.219013004778899
 30
0.0
 10
237.9339792511818
 20
-13.74186050308653
 30
0.0
  0
SPLINE
  5
8E
330
79
100
AcDbEntity
  8
Layer 1
 62
     1
420
 16711680
370
     0
100
AcDbSpline
210
0.0
220
0.0
230
1.0
 70
     8
 71
     3
 72
     8
 73
     4
 74
     0
 42
0.0000000001
 43
0.0000000001
 40
0.0
 40
0.0
 40
0.0
 40
0.0
 40
1.0
 40
1.0
 40
1.0
 40
1.0
 10
347.9339792511821
 20
-3.741860503086817
 30
0.0
 10
342.4111317528738
 20
-3.741860503086817
 30
0.0
 10
337.9339792511818
 20
-8.219013004778899
 30
0.0
 10
337.9339792511818
 20
-13.74186050308653
 30
0.0
  0
SPLINE
  5
8F
330
79
100
AcDbEntity
  8
Layer 1
 62
     1
420
 16711680
370
     0
100
AcDbSpline
210
0.0
220
0.0
230
1.0
 70
     8
 71
     3
 72
     8
 73
     4
 74
     0
 42
0.0000000001
 43
0.0000000001
 40
0.0
 40
0.0
 40
0.0
 40
0.0
 40
1.0
 40
1.0
 40
1.0
 40
1.0
 10
307.933979251182
 20
-13.74186050308653
 30
0.0
 10
307.933979251182
 20
-8.219013004778899
 30
0.0
 10
303.4568267494899
 20
-3.741860503086817
 30
0.0
 10
297.9339792511833
 20
-3.741860503086817
 30
0.0
  0
SPLINE
  5
90
330
79
100
AcDbEntity
  8
Layer 1
 62
     1
420
 16711680
370
     0
100
AcDbSpline
210
0.0
220
0.0
230
1.0
 70
     8
 71
     3
 72
     8
 73
     4
 74
     0
 42
0.0000000001
 43
0.0000000001
 40
0.0
 40
0.0
 40
0.0
 40
0.0
 40
1.0
 40
1.0
 40
1.0
 40
1.0
 10
4.933979251182197
 20
-203.7418605030862
 30
0.0
 10
4.933979251182197
 20
-217.5489792488569
 30
0.0
 10
16.12686050541208
 20
-228.7418605030861
 30
0.0
 10
29.93397925118212
 20
-228.7418605030861
 30
0.0
  0
ENDBLK
  5
7C
330
79
100
AcDbEntity
  8
0
100
AcDbBlockEnd
  0
BLOCK
  5
93
330
91
100
AcDbEntity
  8
0
100
AcDbBlockBegin
  2
Block_1
 70
     0
 10
0.0
 20
0.0
 30
0.0
  3
Block_1
  1

  0
LINE
  5
95
330
91
100
AcDbEntity
  8
Layer 1
 62
     1
420
 16711680
370
     0
100
AcDbLine
 10
504.9339792511812
 20
-312.8726097596843
 30
0.0
 11
4.933979251182518
 21
-312.8726097596843
 31
0.0
  0
LINE
  5
96
330
91
100
AcDbEntity
  8
Layer 1
 62
     1
420
 16711680
370
     0
100
AcDbLine
 10
184.9339792511821
 20
-262.8726097596845
 30
0.0
 11
324.9339792511819
 21
-262.8726097596845
 31
0.0
  0
LINE
  5
97
330
91
100
AcDbEntity
  8
Layer 1
 62
     1
420
 16711680
370
     0
100
AcDbLine
 10
374.9339792511812
 20
-257.872609759685
 30
0.0
 11
374.9339792511812
 21
-262.8726097596845
 31
0.0
  0
LINE
  5
98
330
91
100
AcDbEntity
  8
Layer 1
 62
     1
420
 16711680
370
     0
100
AcDbLine
 10
184.9339792511821
 20
-237.8726097596842
 30
0.0
 11
184.9339792511821
 21
-262.8726097596845
 31
0.0
  0
LINE
  5
99
330
91
100
AcDbEntity
  8
Layer 1
 62
     1
420
 16711680
370
     0
100
AcDbLine
 10
504.9339792511812
 20
-282.8726097596846
 30
0.0
 11
504.9339792511812
 21
-312.8726097596843
 31
0.0
  0
LINE
  5
9A
330
91
100
AcDbEntity
  8
Layer 1
 62
     1
420
 16711680
370
     0
100
AcDbLine
 10
324.9339792511819
 20
-262.8726097596845
 30
0.0
 11
324.9339792511819
 21
-237.8726097596842
 31
0.0
  0
LINE
  5
9B
330
91
100
AcDbEntity
  8
Layer 1
 62
     1
420
 16711680
370
     0
100
AcDbLine
 10
134.9339792511823
 20
-262.8726097596845
 30
0.0
 11
134.9339792511823
 21
-257.872609759685
 31
0.0
  0
LINE
  5
9C
330
91
100
AcDbEntity
  8
Layer 1
 62
     1
420
 16711680
370
     0
100
AcDbLine
 10
324.9339792511819
 20
-237.8726097596842
 30
0.0
 11
354.9339792511811
 21
-237.8726097596842
 31
0.0
  0
LINE
  5
9D
330
91
100
AcDbEntity
  8
Layer 1
 62
     1
420
 16711680
370
     0
100
AcDbLine
 10
24.93397925118226
 20
-262.8726097596845
 30
0.0
 11
134.9339792511823
 21
-262.8726097596845
 31
0.0
  0
LINE
  5
9E
330
91
100
AcDbEntity
  8
Layer 1
 62
     1
420
 16711680
370
     0
100
AcDbLine
 10
374.9339792511812
 20
-262.8726097596845
 30
0.0
 11
484.9339792511812
 21
-262.8726097596845
 31
0.0
  0
LINE
  5
9F
330
91
100
AcDbEntity
  8
Layer 1
 62
     1
420
 16711680
370
     0
100
AcDbLine
 10
154.9339792511823
 20
-237.8726097596842
 30
0.0
 11
184.9339792511821
 21
-237.8726097596842
 31
0.0
  0
LINE
  5
A0
330
91
100
AcDbEntity
  8
Layer 1
 62
     1
420
 16711680
370
     0
100
AcDbLine
 10
4.933979251182518
 20
-312.8726097596843
 30
0.0
 11
4.933979251182518
 21
-282.8726097596846
 31
0.0
  0
SPLINE
  5
A1
330
91
100
AcDbEntity
  8
Layer 1
 62
     1
420
 16711680
370
     0
100
AcDbSpline
210
0.0
220
0.0
230
1.0
 70
     8
 71
     3
 72
     8
 73
     4
 74
     0
 42
0.0000000001
 43
0.0000000001
 40
0.0
 40
0.0
 40
0.0
 40
0.0
 40
1.0
 40
1.0
 40
1.0
 40
1.0
 10
504.9339792511812
 20
-282.8726097596846
 30
0.0
 10
504.9339792511812
 20
-271.8269147630687
 30
0.0
 10
495.9796742477977
 20
-262.8726097596845
 30
0.0
 10
484.9339792511812
 20
-262.8726097596845
 30
0.0
  0
SPLINE
  5
A2
330
91
100
AcDbEntity
  8
Layer 1
 62
     1
420
 16711680
370
     0
100
AcDbSpline
210
0.0
220
0.0
230
1.0
 70
     8
 71
     3
 72
     8
 73
     4
 74
     0
 42
0.0000000001
 43
0.0000000001
 40
0.0
 40
0.0
 40
0.0
 40
0.0
 40
1.0
 40
1.0
 40
1.0
 40
1.0
 10
374.9339792511812
 20
-257.872609759685
 30
0.0
 10
374.9339792511812
 20
-246.8269147630684
 30
0.0
 10
365.9796742477976
 20
-237.8726097596842
 30
0.0
 10
354.9339792511811
 20
-237.8726097596842
 30
0.0
  0
SPLINE
  5
A3
330
91
100
AcDbEntity
  8
Layer 1
 62
     1
420
 16711680
370
     0
100
AcDbSpline
210
0.0
220
0.0
230
1.0
 70
     8
 71
     3
 72
     8
 73
     4
 74
     0
 42
0.0000000001
 43
0.0000000001
 40
0.0
 40
0.0
 40
0.0
 40
0.0
 40
1.0
 40
1.0
 40
1.0
 40
1.0
 10
154.9339792511823
 20
-237.8726097596842
 30
0.0
 10
143.8882842545664
 20
-237.8726097596842
 30
0.0
 10
134.9339792511823
 20
-246.8269147630684
 30
0.0
 10
134.9339792511823
 20
-257.872609759685
 30
0.0
  0
SPLINE
  5
A4
330
91
100
AcDbEntity
  8
Layer 1
 62
     1
420
 16711680
370
     0
100
AcDbSpline
210
0.0
220
0.0
230
1.0
 70
     8
 71
     3
 72
     8
 73
     4
 74
     0
 42
0.0000000001
 43
0.0000000001
 40
0.0
 40
0.0
 40
0.0
 40
0.0
 40
1.0
 40
1.0
 40
1.0
 40
1.0
 10
24.93397925118226
 20
-262.8726097596845
 30
0.0
 10
13.88828425456636
 20
-262.8726097596845
 30
0.0
 10
4.933979251182197
 20
-271.8269147630687
 30
0.0
 10
4.933979251182197
 20
-282.8726097596846
 30
0.0
  0
ENDBLK
  5
94
330
91
100
AcDbEntity
  8
0
100
AcDbBlockEnd
  0
BLOCK
  5
A7
330
A5
100
AcDbEntity
  8
0
100
AcDbBlockBegin
  2
Block_2
 70
     0
 10
0.0
 20
0.0
 30
0.0
  3
Block_2
  1

  0
LINE
  5
A9
330
A5
100
AcDbEntity
  8
Layer 1
 62
     1
420
 16711680
370
     0
100
AcDbLine
 10
4.519896555947729
 20
-319.0137595976694
 30
0.0
 11
504.519896555946
 21
-319.0137595976694
 31
0.0
  0
LINE
  5
AA
330
A5
100
AcDbEntity
  8
Layer 1
 62
     1
420
 16711680
370
     0
100
AcDbLine
 10
324.5198965559475
 20
-369.013759597668
 30
0.0
 11
184.5198965559476
 21
-369.013759597668
 31
0.0
  0
LINE
  5
AB
330
A5
100
AcDbEntity
  8
Layer 1
 62
     1
420
 16711680
370
     0
100
AcDbLine
 10
134.5198965559472
 20
-374.0137595976676
 30
0.0
 11
134.5198965559472
 21
-369.013759597668
 31
0.0
  0
LINE
  5
AC
330
A5
100
AcDbEntity
  8
Layer 1
 62
     1
420
 16711680
370
     0
100
AcDbLine
 10
324.5198965559475
 20
-394.0137595976676
 30
0.0
 11
324.5198965559475
 21
-369.013759597668
 31
0.0
  0
LINE
  5
AD
330
A5
100
AcDbEntity
  8
Layer 1
 62
     1
420
 16711680
370
     0
100
AcDbLine
 10
4.519896555947729
 20
-349.0137595976692
 30
0.0
 11
4.519896555947729
 21
-319.0137595976694
 31
0.0
  0
LINE
  5
AE
330
A5
100
AcDbEntity
  8
Layer 1
 62
     1
420
 16711680
370
     0
100
AcDbLine
 10
184.5198965559476
 20
-369.013759597668
 30
0.0
 11
184.5198965559476
 21
-394.0137595976676
 31
0.0
  0
LINE
  5
AF
330
A5
100
AcDbEntity
  8
Layer 1
 62
     1
420
 16711680
370
     0
100
AcDbLine
 10
374.5198965559461
 20
-369.013759597668
 30
0.0
 11
374.5198965559461
 21
-374.0137595976676
 31
0.0
  0
LINE
  5
B0
330
A5
100
AcDbEntity
  8
Layer 1
 62
     1
420
 16711680
370
     0
100
AcDbLine
 10
184.5198965559476
 20
-394.0137595976676
 30
0.0
 11
154.5198965559479
 21
-394.0137595976676
 31
0.0
  0
LINE
  5
B1
330
A5
100
AcDbEntity
  8
Layer 1
 62
     1
420
 16711680
370
     0
100
AcDbLine
 10
484.519896555946
 20
-369.013759597668
 30
0.0
 11
374.5198965559461
 21
-369.013759597668
 31
0.0
  0
LINE
  5
B2
330
A5
100
AcDbEntity
  8
Layer 1
 62
     1
420
 16711680
370
     0
100
AcDbLine
 10
134.5198965559472
 20
-369.013759597668
 30
0.0
 11
24.51989655594716
 21
-369.013759597668
 31
0.0
  0
LINE
  5
B3
330
A5
100
AcDbEntity
  8
Layer 1
 62
     1
420
 16711680
370
     0
100
AcDbLine
 10
354.519896555946
 20
-394.0137595976676
 30
0.0
 11
324.5198965559475
 21
-394.0137595976676
 31
0.0
  0
LINE
  5
B4
330
A5
100
AcDbEntity
  8
Layer 1
 62
     1
420
 16711680
370
     0
100
AcDbLine
 10
504.519896555946
 20
-319.0137595976694
 30
0.0
 11
504.519896555946
 21
-349.0137595976692
 31
0.0
  0
SPLINE
  5
B5
330
A5
100
AcDbEntity
  8
Layer 1
 62
     1
420
 16711680
370
     0
100
AcDbSpline
210
0.0
220
0.0
230
1.0
 70
     8
 71
     3
 72
     8
 73
     4
 74
     0
 42
0.0000000001
 43
0.0000000001
 40
0.0
 40
0.0
 40
0.0
 40
0.0
 40
1.0
 40
1.0
 40
1.0
 40
1.0
 10
4.519896555947729
 20
-349.0137595976692
 30
0.0
 10
4.519896555947729
 20
-360.0594545942845
 30
0.0
 10
13.47420155933189
 20
-369.013759597668
 30
0.0
 10
24.51989655594716
 20
-369.013759597668
 30
0.0
  0
SPLINE
  5
B6
330
A5
100
AcDbEntity
  8
Layer 1
 62
     1
420
 16711680
370
     0
100
AcDbSpline
210
0.0
220
0.0
230
1.0
 70
     8
 71
     3
 72
     8
 73
     4
 74
     0
 42
0.0000000001
 43
0.0000000001
 40
0.0
 40
0.0
 40
0.0
 40
0.0
 40
1.0
 40
1.0
 40
1.0
 40
1.0
 10
134.5198965559472
 20
-374.0137595976676
 30
0.0
 10
134.5198965559472
 20
-385.0594545942847
 30
0.0
 10
143.4742015593313
 20
-394.0137595976676
 30
0.0
 10
154.5198965559479
 20
-394.0137595976676
 30
0.0
  0
SPLINE
  5
B7
330
A5
100
AcDbEntity
  8
Layer 1
 62
     1
420
 16711680
370
     0
100
AcDbSpline
210
0.0
220
0.0
230
1.0
 70
     8
 71
     3
 72
     8
 73
     4
 74
     0
 42
0.0000000001
 43
0.0000000001
 40
0.0
 40
0.0
 40
0.0
 40
0.0
 40
1.0
 40
1.0
 40
1.0
 40
1.0
 10
354.519896555946
 20
-394.0137595976676
 30
0.0
 10
365.5655915525625
 20
-394.0137595976676
 30
0.0
 10
374.5198965559461
 20
-385.0594545942847
 30
0.0
 10
374.5198965559461
 20
-374.0137595976676
 30
0.0
  0
SPLINE
  5
B8
330
A5
100
AcDbEntity
  8
Layer 1
 62
     1
420
 16711680
370
     0
100
AcDbSpline
210
0.0
220
0.0
230
1.0
 70
     8
 71
     3
 72
     8
 73
     4
 74
     0
 42
0.0000000001
 43
0.0000000001
 40
0.0
 40
0.0
 40
0.0
 40
0.0
 40
1.0
 40
1.0
 40
1.0
 40
1.0
 10
484.519896555946
 20
-369.013759597668
 30
0.0
 10
495.5655915525626
 20
-369.013759597668
 30
0.0
 10
504.519896555946
 20
-360.0594545942845
 30
0.0
 10
504.519896555946
 20
-349.0137595976692
 30
0.0
  0
ENDBLK
  5
A8
330
A5
100
AcDbEntity
  8
0
100
AcDbBlockEnd
  0
BLOCK
  5
BB
330
B9
100
AcDbEntity
  8
0
100
AcDbBlockBegin
  2
Block_3
 70
     0
 10
0.0
 20
0.0
 30
0.0
  3
Block_3
  1

  0
SPLINE
  5
BD
330
B9
100
AcDbEntity
  8
Layer 1
 62
   250
420
  2301728
370
     0
100
AcDbSpline
210
0.0
220
0.0
230
1.0
 70
     9
 71
     3
 72
    80
 73
    76
 74
     0
 42
0.0000000001
 43
0.0000000001
 40
0.0
 40
0.0
 40
0.0
 40
0.0
 40
1.0
 40
1.0
 40
1.0
 40
2.0
 40
2.0
 40
2.0
 40
3.0
 40
3.0
 40
3.0
 40
4.0
 40
4.0
 40
4.0
 40
5.0
 40
5.0
 40
5.0
 40
6.0
 40
6.0
 40
6.0
 40
7.0
 40
7.0
 40
7.0
 40
8.0
 40
8.0
 40
8.0
 40
9.0
 40
9.0
 40
9.0
 40
10.0
 40
10.0
 40
10.0
 40
11.0
 40
11.0
 40
11.0
 40
12.0
 40
12.0
 40
12.0
 40
13.0
 40
13.0
 40
13.0
 40
14.0
 40
14.0
 40
14.0
 40
15.0
 40
15.0
 40
15.0
 40
16.0
 40
16.0
 40
16.0
 40
17.0
 40
17.0
 40
17.0
 40
18.0
 40
18.0
 40
18.0
 40
19.0
 40
19.0
 40
19.0
 40
20.0
 40
20.0
 40
20.0
 40
21.0
 40
21.0
 40
21.0
 40
22.0
 40
22.0
 40
22.0
 40
23.0
 40
23.0
 40
23.0
 40
24.0
 40
24.0
 40
24.0
 40
25.0
 40
25.0
 40
25.0
 40
25.0
 10
397.6306233206179
 20
-131.622392121971
 30
0.0
 10
397.6306233206179
 20
-131.622392121971
 30
0.0
 10
401.5654374269956
 20
-128.1500784535713
 30
0.0
 10
401.5654374269956
 20
-128.1500784535713
 30
0.0
 10
402.9470939138506
 20
-130.0727855666121
 30
0.0
 10
404.3535546170363
 20
-131.034311027109
 30
0.0
 10
405.7855085554804
 20
-131.0343103251763
 30
0.0
 10
406.4826236269206
 20
-131.0343099834558
 30
0.0
 10
407.0526145833424
 20
-130.8474132739763
 30
0.0
 10
407.4961704442586
 20
-130.4744814702695
 30
0.0
 10
407.9397263050059
 20
-130.1012051570154
 30
0.0
 10
408.1614179932865
 20
-129.6805588895947
 30
0.0
 10
408.1614177639529
 20
-129.2127149226978
 30
0.0
 10
408.1614175344498
 20
-128.7445264462523
 30
0.0
 10
408.003115179898
 20
-128.3018317539961
 30
0.0
 10
407.6861661906622
 20
-127.884458591324
 30
0.0
 10
407.2555289821003
 20
-127.3277313720026
 30
0.0
 10
405.9565551433872
 20
-126.1322838753679
 30
0.0
 10
403.7899336937023
 20
-124.2982883558562
 30
0.0
 10
401.7626664243683
 20
-122.6029578613156
 30
0.0
 10
400.533455831296
 20
-121.5341175895662
 30
0.0
 10
400.1023019143938
 20
-121.0915952858342
 30
0.0
 10
399.0255367870867
 20
-120.0034624046402
 30
0.0
 10
398.2621031175476
 20
-118.9630439423237
 30
0.0
 10
397.8120009057006
 20
-117.9701676441113
 30
0.0
 10
397.3622432032326
 20
-116.9769468361811
 30
0.0
 10
397.1372779364238
 20
-115.8924308877007
 30
0.0
 10
397.1372773597981
 20
-114.7161030342625
 30
0.0
 10
397.1372762373613
 20
-112.4263203199912
 30
0.0
 10
397.9287859980541
 20
-110.5351347653709
 30
0.0
 10
399.5116343871825
 20
-109.0427186252608
 30
0.0
 10
401.0946550308316
 20
-107.549785720743
 30
0.0
 10
403.1587836250308
 20
-106.8035770268177
 30
0.0
 10
405.7040201695333
 20
-106.8035757791623
 30
0.0
 10
407.692184774071
 20
-106.8035748045793
 30
0.0
 10
409.4238622585234
 20
-107.2907104573384
 30
0.0
 10
410.8992248774923
 20
-108.2646382278074
 30
0.0
 10
412.3744152416907
 20
-109.2385659983607
 30
0.0
 10
413.6377325065321
 20
-110.769393557963
 30
0.0
 10
414.6888321622151
 20
-112.8566041424606
 30
0.0
 10
414.6888321622151
 20
-112.8566041424606
 30
0.0
 10
410.2229562054648
 20
-115.5510155106131
 30
0.0
 10
410.2229562054648
 20
-115.5510155106131
 30
0.0
 10
408.8798845213057
 20
-113.084155546763
 30
0.0
 10
407.3342418272723
 20
-111.850812120706
 30
0.0
 10
405.5860281232822
 20
-111.8508129776668
 30
0.0
 10
404.6739390935623
 20
-111.8508134247658
 30
0.0
 10
403.9072332236081
 20
-112.1166029172863
 30
0.0
 10
403.286427277572
 20
-112.6478369454264
 30
0.0
 10
402.6656213315366
 20
-113.1790709735661
 30
0.0
 10
402.355218528999
 20
-113.7924703768717
 30
0.0
 10
402.3552188701275
 20
-114.4883796648921
 30
0.0
 10
402.3552191800996
 20
-115.1207269412097
 30
0.0
 10
402.5898304926165
 20
-115.753074102523
 30
0.0
 10
403.0585360435263
 20
-116.3857656586336
 30
0.0
 10
403.5275861038992
 20
-117.0182849598005
 30
0.0
 10
404.5600816951173
 20
-117.9858395207114
 30
0.0
 10
406.1567118365306
 20
-119.2889461053516
 30
0.0
 10
409.1980433461369
 20
-121.7680353257001
 30
0.0
 10
411.1620932203
 20
-123.6816126502202
 30
0.0
 10
412.0492059681416
 20
-125.0288168048715
 30
0.0
 10
412.9363187159826
 20
-126.376020959523
 30
0.0
 10
413.3795309089443
 20
-127.7199524910596
 30
0.0
 10
413.3795315662963
 20
-129.0609559086928
 30
0.0
 10
413.3795325149547
 20
-130.9962382975319
 30
0.0
 10
412.6419383854597
 20
-132.6566024282114
 30
0.0
 10
411.1662324133193
 20
-134.0417037914361
 30
0.0
 10
409.6910432055024
 20
-135.4268051544073
 30
0.0
 10
407.8703105810714
 20
-136.1194424942258
 30
0.0
 10
405.7045513042691
 20
-136.1194435558645
 30
0.0
 10
404.3113546900379
 20
-136.1194442387995
 30
0.0
 10
402.9846482605144
 20
-135.7968116969466
 30
0.0
 10
401.7246042705647
 20
-135.1517181849975
 30
0.0
 10
400.4645602806155
 20
-134.5066246730483
 30
0.0
 10
399.0999573821971
 20
-133.3301252337532
 30
0.0
 10
397.6306233206179
 20
-131.622392121971
 30
0.0
  0
HATCH
  5
BE
330
B9
100
AcDbEntity
  8
Layer 1
 62
    18
420
        0
440
 33554687
100
AcDbHatch
 10
0.0
 20
0.0
 30
0.0
210
0.0
220
0.0
230
1.0
  2
SOLID
 70
     1
 71
     1
 91
        1
 92
        1
 93
        1
 72
     4
 94
        3
 73
     0
 74
     0
 95
       80
 96
       76
 40
0.0
 40
0.0
 40
0.0
 40
0.0
 40
1.0
 40
1.0
 40
1.0
 40
2.0
 40
2.0
 40
2.0
 40
3.0
 40
3.0
 40
3.0
 40
4.0
 40
4.0
 40
4.0
 40
5.0
 40
5.0
 40
5.0
 40
6.0
 40
6.0
 40
6.0
 40
7.0
 40
7.0
 40
7.0
 40
8.0
 40
8.0
 40
8.0
 40
9.0
 40
9.0
 40
9.0
 40
10.0
 40
10.0
 40
10.0
 40
11.0
 40
11.0
 40
11.0
 40
12.0
 40
12.0
 40
12.0
 40
13.0
 40
13.0
 40
13.0
 40
14.0
 40
14.0
 40
14.0
 40
15.0
 40
15.0
 40
15.0
 40
16.0
 40
16.0
 40
16.0
 40
17.0
 40
17.0
 40
17.0
 40
18.0
 40
18.0
 40
18.0
 40
19.0
 40
19.0
 40
19.0
 40
20.0
 40
20.0
 40
20.0
 40
21.0
 40
21.0
 40
21.0
 40
22.0
 40
22.0
 40
22.0
 40
23.0
 40
23.0
 40
23.0
 40
24.0
 40
24.0
 40
24.0
 40
25.0
 40
25.0
 40
25.0
 40
25.0
 10
397.6306233206179
 20
-131.622392121971
 10
397.6306233206179
 20
-131.622392121971
 10
401.5654374269956
 20
-128.1500784535713
 10
401.5654374269956
 20
-128.1500784535713
 10
402.9470939138506
 20
-130.0727855666121
 10
404.3535546170363
 20
-131.034311027109
 10
405.7855085554804
 20
-131.0343103251763
 10
406.4826236269206
 20
-131.0343099834558
 10
407.0526145833424
 20
-130.8474132739763
 10
407.4961704442586
 20
-130.4744814702695
 10
407.9397263050059
 20
-130.1012051570154
 10
408.1614179932865
 20
-129.6805588895947
 10
408.1614177639529
 20
-129.2127149226978
 10
408.1614175344498
 20
-128.7445264462523
 10
408.003115179898
 20
-128.3018317539961
 10
407.6861661906622
 20
-127.884458591324
 10
407.2555289821003
 20
-127.3277313720026
 10
405.9565551433872
 20
-126.1322838753679
 10
403.7899336937023
 20
-124.2982883558562
 10
401.7626664243683
 20
-122.6029578613156
 10
400.533455831296
 20
-121.5341175895662
 10
400.1023019143938
 20
-121.0915952858342
 10
399.0255367870867
 20
-120.0034624046402
 10
398.2621031175476
 20
-118.9630439423237
 10
397.8120009057006
 20
-117.9701676441113
 10
397.3622432032326
 20
-116.9769468361811
 10
397.1372779364238
 20
-115.8924308877007
 10
397.1372773597981
 20
-114.7161030342625
 10
397.1372762373613
 20
-112.4263203199912
 10
397.9287859980541
 20
-110.5351347653709
 10
399.5116343871825
 20
-109.0427186252608
 10
401.0946550308316
 20
-107.549785720743
 10
403.1587836250308
 20
-106.8035770268177
 10
405.7040201695333
 20
-106.8035757791623
 10
407.692184774071
 20
-106.8035748045793
 10
409.4238622585234
 20
-107.2907104573384
 10
410.8992248774923
 20
-108.2646382278074
 10
412.3744152416907
 20
-109.2385659983607
 10
413.6377325065321
 20
-110.769393557963
 10
414.6888321622151
 20
-112.8566041424606
 10
414.6888321622151
 20
-112.8566041424606
 10
410.2229562054648
 20
-115.5510155106131
 10
410.2229562054648
 20
-115.5510155106131
 10
408.8798845213057
 20
-113.084155546763
 10
407.3342418272723
 20
-111.850812120706
 10
405.5860281232822
 20
-111.8508129776668
 10
404.6739390935623
 20
-111.8508134247658
 10
403.9072332236081
 20
-112.1166029172863
 10
403.286427277572
 20
-112.6478369454264
 10
402.6656213315366
 20
-113.1790709735661
 10
402.355218528999
 20
-113.7924703768717
 10
402.3552188701275
 20
-114.4883796648921
 10
402.3552191800996
 20
-115.1207269412097
 10
402.5898304926165
 20
-115.753074102523
 10
403.0585360435263
 20
-116.3857656586336
 10
403.5275861038992
 20
-117.0182849598005
 10
404.5600816951173
 20
-117.9858395207114
 10
406.1567118365306
 20
-119.2889461053516
 10
409.1980433461369
 20
-121.7680353257001
 10
411.1620932203
 20
-123.6816126502202
 10
412.0492059681416
 20
-125.0288168048715
 10
412.9363187159826
 20
-126.376020959523
 10
413.3795309089443
 20
-127.7199524910596
 10
413.3795315662963
 20
-129.0609559086928
 10
413.3795325149547
 20
-130.9962382975319
 10
412.6419383854597
 20
-132.6566024282114
 10
411.1662324133193
 20
-134.0417037914361
 10
409.6910432055024
 20
-135.4268051544073
 10
407.8703105810714
 20
-136.1194424942258
 10
405.7045513042691
 20
-136.1194435558645
 10
404.3113546900379
 20
-136.1194442387995
 10
402.9846482605144
 20
-135.7968116969466
 10
401.7246042705647
 20
-135.1517181849975
 10
400.4645602806155
 20
-134.5066246730483
 10
399.0999573821971
 20
-133.3301252337532
 10
397.6306233206179
 20
-131.622392121971
 97
        0
 97
        1
330
BD
 75
     2
 76
     1
 98
        1
 10
0.0
 20
0.0
450
        0
451
        0
460
0.0
461
0.0
452
        0
462
0.0
453
        0
470

  0
SPLINE
  5
BF
330
B9
100
AcDbEntity
  8
Layer 1
 62
   250
420
  2301728
370
     0
100
AcDbSpline
210
0.0
220
0.0
230
1.0
 70
    11
 71
     3
 72
    17
 73
    13
 74
     0
 42
0.0000000001
 43
0.0000000001
 40
0.0
 40
0.0
 40
0.0
 40
0.0
 40
1.0
 40
1.0
 40
1.0
 40
2.0
 40
2.0
 40
2.0
 40
3.0
 40
3.0
 40
3.0
 40
4.0
 40
4.0
 40
4.0
 40
4.0
 10
392.4504073544754
 20
-135.4173395930502
 30
0.0
 10
392.4504073544754
 20
-135.4173395930502
 30
0.0
 10
387.1754494022352
 20
-135.4173421787944
 30
0.0
 10
387.1754494022352
 20
-135.4173421787944
 30
0.0
 10
387.1754494022352
 20
-135.4173421787944
 30
0.0
 10
387.1754357201618
 20
-107.5056953216266
 30
0.0
 10
387.1754357201618
 20
-107.5056953216266
 30
0.0
 10
387.1754357201618
 20
-107.5056953216266
 30
0.0
 10
392.4503936724021
 20
-107.5056927358826
 30
0.0
 10
392.4503936724021
 20
-107.5056927358826
 30
0.0
 10
392.4503936724021
 20
-107.5056927358826
 30
0.0
 10
392.4504073544754
 20
-135.4173395930502
 30
0.0
 10
392.4504073544754
 20
-135.4173395930502
 30
0.0
  0
HATCH
  5
C0
330
B9
100
AcDbEntity
  8
Layer 1
 62
    18
420
        0
440
 33554687
100
AcDbHatch
 10
0.0
 20
0.0
 30
0.0
210
0.0
220
0.0
230
1.0
  2
SOLID
 70
     1
 71
     1
 91
        1
 92
        1
 93
        1
 72
     4
 94
        3
 73
     0
 74
     0
 95
       17
 96
       13
 40
0.0
 40
0.0
 40
0.0
 40
0.0
 40
1.0
 40
1.0
 40
1.0
 40
2.0
 40
2.0
 40
2.0
 40
3.0
 40
3.0
 40
3.0
 40
4.0
 40
4.0
 40
4.0
 40
4.0
 10
392.4504073544754
 20
-135.4173395930502
 10
392.4504073544754
 20
-135.4173395930502
 10
387.1754494022352
 20
-135.4173421787944
 10
387.1754494022352
 20
-135.4173421787944
 10
387.1754494022352
 20
-135.4173421787944
 10
387.1754357201618
 20
-107.5056953216266
 10
387.1754357201618
 20
-107.5056953216266
 10
387.1754357201618
 20
-107.5056953216266
 10
392.4503936724021
 20
-107.5056927358826
 10
392.4503936724021
 20
-107.5056927358826
 10
392.4503936724021
 20
-107.5056927358826
 10
392.4504073544754
 20
-135.4173395930502
 10
392.4504073544754
 20
-135.4173395930502
 97
        0
 97
        1
330
BF
 75
     2
 76
     1
 98
        1
 10
0.0
 20
0.0
450
        0
451
        0
460
0.0
461
0.0
452
        0
462
0.0
453
        0
470

  0
SPLINE
  5
C1
330
B9
100
AcDbEntity
  8
Layer 1
 62
   250
420
  2301728
370
     0
100
AcDbSpline
210
0.0
220
0.0
230
1.0
 70
    11
 71
     3
 72
    35
 73
    31
 74
     0
 42
0.0000000001
 43
0.0000000001
 40
0.0
 40
0.0
 40
0.0
 40
0.0
 40
1.0
 40
1.0
 40
1.0
 40
2.0
 40
2.0
 40
2.0
 40
3.0
 40
3.0
 40
3.0
 40
4.0
 40
4.0
 40
4.0
 40
5.0
 40
5.0
 40
5.0
 40
6.0
 40
6.0
 40
6.0
 40
7.0
 40
7.0
 40
7.0
 40
8.0
 40
8.0
 40
8.0
 40
9.0
 40
9.0
 40
9.0
 40
10.0
 40
10.0
 40
10.0
 40
10.0
 10
381.1796052197101
 20
-135.4173451179114
 30
0.0
 10
381.1796052197101
 20
-135.4173451179114
 30
0.0
 10
376.0831032136058
 20
-135.4173476161776
 30
0.0
 10
376.0831032136058
 20
-135.4173476161776
 30
0.0
 10
376.0831032136058
 20
-135.4173476161776
 30
0.0
 10
364.1403262009039
 20
-117.049999145598
 30
0.0
 10
364.1403262009039
 20
-117.049999145598
 30
0.0
 10
364.1403262009039
 20
-117.049999145598
 30
0.0
 10
364.1403352044387
 20
-135.4173534704314
 30
0.0
 10
364.1403352044387
 20
-135.4173534704314
 30
0.0
 10
364.1403352044387
 20
-135.4173534704314
 30
0.0
 10
358.8274812018607
 20
-135.4173560747515
 30
0.0
 10
358.8274812018607
 20
-135.4173560747515
 30
0.0
 10
358.8274812018607
 20
-135.4173560747515
 30
0.0
 10
358.8274675197873
 20
-107.5057092175833
 30
0.0
 10
358.8274675197873
 20
-107.5057092175833
 30
0.0
 10
358.8274675197873
 20
-107.5057092175833
 30
0.0
 10
363.9384389269297
 20
-107.5057067122244
 30
0.0
 10
363.9384389269297
 20
-107.5057067122244
 30
0.0
 10
363.9384389269297
 20
-107.5057067122244
 30
0.0
 10
375.8667465107272
 20
-125.8162111143901
 30
0.0
 10
375.8667465107272
 20
-125.8162111143901
 30
0.0
 10
375.8667465107272
 20
-125.8162111143901
 30
0.0
 10
375.8667375350549
 20
-107.5057008650637
 30
0.0
 10
375.8667375350549
 20
-107.5057008650637
 30
0.0
 10
375.8667375350549
 20
-107.5057008650637
 30
0.0
 10
381.179591537633
 20
-107.5056982607432
 30
0.0
 10
381.179591537633
 20
-107.5056982607432
 30
0.0
 10
381.179591537633
 20
-107.5056982607432
 30
0.0
 10
381.1796052197101
 20
-135.4173451179114
 30
0.0
 10
381.1796052197101
 20
-135.4173451179114
 30
0.0
  0
HATCH
  5
C2
330
B9
100
AcDbEntity
  8
Layer 1
 62
    18
420
        0
440
 33554687
100
AcDbHatch
 10
0.0
 20
0.0
 30
0.0
210
0.0
220
0.0
230
1.0
  2
SOLID
 70
     1
 71
     1
 91
        1
 92
        1
 93
        1
 72
     4
 94
        3
 73
     0
 74
     0
 95
       35
 96
       31
 40
0.0
 40
0.0
 40
0.0
 40
0.0
 40
1.0
 40
1.0
 40
1.0
 40
2.0
 40
2.0
 40
2.0
 40
3.0
 40
3.0
 40
3.0
 40
4.0
 40
4.0
 40
4.0
 40
5.0
 40
5.0
 40
5.0
 40
6.0
 40
6.0
 40
6.0
 40
7.0
 40
7.0
 40
7.0
 40
8.0
 40
8.0
 40
8.0
 40
9.0
 40
9.0
 40
9.0
 40
10.0
 40
10.0
 40
10.0
 40
10.0
 10
381.1796052197101
 20
-135.4173451179114
 10
381.1796052197101
 20
-135.4173451179114
 10
376.0831032136058
 20
-135.4173476161776
 10
376.0831032136058
 20
-135.4173476161776
 10
376.0831032136058
 20
-135.4173476161776
 10
364.1403262009039
 20
-117.049999145598
 10
364.1403262009039
 20
-117.049999145598
 10
364.1403262009039
 20
-117.049999145598
 10
364.1403352044387
 20
-135.4173534704314
 10
364.1403352044387
 20
-135.4173534704314
 10
364.1403352044387
 20
-135.4173534704314
 10
358.8274812018607
 20
-135.4173560747515
 10
358.8274812018607
 20
-135.4173560747515
 10
358.8274812018607
 20
-135.4173560747515
 10
358.8274675197873
 20
-107.5057092175833
 10
358.8274675197873
 20
-107.5057092175833
 10
358.8274675197873
 20
-107.5057092175833
 10
363.9384389269297
 20
-107.5057067122244
 10
363.9384389269297
 20
-107.5057067122244
 10
363.9384389269297
 20
-107.5057067122244
 10
375.8667465107272
 20
-125.8162111143901
 10
375.8667465107272
 20
-125.8162111143901
 10
375.8667465107272
 20
-125.8162111143901
 10
375.8667375350549
 20
-107.5057008650637
 10
375.8667375350549
 20
-107.5057008650637
 10
375.8667375350549
 20
-107.5057008650637
 10
381.179591537633
 20
-107.5056982607432
 10
381.179591537633
 20
-107.5056982607432
 10
381.179591537633
 20
-107.5056982607432
 10
381.1796052197101
 20
-135.4173451179114
 10
381.1796052197101
 20
-135.4173451179114
 97
        0
 97
        1
330
C1
 75
     2
 76
     1
 98
        1
 10
0.0
 20
0.0
450
        0
451
        0
460
0.0
461
0.0
452
        0
462
0.0
453
        0
470

  0
SPLINE
  5
C3
330
B9
100
AcDbEntity
  8
Layer 1
 62
   250
420
  2301728
370
     0
100
AcDbSpline
210
0.0
220
0.0
230
1.0
 70
     9
 71
     3
 72
    71
 73
    67
 74
     0
 42
0.0000000001
 43
0.0000000001
 40
0.0
 40
0.0
 40
0.0
 40
0.0
 40
1.0
 40
1.0
 40
1.0
 40
2.0
 40
2.0
 40
2.0
 40
3.0
 40
3.0
 40
3.0
 40
4.0
 40
4.0
 40
4.0
 40
5.0
 40
5.0
 40
5.0
 40
6.0
 40
6.0
 40
6.0
 40
7.0
 40
7.0
 40
7.0
 40
8.0
 40
8.0
 40
8.0
 40
9.0
 40
9.0
 40
9.0
 40
10.0
 40
10.0
 40
10.0
 40
11.0
 40
11.0
 40
11.0
 40
12.0
 40
12.0
 40
12.0
 40
13.0
 40
13.0
 40
13.0
 40
14.0
 40
14.0
 40
14.0
 40
15.0
 40
15.0
 40
15.0
 40
16.0
 40
16.0
 40
16.0
 40
17.0
 40
17.0
 40
17.0
 40
18.0
 40
18.0
 40
18.0
 40
19.0
 40
19.0
 40
19.0
 40
20.0
 40
20.0
 40
20.0
 40
21.0
 40
21.0
 40
21.0
 40
22.0
 40
22.0
 40
22.0
 40
22.0
 10
326.6843935826495
 20
-130.8634723638692
 30
0.0
 10
326.6843935826495
 20
-130.8634723638692
 30
0.0
 10
330.4257654659019
 20
-127.1634379787184
 30
0.0
 10
330.4257654659019
 20
-127.1634379787184
 30
0.0
 10
332.7934085659526
 20
-129.668193490669
 30
0.0
 10
335.5532751730503
 20
-130.9204843466924
 30
0.0
 10
338.7057097968276
 20
-130.9204828013926
 30
0.0
 10
341.4535179558622
 20
-130.920481454438
 30
0.0
 10
343.7544967839523
 20
-130.0095970802159
 30
0.0
 10
345.6093353002795
 20
-128.1880019331618
 30
0.0
 10
347.4640015619159
 20
-126.3665790409671
 30
0.0
 10
348.3914201813486
 20
-124.1527602275319
 30
0.0
 10
348.391418903971
 20
-121.5468900024889
 30
0.0
 10
348.391417583192
 20
-118.8524808234757
 30
0.0
 10
347.4290290400783
 20
-116.5690720076071
 30
0.0
 10
345.5042532748819
 20
-114.6971803192069
 30
0.0
 10
343.5794775094321
 20
-112.8247718664836
 30
0.0
 10
341.2051172422466
 20
-111.8889128418087
 30
0.0
 10
338.3811724729879
 20
-111.8889142260851
 30
0.0
 10
336.5449365793498
 20
-111.8889151261934
 30
0.0
 10
334.9967108573352
 20
-112.2745943246956
 30
0.0
 10
333.7366675618873
 20
-113.0462963310554
 30
0.0
 10
332.476796521129
 20
-113.8178260825563
 30
0.0
 10
331.4606661999182
 20
-115.0258493125585
 30
0.0
 10
330.6881043435656
 20
-116.6705382759212
 30
0.0
 10
330.6881043435656
 20
-116.6705382759212
 30
0.0
 10
338.771331880606
 20
-116.6705343135849
 30
0.0
 10
338.771331880606
 20
-116.6705343135849
 30
0.0
 10
338.771331880606
 20
-116.6705343135849
 30
0.0
 10
338.7713343267743
 20
-121.6607551239684
 30
0.0
 10
338.7713343267743
 20
-121.6607551239684
 30
0.0
 10
338.7713343267743
 20
-121.6607551239684
 30
0.0
 10
324.7299864027686
 20
-121.6607620069295
 30
0.0
 10
324.7299864027686
 20
-121.6607620069295
 30
0.0
 10
324.7299864027686
 20
-121.6607620069295
 30
0.0
 10
324.6920897758039
 20
-120.4844341720678
 30
0.0
 10
324.6920897758039
 20
-120.4844341720678
 30
0.0
 10
324.69208857898
 20
-118.0428950016712
 30
0.0
 10
325.3247792300842
 20
-115.7279627802171
 30
0.0
 10
326.5894727100194
 20
-113.5396375080432
 30
0.0
 10
327.8546829541926
 20
-111.3511399808419
 30
0.0
 10
329.4926527841123
 20
-109.6813013962202
 30
0.0
 10
331.5038989641873
 20
-108.5302940087011
 30
0.0
 10
333.5153173991193
 20
-107.3794588758713
 30
0.0
 10
335.874690759917
 20
-106.8036100089648
 30
0.0
 10
338.5815022826778
 20
-106.8036086821066
 30
0.0
 10
341.4784830762237
 20
-106.8036072620286
 30
0.0
 10
344.0621327439228
 20
-107.4330249406986
 30
0.0
 10
346.3326235404646
 20
-108.6916894632577
 30
0.0
 10
348.6034588464701
 20
-109.9501817308734
 30
0.0
 10
350.3997325114787
 20
-111.7433530504268
 30
0.0
 10
351.7214445353203
 20
-114.0708589123685
 30
0.0
 10
353.0435010687104
 20
-116.3983647741422
 30
0.0
 10
353.704271613718
 20
-118.9094945494361
 30
0.0
 10
353.7042729344969
 20
-121.6039037284497
 30
0.0
 10
353.7042747450161
 20
-125.2973905981857
 30
0.0
 10
352.4836789896983
 20
-128.5106317556052
 30
0.0
 10
350.0421411586572
 20
-131.2429381817807
 30
0.0
 10
347.1456787230314
 20
-134.4939039562603
 30
0.0
 10
343.3758837851381
 20
-136.1194741088999
 30
0.0
 10
338.733273109216
 20
-136.1194763846724
 30
0.0
 10
336.3044807921155
 20
-136.1194775752481
 30
0.0
 10
334.0341626472068
 20
-135.670410491638
 30
0.0
 10
331.9214574006179
 20
-134.7722751342654
 30
0.0
 10
330.1377588410958
 20
-134.0133214732199
 30
0.0
 10
328.3921283199468
 20
-132.7102149616189
 30
0.0
 10
326.6843935826495
 20
-130.8634723638692
 30
0.0
  0
HATCH
  5
C4
330
B9
100
AcDbEntity
  8
Layer 1
 62
    18
420
        0
440
 33554687
100
AcDbHatch
 10
0.0
 20
0.0
 30
0.0
210
0.0
220
0.0
230
1.0
  2
SOLID
 70
     1
 71
     1
 91
        1
 92
        1
 93
        1
 72
     4
 94
        3
 73
     0
 74
     0
 95
       71
 96
       67
 40
0.0
 40
0.0
 40
0.0
 40
0.0
 40
1.0
 40
1.0
 40
1.0
 40
2.0
 40
2.0
 40
2.0
 40
3.0
 40
3.0
 40
3.0
 40
4.0
 40
4.0
 40
4.0
 40
5.0
 40
5.0
 40
5.0
 40
6.0
 40
6.0
 40
6.0
 40
7.0
 40
7.0
 40
7.0
 40
8.0
 40
8.0
 40
8.0
 40
9.0
 40
9.0
 40
9.0
 40
10.0
 40
10.0
 40
10.0
 40
11.0
 40
11.0
 40
11.0
 40
12.0
 40
12.0
 40
12.0
 40
13.0
 40
13.0
 40
13.0
 40
14.0
 40
14.0
 40
14.0
 40
15.0
 40
15.0
 40
15.0
 40
16.0
 40
16.0
 40
16.0
 40
17.0
 40
17.0
 40
17.0
 40
18.0
 40
18.0
 40
18.0
 40
19.0
 40
19.0
 40
19.0
 40
20.0
 40
20.0
 40
20.0
 40
21.0
 40
21.0
 40
21.0
 40
22.0
 40
22.0
 40
22.0
 40
22.0
 10
326.6843935826495
 20
-130.8634723638692
 10
326.6843935826495
 20
-130.8634723638692
 10
330.4257654659019
 20
-127.1634379787184
 10
330.4257654659019
 20
-127.1634379787184
 10
332.7934085659526
 20
-129.668193490669
 10
335.5532751730503
 20
-130.9204843466924
 10
338.7057097968276
 20
-130.9204828013926
 10
341.4535179558622
 20
-130.920481454438
 10
343.7544967839523
 20
-130.0095970802159
 10
345.6093353002795
 20
-128.1880019331618
 10
347.4640015619159
 20
-126.3665790409671
 10
348.3914201813486
 20
-124.1527602275319
 10
348.391418903971
 20
-121.5468900024889
 10
348.391417583192
 20
-118.8524808234757
 10
347.4290290400783
 20
-116.5690720076071
 10
345.5042532748819
 20
-114.6971803192069
 10
343.5794775094321
 20
-112.8247718664836
 10
341.2051172422466
 20
-111.8889128418087
 10
338.3811724729879
 20
-111.8889142260851
 10
336.5449365793498
 20
-111.8889151261934
 10
334.9967108573352
 20
-112.2745943246956
 10
333.7366675618873
 20
-113.0462963310554
 10
332.476796521129
 20
-113.8178260825563
 10
331.4606661999182
 20
-115.0258493125585
 10
330.6881043435656
 20
-116.6705382759212
 10
330.6881043435656
 20
-116.6705382759212
 10
338.771331880606
 20
-116.6705343135849
 10
338.771331880606
 20
-116.6705343135849
 10
338.771331880606
 20
-116.6705343135849
 10
338.7713343267743
 20
-121.6607551239684
 10
338.7713343267743
 20
-121.6607551239684
 10
338.7713343267743
 20
-121.6607551239684
 10
324.7299864027686
 20
-121.6607620069295
 10
324.7299864027686
 20
-121.6607620069295
 10
324.7299864027686
 20
-121.6607620069295
 10
324.6920897758039
 20
-120.4844341720678
 10
324.6920897758039
 20
-120.4844341720678
 10
324.69208857898
 20
-118.0428950016712
 10
325.3247792300842
 20
-115.7279627802171
 10
326.5894727100194
 20
-113.5396375080432
 10
327.8546829541926
 20
-111.3511399808419
 10
329.4926527841123
 20
-109.6813013962202
 10
331.5038989641873
 20
-108.5302940087011
 10
333.5153173991193
 20
-107.3794588758713
 10
335.874690759917
 20
-106.8036100089648
 10
338.5815022826778
 20
-106.8036086821066
 10
341.4784830762237
 20
-106.8036072620286
 10
344.0621327439228
 20
-107.4330249406986
 10
346.3326235404646
 20
-108.6916894632577
 10
348.6034588464701
 20
-109.9501817308734
 10
350.3997325114787
 20
-111.7433530504268
 10
351.7214445353203
 20
-114.0708589123685
 10
353.0435010687104
 20
-116.3983647741422
 10
353.704271613718
 20
-118.9094945494361
 10
353.7042729344969
 20
-121.6039037284497
 10
353.7042747450161
 20
-125.2973905981857
 10
352.4836789896983
 20
-128.5106317556052
 10
350.0421411586572
 20
-131.2429381817807
 10
347.1456787230314
 20
-134.4939039562603
 10
343.3758837851381
 20
-136.1194741088999
 10
338.733273109216
 20
-136.1194763846724
 10
336.3044807921155
 20
-136.1194775752481
 10
334.0341626472068
 20
-135.670410491638
 10
331.9214574006179
 20
-134.7722751342654
 10
330.1377588410958
 20
-134.0133214732199
 10
328.3921283199468
 20
-132.7102149616189
 10
326.6843935826495
 20
-130.8634723638692
 97
        0
 97
        1
330
C3
 75
     2
 76
     1
 98
        1
 10
0.0
 20
0.0
450
        0
451
        0
460
0.0
461
0.0
452
        0
462
0.0
453
        0
470

  0
SPLINE
  5
C5
330
B9
100
AcDbEntity
  8
Layer 1
 62
   250
420
  2301728
370
     0
100
AcDbSpline
210
0.0
220
0.0
230
1.0
 70
    11
 71
     3
 72
    23
 73
    19
 74
     0
 42
0.0000000001
 43
0.0000000001
 40
0.0
 40
0.0
 40
0.0
 40
0.0
 40
1.0
 40
1.0
 40
1.0
 40
2.0
 40
2.0
 40
2.0
 40
3.0
 40
3.0
 40
3.0
 40
4.0
 40
4.0
 40
4.0
 40
5.0
 40
5.0
 40
5.0
 40
6.0
 40
6.0
 40
6.0
 40
6.0
 10
319.8155644364458
 20
-135.4173751980945
 30
0.0
 10
319.8155644364458
 20
-135.4173751980945
 30
0.0
 10
314.5027104338684
 20
-135.417377802415
 30
0.0
 10
314.5027104338684
 20
-135.417377802415
 30
0.0
 10
314.5027104338684
 20
-135.417377802415
 30
0.0
 10
314.502699235198
 20
-112.5719161110803
 30
0.0
 10
314.502699235198
 20
-112.5719161110803
 30
0.0
 10
314.502699235198
 20
-112.5719161110803
 30
0.0
 10
306.7610529155188
 20
-112.5719199059761
 30
0.0
 10
306.7610529155188
 20
-112.5719199059761
 30
0.0
 10
306.7610529155188
 20
-112.5719199059761
 30
0.0
 10
306.7610504321146
 20
-107.5057347401426
 30
0.0
 10
306.7610504321146
 20
-107.5057347401426
 30
0.0
 10
306.7610504321146
 20
-107.5057347401426
 30
0.0
 10
319.8155507543699
 20
-107.5057283409263
 30
0.0
 10
319.8155507543699
 20
-107.5057283409263
 30
0.0
 10
319.8155507543699
 20
-107.5057283409263
 30
0.0
 10
319.8155644364458
 20
-135.4173751980945
 30
0.0
 10
319.8155644364458
 20
-135.4173751980945
 30
0.0
  0
HATCH
  5
C6
330
B9
100
AcDbEntity
  8
Layer 1
 62
    18
420
        0
440
 33554687
100
AcDbHatch
 10
0.0
 20
0.0
 30
0.0
210
0.0
220
0.0
230
1.0
  2
SOLID
 70
     1
 71
     1
 91
        1
 92
        1
 93
        1
 72
     4
 94
        3
 73
     0
 74
     0
 95
       23
 96
       19
 40
0.0
 40
0.0
 40
0.0
 40
0.0
 40
1.0
 40
1.0
 40
1.0
 40
2.0
 40
2.0
 40
2.0
 40
3.0
 40
3.0
 40
3.0
 40
4.0
 40
4.0
 40
4.0
 40
5.0
 40
5.0
 40
5.0
 40
6.0
 40
6.0
 40
6.0
 40
6.0
 10
319.8155644364458
 20
-135.4173751980945
 10
319.8155644364458
 20
-135.4173751980945
 10
314.5027104338684
 20
-135.417377802415
 10
314.5027104338684
 20
-135.417377802415
 10
314.5027104338684
 20
-135.417377802415
 10
314.502699235198
 20
-112.5719161110803
 10
314.502699235198
 20
-112.5719161110803
 10
314.502699235198
 20
-112.5719161110803
 10
306.7610529155188
 20
-112.5719199059761
 10
306.7610529155188
 20
-112.5719199059761
 10
306.7610529155188
 20
-112.5719199059761
 10
306.7610504321146
 20
-107.5057347401426
 10
306.7610504321146
 20
-107.5057347401426
 10
306.7610504321146
 20
-107.5057347401426
 10
319.8155507543699
 20
-107.5057283409263
 10
319.8155507543699
 20
-107.5057283409263
 10
319.8155507543699
 20
-107.5057283409263
 10
319.8155644364458
 20
-135.4173751980945
 10
319.8155644364458
 20
-135.4173751980945
 97
        0
 97
        1
330
C5
 75
     2
 76
     1
 98
        1
 10
0.0
 20
0.0
450
        0
451
        0
460
0.0
461
0.0
452
        0
462
0.0
453
        0
470

  0
SPLINE
  5
C7
330
B9
100
AcDbEntity
  8
Layer 1
 62
   250
420
  2301728
370
     0
100
AcDbSpline
210
0.0
220
0.0
230
1.0
 70
    11
 71
     3
 72
    41
 73
    37
 74
     0
 42
0.0000000001
 43
0.0000000001
 40
0.0
 40
0.0
 40
0.0
 40
0.0
 40
1.0
 40
1.0
 40
1.0
 40
2.0
 40
2.0
 40
2.0
 40
3.0
 40
3.0
 40
3.0
 40
4.0
 40
4.0
 40
4.0
 40
5.0
 40
5.0
 40
5.0
 40
6.0
 40
6.0
 40
6.0
 40
7.0
 40
7.0
 40
7.0
 40
8.0
 40
8.0
 40
8.0
 40
9.0
 40
9.0
 40
9.0
 40
10.0
 40
10.0
 40
10.0
 40
11.0
 40
11.0
 40
11.0
 40
12.0
 40
12.0
 40
12.0
 40
12.0
 10
302.7005023205015
 20
-135.4173835877676
 30
0.0
 10
302.7005023205015
 20
-135.4173835877676
 30
0.0
 10
287.4640507726625
 20
-135.4173910565588
 30
0.0
 10
287.4640507726625
 20
-135.4173910565588
 30
0.0
 10
287.4640507726625
 20
-135.4173910565588
 30
0.0
 10
287.4640482241554
 20
-130.2183974597689
 30
0.0
 10
287.4640482241554
 20
-130.2183974597689
 30
0.0
 10
287.4640482241554
 20
-130.2183974597689
 30
0.0
 10
297.4255418197544
 20
-130.218392576721
 30
0.0
 10
297.4255418197544
 20
-130.218392576721
 30
0.0
 10
297.4255418197544
 20
-130.218392576721
 30
0.0
 10
297.4255393456366
 20
-125.1711554360563
 30
0.0
 10
297.4255393456366
 20
-125.1711554360563
 30
0.0
 10
297.4255393456366
 20
-125.1711554360563
 30
0.0
 10
287.4640457500383
 20
-125.1711603191043
 30
0.0
 10
287.4640457500383
 20
-125.1711603191043
 30
0.0
 10
287.4640457500383
 20
-125.1711603191043
 30
0.0
 10
287.4640432479722
 20
-120.0669068481588
 30
0.0
 10
287.4640432479722
 20
-120.0669068481588
 30
0.0
 10
287.4640432479722
 20
-120.0669068481588
 30
0.0
 10
297.4255368435712
 20
-120.0669019651108
 30
0.0
 10
297.4255368435712
 20
-120.0669019651108
 30
0.0
 10
297.4255368435712
 20
-120.0669019651108
 30
0.0
 10
297.425533244065
 20
-112.723853193076
 30
0.0
 10
297.425533244065
 20
-112.723853193076
 30
0.0
 10
297.425533244065
 20
-112.723853193076
 30
0.0
 10
287.4640396484664
 20
-112.7238580761237
 30
0.0
 10
287.4640396484664
 20
-112.7238580761237
 30
0.0
 10
287.4640396484664
 20
-112.7238580761237
 30
0.0
 10
287.4640370905869
 20
-107.505744199391
 30
0.0
 10
287.4640370905869
 20
-107.505744199391
 30
0.0
 10
287.4640370905869
 20
-107.505744199391
 30
0.0
 10
302.7004886384249
 20
-107.5057367305987
 30
0.0
 10
302.7004886384249
 20
-107.5057367305987
 30
0.0
 10
302.7004886384249
 20
-107.5057367305987
 30
0.0
 10
302.7005023205015
 20
-135.4173835877676
 30
0.0
 10
302.7005023205015
 20
-135.4173835877676
 30
0.0
  0
HATCH
  5
C8
330
B9
100
AcDbEntity
  8
Layer 1
 62
    18
420
        0
440
 33554687
100
AcDbHatch
 10
0.0
 20
0.0
 30
0.0
210
0.0
220
0.0
230
1.0
  2
SOLID
 70
     1
 71
     1
 91
        1
 92
        1
 93
        1
 72
     4
 94
        3
 73
     0
 74
     0
 95
       41
 96
       37
 40
0.0
 40
0.0
 40
0.0
 40
0.0
 40
1.0
 40
1.0
 40
1.0
 40
2.0
 40
2.0
 40
2.0
 40
3.0
 40
3.0
 40
3.0
 40
4.0
 40
4.0
 40
4.0
 40
5.0
 40
5.0
 40
5.0
 40
6.0
 40
6.0
 40
6.0
 40
7.0
 40
7.0
 40
7.0
 40
8.0
 40
8.0
 40
8.0
 40
9.0
 40
9.0
 40
9.0
 40
10.0
 40
10.0
 40
10.0
 40
11.0
 40
11.0
 40
11.0
 40
12.0
 40
12.0
 40
12.0
 40
12.0
 10
302.7005023205015
 20
-135.4173835877676
 10
302.7005023205015
 20
-135.4173835877676
 10
287.4640507726625
 20
-135.4173910565588
 10
287.4640507726625
 20
-135.4173910565588
 10
287.4640507726625
 20
-135.4173910565588
 10
287.4640482241554
 20
-130.2183974597689
 10
287.4640482241554
 20
-130.2183974597689
 10
287.4640482241554
 20
-130.2183974597689
 10
297.4255418197544
 20
-130.218392576721
 10
297.4255418197544
 20
-130.218392576721
 10
297.4255418197544
 20
-130.218392576721
 10
297.4255393456366
 20
-125.1711554360563
 10
297.4255393456366
 20
-125.1711554360563
 10
297.4255393456366
 20
-125.1711554360563
 10
287.4640457500383
 20
-125.1711603191043
 10
287.4640457500383
 20
-125.1711603191043
 10
287.4640457500383
 20
-125.1711603191043
 10
287.4640432479722
 20
-120.0669068481588
 10
287.4640432479722
 20
-120.0669068481588
 10
287.4640432479722
 20
-120.0669068481588
 10
297.4255368435712
 20
-120.0669019651108
 10
297.4255368435712
 20
-120.0669019651108
 10
297.4255368435712
 20
-120.0669019651108
 10
297.425533244065
 20
-112.723853193076
 10
297.425533244065
 20
-112.723853193076
 10
297.425533244065
 20
-112.723853193076
 10
287.4640396484664
 20
-112.7238580761237
 10
287.4640396484664
 20
-112.7238580761237
 10
287.4640396484664
 20
-112.7238580761237
 10
287.4640370905869
 20
-107.505744199391
 10
287.4640370905869
 20
-107.505744199391
 10
287.4640370905869
 20
-107.505744199391
 10
302.7004886384249
 20
-107.5057367305987
 10
302.7004886384249
 20
-107.5057367305987
 10
302.7004886384249
 20
-107.5057367305987
 10
302.7005023205015
 20
-135.4173835877676
 10
302.7005023205015
 20
-135.4173835877676
 97
        0
 97
        1
330
C7
 75
     2
 76
     1
 98
        1
 10
0.0
 20
0.0
450
        0
451
        0
460
0.0
461
0.0
452
        0
462
0.0
453
        0
470

  0
SPLINE
  5
C9
330
B9
100
AcDbEntity
  8
Layer 1
 62
   250
420
  2301728
370
     0
100
AcDbSpline
210
0.0
220
0.0
230
1.0
 70
    11
 71
     3
 72
    29
 73
    25
 74
     0
 42
0.0000000001
 43
0.0000000001
 40
0.0
 40
0.0
 40
0.0
 40
0.0
 40
1.0
 40
1.0
 40
1.0
 40
2.0
 40
2.0
 40
2.0
 40
3.0
 40
3.0
 40
3.0
 40
4.0
 40
4.0
 40
4.0
 40
5.0
 40
5.0
 40
5.0
 40
6.0
 40
6.0
 40
6.0
 40
7.0
 40
7.0
 40
7.0
 40
8.0
 40
8.0
 40
8.0
 40
8.0
 10
255.4720274745482
 20
-124.5069615917903
 30
0.0
 10
255.4720274745482
 20
-124.5069615917903
 30
0.0
 10
253.7835861772276
 20
-124.5069624194515
 30
0.0
 10
253.7835861772276
 20
-124.5069624194515
 30
0.0
 10
252.4551573581156
 20
-124.5069630706371
 30
0.0
 10
251.5318718147628
 20
-124.6022204133914
 30
0.0
 10
251.0130405279881
 20
-124.7925621932789
 30
0.0
 10
250.4945537507621
 20
-124.9829039729973
 30
0.0
 10
250.0866545992389
 20
-125.2969246264271
 30
0.0
 10
249.7893430735028
 20
-125.7347964083418
 30
0.0
 10
249.4923760573162
 20
-126.1726681900881
 30
0.0
 10
249.3432036825358
 20
-126.7025239488431
 30
0.0
 10
249.3432039874413
 20
-127.3245359387049
 30
0.0
 10
249.3432045162764
 20
-128.4033675899109
 30
0.0
 10
249.7607504748014
 20
-129.1902271940637
 30
0.0
 10
250.5958418631005
 20
-129.6852870059389
 30
0.0
 10
251.202867867961
 20
-130.0532229062042
 30
0.0
 10
252.3290696723532
 20
-130.2373627078352
 30
0.0
 10
253.9730692379147
 20
-130.2373619019594
 30
0.0
 10
253.9730692379147
 20
-130.2373619019594
 30
0.0
 10
255.4720302835463
 20
-130.2373611671803
 30
0.0
 10
255.4720302835463
 20
-130.2373611671803
 30
0.0
 10
255.4720302835463
 20
-130.2373611671803
 30
0.0
 10
255.4720274745482
 20
-124.5069615917903
 30
0.0
 10
255.4720274745482
 20
-124.5069615917903
 30
0.0
  0
SPLINE
  5
CA
330
B9
100
AcDbEntity
  8
Layer 1
 62
   250
420
  2301728
370
     0
100
AcDbSpline
210
0.0
220
0.0
230
1.0
 70
    11
 71
     3
 72
    35
 73
    31
 74
     0
 42
0.0000000001
 43
0.0000000001
 40
0.0
 40
0.0
 40
0.0
 40
0.0
 40
1.0
 40
1.0
 40
1.0
 40
2.0
 40
2.0
 40
2.0
 40
3.0
 40
3.0
 40
3.0
 40
4.0
 40
4.0
 40
4.0
 40
5.0
 40
5.0
 40
5.0
 40
6.0
 40
6.0
 40
6.0
 40
7.0
 40
7.0
 40
7.0
 40
8.0
 40
8.0
 40
8.0
 40
9.0
 40
9.0
 40
9.0
 40
10.0
 40
10.0
 40
10.0
 40
10.0
 10
260.7850590801167
 20
-135.4174041343962
 30
0.0
 10
260.7850590801167
 20
-135.4174041343962
 30
0.0
 10
255.1495718853451
 20
-135.4174068968691
 30
0.0
 10
255.1495718853451
 20
-135.4174068968691
 30
0.0
 10
252.1013513999966
 20
-135.4174083910833
 30
0.0
 10
249.9030358328033
 20
-135.1357729127616
 30
0.0
 10
248.5560032222962
 20
-134.5731894803254
 30
0.0
 10
247.2086261019869
 20
-134.0100892837349
 30
0.0
 10
246.1461582079126
 20
-133.0993788130226
 30
0.0
 10
245.3682550303553
 20
-131.8407135588089
 30
0.0
 10
244.5903518527134
 20
-130.5818760498206
 30
0.0
 10
244.2013998330053
 20
-129.0734411822649
 30
0.0
 10
244.201398971147
 20
-127.3152367013679
 30
0.0
 10
244.2013980162382
 20
-125.3672074592337
 30
0.0
 10
244.7105823352412
 20
-123.7480123315682
 30
0.0
 10
245.7286118573829
 20
-122.4578235733114
 30
0.0
 10
246.7469770116065
 20
-121.167462560116
 30
0.0
 10
248.1291488799445
 20
-120.2691532348069
 30
0.0
 10
249.8747785144111
 20
-119.7634123618781
 30
0.0
 10
250.899349769024
 20
-119.4723012911375
 30
0.0
 10
252.7652134125692
 20
-119.3269173470277
 30
0.0
 10
255.4720249353297
 20
-119.3269160201693
 30
0.0
 10
255.4720249353297
 20
-119.3269160201693
 30
0.0
 10
255.4720191406892
 20
-107.5057598816332
 30
0.0
 10
255.4720191406892
 20
-107.5057598816332
 30
0.0
 10
255.4720191406892
 20
-107.5057598816332
 30
0.0
 10
260.7850453980415
 20
-107.5057572772283
 30
0.0
 10
260.7850453980415
 20
-107.5057572772283
 30
0.0
 10
260.7850453980415
 20
-107.5057572772283
 30
0.0
 10
260.7850590801167
 20
-135.4174041343962
 30
0.0
 10
260.7850590801167
 20
-135.4174041343962
 30
0.0
  0
HATCH
  5
CB
330
B9
100
AcDbEntity
  8
Layer 1
 62
    18
420
        0
440
 33554687
100
AcDbHatch
 10
0.0
 20
0.0
 30
0.0
210
0.0
220
0.0
230
1.0
  2
SOLID
 70
     1
 71
     1
 91
        2
 92
        1
 93
        1
 72
     4
 94
        3
 73
     0
 74
     0
 95
       29
 96
       25
 40
0.0
 40
0.0
 40
0.0
 40
0.0
 40
1.0
 40
1.0
 40
1.0
 40
2.0
 40
2.0
 40
2.0
 40
3.0
 40
3.0
 40
3.0
 40
4.0
 40
4.0
 40
4.0
 40
5.0
 40
5.0
 40
5.0
 40
6.0
 40
6.0
 40
6.0
 40
7.0
 40
7.0
 40
7.0
 40
8.0
 40
8.0
 40
8.0
 40
8.0
 10
255.4720274745482
 20
-124.5069615917903
 10
255.4720274745482
 20
-124.5069615917903
 10
253.7835861772276
 20
-124.5069624194515
 10
253.7835861772276
 20
-124.5069624194515
 10
252.4551573581156
 20
-124.5069630706371
 10
251.5318718147628
 20
-124.6022204133914
 10
251.0130405279881
 20
-124.7925621932789
 10
250.4945537507621
 20
-124.9829039729973
 10
250.0866545992389
 20
-125.2969246264271
 10
249.7893430735028
 20
-125.7347964083418
 10
249.4923760573162
 20
-126.1726681900881
 10
249.3432036825358
 20
-126.7025239488431
 10
249.3432039874413
 20
-127.3245359387049
 10
249.3432045162764
 20
-128.4033675899109
 10
249.7607504748014
 20
-129.1902271940637
 10
250.5958418631005
 20
-129.6852870059389
 10
251.202867867961
 20
-130.0532229062042
 10
252.3290696723532
 20
-130.2373627078352
 10
253.9730692379147
 20
-130.2373619019594
 10
253.9730692379147
 20
-130.2373619019594
 10
255.4720302835463
 20
-130.2373611671803
 10
255.4720302835463
 20
-130.2373611671803
 10
255.4720302835463
 20
-130.2373611671803
 10
255.4720274745482
 20
-124.5069615917903
 10
255.4720274745482
 20
-124.5069615917903
 97
        0
 97
        1
330
C9
 92
        1
 93
        1
 72
     4
 94
        3
 73
     0
 74
     0
 95
       35
 96
       31
 40
0.0
 40
0.0
 40
0.0
 40
0.0
 40
1.0
 40
1.0
 40
1.0
 40
2.0
 40
2.0
 40
2.0
 40
3.0
 40
3.0
 40
3.0
 40
4.0
 40
4.0
 40
4.0
 40
5.0
 40
5.0
 40
5.0
 40
6.0
 40
6.0
 40
6.0
 40
7.0
 40
7.0
 40
7.0
 40
8.0
 40
8.0
 40
8.0
 40
9.0
 40
9.0
 40
9.0
 40
10.0
 40
10.0
 40
10.0
 40
10.0
 10
260.7850590801167
 20
-135.4174041343962
 10
260.7850590801167
 20
-135.4174041343962
 10
255.1495718853451
 20
-135.4174068968691
 10
255.1495718853451
 20
-135.4174068968691
 10
252.1013513999966
 20
-135.4174083910833
 10
249.9030358328033
 20
-135.1357729127616
 10
248.5560032222962
 20
-134.5731894803254
 10
247.2086261019869
 20
-134.0100892837349
 10
246.1461582079126
 20
-133.0993788130226
 10
245.3682550303553
 20
-131.8407135588089
 10
244.5903518527134
 20
-130.5818760498206
 10
244.2013998330053
 20
-129.0734411822649
 10
244.201398971147
 20
-127.3152367013679
 10
244.2013980162382
 20
-125.3672074592337
 10
244.7105823352412
 20
-123.7480123315682
 10
245.7286118573829
 20
-122.4578235733114
 10
246.7469770116065
 20
-121.167462560116
 10
248.1291488799445
 20
-120.2691532348069
 10
249.8747785144111
 20
-119.7634123618781
 10
250.899349769024
 20
-119.4723012911375
 10
252.7652134125692
 20
-119.3269173470277
 10
255.4720249353297
 20
-119.3269160201693
 10
255.4720249353297
 20
-119.3269160201693
 10
255.4720191406892
 20
-107.5057598816332
 10
255.4720191406892
 20
-107.5057598816332
 10
255.4720191406892
 20
-107.5057598816332
 10
260.7850453980415
 20
-107.5057572772283
 10
260.7850453980415
 20
-107.5057572772283
 10
260.7850453980415
 20
-107.5057572772283
 10
260.7850590801167
 20
-135.4174041343962
 10
260.7850590801167
 20
-135.4174041343962
 97
        0
 97
        1
330
CA
 75
     2
 76
     1
 98
        1
 10
0.0
 20
0.0
450
        0
451
        0
460
0.0
461
0.0
452
        0
462
0.0
453
        0
470

  0
SPLINE
  5
CC
330
B9
100
AcDbEntity
  8
Layer 1
 62
   250
420
  2301728
370
     0
100
AcDbSpline
210
0.0
220
0.0
230
1.0
 70
    11
 71
     3
 72
    23
 73
    19
 74
     0
 42
0.0000000001
 43
0.0000000001
 40
0.0
 40
0.0
 40
0.0
 40
0.0
 40
1.0
 40
1.0
 40
1.0
 40
2.0
 40
2.0
 40
2.0
 40
3.0
 40
3.0
 40
3.0
 40
4.0
 40
4.0
 40
4.0
 40
5.0
 40
5.0
 40
5.0
 40
6.0
 40
6.0
 40
6.0
 40
6.0
 10
239.0024093459817
 20
-135.4174148120843
 30
0.0
 10
239.0024093459817
 20
-135.4174148120843
 30
0.0
 10
233.68938308863
 20
-135.4174174164892
 30
0.0
 10
233.68938308863
 20
-135.4174174164892
 30
0.0
 10
233.68938308863
 20
-135.4174174164892
 30
0.0
 10
233.6893718899595
 20
-112.5719557251548
 30
0.0
 10
233.6893718899595
 20
-112.5719557251548
 30
0.0
 10
233.6893718899595
 20
-112.5719557251548
 30
0.0
 10
225.9478978250552
 20
-112.5719595199659
 30
0.0
 10
225.9478978250552
 20
-112.5719595199659
 30
0.0
 10
225.9478978250552
 20
-112.5719595199659
 30
0.0
 10
225.9478953416504
 20
-107.5057743541324
 30
0.0
 10
225.9478953416504
 20
-107.5057743541324
 30
0.0
 10
225.9478953416504
 20
-107.5057743541324
 30
0.0
 10
239.0023956639061
 20
-107.5057679549165
 30
0.0
 10
239.0023956639061
 20
-107.5057679549165
 30
0.0
 10
239.0023956639061
 20
-107.5057679549165
 30
0.0
 10
239.0024093459817
 20
-135.4174148120843
 30
0.0
 10
239.0024093459817
 20
-135.4174148120843
 30
0.0
  0
HATCH
  5
CD
330
B9
100
AcDbEntity
  8
Layer 1
 62
    18
420
        0
440
 33554687
100
AcDbHatch
 10
0.0
 20
0.0
 30
0.0
210
0.0
220
0.0
230
1.0
  2
SOLID
 70
     1
 71
     1
 91
        1
 92
        1
 93
        1
 72
     4
 94
        3
 73
     0
 74
     0
 95
       23
 96
       19
 40
0.0
 40
0.0
 40
0.0
 40
0.0
 40
1.0
 40
1.0
 40
1.0
 40
2.0
 40
2.0
 40
2.0
 40
3.0
 40
3.0
 40
3.0
 40
4.0
 40
4.0
 40
4.0
 40
5.0
 40
5.0
 40
5.0
 40
6.0
 40
6.0
 40
6.0
 40
6.0
 10
239.0024093459817
 20
-135.4174148120843
 10
239.0024093459817
 20
-135.4174148120843
 10
233.68938308863
 20
-135.4174174164892
 10
233.68938308863
 20
-135.4174174164892
 10
233.68938308863
 20
-135.4174174164892
 10
233.6893718899595
 20
-112.5719557251548
 10
233.6893718899595
 20
-112.5719557251548
 10
233.6893718899595
 20
-112.5719557251548
 10
225.9478978250552
 20
-112.5719595199659
 10
225.9478978250552
 20
-112.5719595199659
 10
225.9478978250552
 20
-112.5719595199659
 10
225.9478953416504
 20
-107.5057743541324
 10
225.9478953416504
 20
-107.5057743541324
 10
225.9478953416504
 20
-107.5057743541324
 10
239.0023956639061
 20
-107.5057679549165
 10
239.0023956639061
 20
-107.5057679549165
 10
239.0023956639061
 20
-107.5057679549165
 10
239.0024093459817
 20
-135.4174148120843
 10
239.0024093459817
 20
-135.4174148120843
 97
        0
 97
        1
330
CC
 75
     2
 76
     1
 98
        1
 10
0.0
 20
0.0
450
        0
451
        0
460
0.0
461
0.0
452
        0
462
0.0
453
        0
470

  0
SPLINE
  5
CE
330
B9
100
AcDbEntity
  8
Layer 1
 62
   250
420
  2301728
370
     0
100
AcDbSpline
210
0.0
220
0.0
230
1.0
 70
    11
 71
     3
 72
    14
 73
    10
 74
     0
 42
0.0000000001
 43
0.0000000001
 40
0.0
 40
0.0
 40
0.0
 40
0.0
 40
1.0
 40
1.0
 40
1.0
 40
2.0
 40
2.0
 40
2.0
 40
3.0
 40
3.0
 40
3.0
 40
3.0
 10
210.663739275962
 20
-128.0173636011661
 30
0.0
 10
210.663739275962
 20
-128.0173636011661
 30
0.0
 10
214.4085533713123
 20
-118.435173182812
 30
0.0
 10
214.4085533713123
 20
-118.435173182812
 30
0.0
 10
214.4085533713123
 20
-118.435173182812
 30
0.0
 10
206.9409643974853
 20
-118.4351768433669
 30
0.0
 10
206.9409643974853
 20
-118.4351768433669
 30
0.0
 10
206.9409643974853
 20
-118.4351768433669
 30
0.0
 10
210.663739275962
 20
-128.0173636011661
 30
0.0
 10
210.663739275962
 20
-128.0173636011661
 30
0.0
  0
SPLINE
  5
CF
330
B9
100
AcDbEntity
  8
Layer 1
 62
   250
420
  2301728
370
     0
100
AcDbSpline
210
0.0
220
0.0
230
1.0
 70
    11
 71
     3
 72
    29
 73
    25
 74
     0
 42
0.0000000001
 43
0.0000000001
 40
0.0
 40
0.0
 40
0.0
 40
0.0
 40
1.0
 40
1.0
 40
1.0
 40
2.0
 40
2.0
 40
2.0
 40
3.0
 40
3.0
 40
3.0
 40
4.0
 40
4.0
 40
4.0
 40
5.0
 40
5.0
 40
5.0
 40
6.0
 40
6.0
 40
6.0
 40
7.0
 40
7.0
 40
7.0
 40
8.0
 40
8.0
 40
8.0
 40
8.0
 10
213.3908804895408
 20
-135.41742736666
 30
0.0
 10
213.3908804895408
 20
-135.41742736666
 30
0.0
 10
208.0027511506101
 20
-135.4174300078795
 30
0.0
 10
208.0027511506101
 20
-135.4174300078795
 30
0.0
 10
208.0027511506101
 20
-135.4174300078795
 30
0.0
 10
197.2674754269487
 20
-107.5057884130551
 30
0.0
 10
197.2674754269487
 20
-107.5057884130551
 30
0.0
 10
197.2674754269487
 20
-107.5057884130551
 30
0.0
 10
202.7892744707069
 20
-107.5057857063114
 30
0.0
 10
202.7892744707069
 20
-107.5057857063114
 30
0.0
 10
202.7892744707069
 20
-107.5057857063114
 30
0.0
 10
204.9731233170925
 20
-113.2551322363652
 30
0.0
 10
204.9731233170925
 20
-113.2551322363652
 30
0.0
 10
204.9731233170925
 20
-113.2551322363652
 30
0.0
 10
216.3622644817789
 20
-113.2551266534956
 30
0.0
 10
216.3622644817789
 20
-113.2551266534956
 30
0.0
 10
216.3622644817789
 20
-113.2551266534956
 30
0.0
 10
218.6329240978204
 20
-107.5057779398758
 30
0.0
 10
218.6329240978204
 20
-107.5057779398758
 30
0.0
 10
218.6329240978204
 20
-107.5057779398758
 30
0.0
 10
224.1547231415776
 20
-107.5057752331318
 30
0.0
 10
224.1547231415776
 20
-107.5057752331318
 30
0.0
 10
224.1547231415776
 20
-107.5057752331318
 30
0.0
 10
213.3908804895408
 20
-135.41742736666
 30
0.0
 10
213.3908804895408
 20
-135.41742736666
 30
0.0
  0
HATCH
  5
D0
330
B9
100
AcDbEntity
  8
Layer 1
 62
    18
420
        0
440
 33554687
100
AcDbHatch
 10
0.0
 20
0.0
 30
0.0
210
0.0
220
0.0
230
1.0
  2
SOLID
 70
     1
 71
     1
 91
        2
 92
        1
 93
        1
 72
     4
 94
        3
 73
     0
 74
     0
 95
       14
 96
       10
 40
0.0
 40
0.0
 40
0.0
 40
0.0
 40
1.0
 40
1.0
 40
1.0
 40
2.0
 40
2.0
 40
2.0
 40
3.0
 40
3.0
 40
3.0
 40
3.0
 10
210.663739275962
 20
-128.0173636011661
 10
210.663739275962
 20
-128.0173636011661
 10
214.4085533713123
 20
-118.435173182812
 10
214.4085533713123
 20
-118.435173182812
 10
214.4085533713123
 20
-118.435173182812
 10
206.9409643974853
 20
-118.4351768433669
 10
206.9409643974853
 20
-118.4351768433669
 10
206.9409643974853
 20
-118.4351768433669
 10
210.663739275962
 20
-128.0173636011661
 10
210.663739275962
 20
-128.0173636011661
 97
        0
 97
        1
330
CE
 92
        1
 93
        1
 72
     4
 94
        3
 73
     0
 74
     0
 95
       29
 96
       25
 40
0.0
 40
0.0
 40
0.0
 40
0.0
 40
1.0
 40
1.0
 40
1.0
 40
2.0
 40
2.0
 40
2.0
 40
3.0
 40
3.0
 40
3.0
 40
4.0
 40
4.0
 40
4.0
 40
5.0
 40
5.0
 40
5.0
 40
6.0
 40
6.0
 40
6.0
 40
7.0
 40
7.0
 40
7.0
 40
8.0
 40
8.0
 40
8.0
 40
8.0
 10
213.3908804895408
 20
-135.41742736666
 10
213.3908804895408
 20
-135.41742736666
 10
208.0027511506101
 20
-135.4174300078795
 10
208.0027511506101
 20
-135.4174300078795
 10
208.0027511506101
 20
-135.4174300078795
 10
197.2674754269487
 20
-107.5057884130551
 10
197.2674754269487
 20
-107.5057884130551
 10
197.2674754269487
 20
-107.5057884130551
 10
202.7892744707069
 20
-107.5057857063114
 10
202.7892744707069
 20
-107.5057857063114
 10
202.7892744707069
 20
-107.5057857063114
 10
204.9731233170925
 20
-113.2551322363652
 10
204.9731233170925
 20
-113.2551322363652
 10
204.9731233170925
 20
-113.2551322363652
 10
216.3622644817789
 20
-113.2551266534956
 10
216.3622644817789
 20
-113.2551266534956
 10
216.3622644817789
 20
-113.2551266534956
 10
218.6329240978204
 20
-107.5057779398758
 10
218.6329240978204
 20
-107.5057779398758
 10
218.6329240978204
 20
-107.5057779398758
 10
224.1547231415776
 20
-107.5057752331318
 10
224.1547231415776
 20
-107.5057752331318
 10
224.1547231415776
 20
-107.5057752331318
 10
213.3908804895408
 20
-135.41742736666
 10
213.3908804895408
 20
-135.41742736666
 97
        0
 97
        1
330
CF
 75
     2
 76
     1
 98
        1
 10
0.0
 20
0.0
450
        0
451
        0
460
0.0
461
0.0
452
        0
462
0.0
453
        0
470

  0
SPLINE
  5
D1
330
B9
100
AcDbEntity
  8
Layer 1
 62
   250
420
  2301728
370
     0
100
AcDbSpline
210
0.0
220
0.0
230
1.0
 70
    11
 71
     3
 72
    32
 73
    28
 74
     0
 42
0.0000000001
 43
0.0000000001
 40
0.0
 40
0.0
 40
0.0
 40
0.0
 40
1.0
 40
1.0
 40
1.0
 40
2.0
 40
2.0
 40
2.0
 40
3.0
 40
3.0
 40
3.0
 40
4.0
 40
4.0
 40
4.0
 40
5.0
 40
5.0
 40
5.0
 40
6.0
 40
6.0
 40
6.0
 40
7.0
 40
7.0
 40
7.0
 40
8.0
 40
8.0
 40
8.0
 40
9.0
 40
9.0
 40
9.0
 40
9.0
 10
195.1425542137222
 20
-135.4174363118497
 30
0.0
 10
195.1425542137222
 20
-135.4174363118497
 30
0.0
 10
189.438509618795
 20
-135.4174391079288
 30
0.0
 10
189.438509618795
 20
-135.4174391079288
 30
0.0
 10
189.438509618795
 20
-135.4174391079288
 30
0.0
 10
184.2312428710355
 20
-125.3768831235034
 30
0.0
 10
184.2312428710355
 20
-125.3768831235034
 30
0.0
 10
184.2312428710355
 20
-125.3768831235034
 30
0.0
 10
179.0487906543792
 20
-135.4174442008893
 30
0.0
 10
179.0487906543792
 20
-135.4174442008893
 30
0.0
 10
179.0487906543792
 20
-135.4174442008893
 30
0.0
 10
173.4164040455459
 20
-135.4174469618425
 30
0.0
 10
173.4164040455459
 20
-135.4174469618425
 30
0.0
 10
173.4164040455459
 20
-135.4174469618425
 30
0.0
 10
181.5850621933887
 20
-119.5925691009058
 30
0.0
 10
181.5850621933887
 20
-119.5925691009058
 30
0.0
 10
181.5850621933887
 20
-119.5925691009058
 30
0.0
 10
181.5850562685452
 20
-107.5057961004568
 30
0.0
 10
181.5850562685452
 20
-107.5057961004568
 30
0.0
 10
181.5850562685452
 20
-107.5057961004568
 30
0.0
 10
186.9359785762343
 20
-107.5057934774755
 30
0.0
 10
186.9359785762343
 20
-107.5057934774755
 30
0.0
 10
186.9359785762343
 20
-107.5057934774755
 30
0.0
 10
186.9359845010781
 20
-119.5925664779247
 30
0.0
 10
186.9359845010781
 20
-119.5925664779247
 30
0.0
 10
186.9359845010781
 20
-119.5925664779247
 30
0.0
 10
195.1425542137222
 20
-135.4174363118497
 30
0.0
 10
195.1425542137222
 20
-135.4174363118497
 30
0.0
  0
HATCH
  5
D2
330
B9
100
AcDbEntity
  8
Layer 1
 62
    18
420
        0
440
 33554687
100
AcDbHatch
 10
0.0
 20
0.0
 30
0.0
210
0.0
220
0.0
230
1.0
  2
SOLID
 70
     1
 71
     1
 91
        1
 92
        1
 93
        1
 72
     4
 94
        3
 73
     0
 74
     0
 95
       32
 96
       28
 40
0.0
 40
0.0
 40
0.0
 40
0.0
 40
1.0
 40
1.0
 40
1.0
 40
2.0
 40
2.0
 40
2.0
 40
3.0
 40
3.0
 40
3.0
 40
4.0
 40
4.0
 40
4.0
 40
5.0
 40
5.0
 40
5.0
 40
6.0
 40
6.0
 40
6.0
 40
7.0
 40
7.0
 40
7.0
 40
8.0
 40
8.0
 40
8.0
 40
9.0
 40
9.0
 40
9.0
 40
9.0
 10
195.1425542137222
 20
-135.4174363118497
 10
195.1425542137222
 20
-135.4174363118497
 10
189.438509618795
 20
-135.4174391079288
 10
189.438509618795
 20
-135.4174391079288
 10
189.438509618795
 20
-135.4174391079288
 10
184.2312428710355
 20
-125.3768831235034
 10
184.2312428710355
 20
-125.3768831235034
 10
184.2312428710355
 20
-125.3768831235034
 10
179.0487906543792
 20
-135.4174442008893
 10
179.0487906543792
 20
-135.4174442008893
 10
179.0487906543792
 20
-135.4174442008893
 10
173.4164040455459
 20
-135.4174469618425
 10
173.4164040455459
 20
-135.4174469618425
 10
173.4164040455459
 20
-135.4174469618425
 10
181.5850621933887
 20
-119.5925691009058
 10
181.5850621933887
 20
-119.5925691009058
 10
181.5850621933887
 20
-119.5925691009058
 10
181.5850562685452
 20
-107.5057961004568
 10
181.5850562685452
 20
-107.5057961004568
 10
181.5850562685452
 20
-107.5057961004568
 10
186.9359785762343
 20
-107.5057934774755
 10
186.9359785762343
 20
-107.5057934774755
 10
186.9359785762343
 20
-107.5057934774755
 10
186.9359845010781
 20
-119.5925664779247
 10
186.9359845010781
 20
-119.5925664779247
 10
186.9359845010781
 20
-119.5925664779247
 10
195.1425542137222
 20
-135.4174363118497
 10
195.1425542137222
 20
-135.4174363118497
 97
        0
 97
        1
330
D1
 75
     2
 76
     1
 98
        1
 10
0.0
 20
0.0
450
        0
451
        0
460
0.0
461
0.0
452
        0
462
0.0
453
        0
470

  0
SPLINE
  5
D3
330
B9
100
AcDbEntity
  8
Layer 1
 62
   250
420
  2301728
370
     0
100
AcDbSpline
210
0.0
220
0.0
230
1.0
 70
    11
 71
     3
 72
    41
 73
    37
 74
     0
 42
0.0000000001
 43
0.0000000001
 40
0.0
 40
0.0
 40
0.0
 40
0.0
 40
1.0
 40
1.0
 40
1.0
 40
2.0
 40
2.0
 40
2.0
 40
3.0
 40
3.0
 40
3.0
 40
4.0
 40
4.0
 40
4.0
 40
5.0
 40
5.0
 40
5.0
 40
6.0
 40
6.0
 40
6.0
 40
7.0
 40
7.0
 40
7.0
 40
8.0
 40
8.0
 40
8.0
 40
9.0
 40
9.0
 40
9.0
 40
10.0
 40
10.0
 40
10.0
 40
11.0
 40
11.0
 40
11.0
 40
12.0
 40
12.0
 40
12.0
 40
12.0
 10
169.0428553270215
 20
-135.417449105722
 30
0.0
 10
169.0428553270215
 20
-135.417449105722
 30
0.0
 10
153.806231524409
 20
-135.4174565745986
 30
0.0
 10
153.806231524409
 20
-135.4174565745986
 30
0.0
 10
153.806231524409
 20
-135.4174565745986
 30
0.0
 10
153.8062289759022
 20
-130.2184629778088
 30
0.0
 10
153.8062289759022
 20
-130.2184629778088
 30
0.0
 10
153.8062289759022
 20
-130.2184629778088
 30
0.0
 10
163.7677225715005
 20
-130.2184580947608
 30
0.0
 10
163.7677225715005
 20
-130.2184580947608
 30
0.0
 10
163.7677225715005
 20
-130.2184580947608
 30
0.0
 10
163.7677200973833
 20
-125.1712209540961
 30
0.0
 10
163.7677200973833
 20
-125.1712209540961
 30
0.0
 10
163.7677200973833
 20
-125.1712209540961
 30
0.0
 10
153.806226501785
 20
-125.1712258371441
 30
0.0
 10
153.806226501785
 20
-125.1712258371441
 30
0.0
 10
153.806226501785
 20
-125.1712258371441
 30
0.0
 10
153.8062239997187
 20
-120.0669723661986
 30
0.0
 10
153.8062239997187
 20
-120.0669723661986
 30
0.0
 10
153.8062239997187
 20
-120.0669723661986
 30
0.0
 10
163.7677175953176
 20
-120.0669674831509
 30
0.0
 10
163.7677175953176
 20
-120.0669674831509
 30
0.0
 10
163.7677175953176
 20
-120.0669674831509
 30
0.0
 10
163.7677139958108
 20
-112.7239187111155
 30
0.0
 10
163.7677139958108
 20
-112.7239187111155
 30
0.0
 10
163.7677139958108
 20
-112.7239187111155
 30
0.0
 10
153.8062204002128
 20
-112.7239235941635
 30
0.0
 10
153.8062204002128
 20
-112.7239235941635
 30
0.0
 10
153.8062204002128
 20
-112.7239235941635
 30
0.0
 10
153.8062178423331
 20
-107.5058097174308
 30
0.0
 10
153.8062178423331
 20
-107.5058097174308
 30
0.0
 10
153.8062178423331
 20
-107.5058097174308
 30
0.0
 10
169.0428416449456
 20
-107.5058022485542
 30
0.0
 10
169.0428416449456
 20
-107.5058022485542
 30
0.0
 10
169.0428416449456
 20
-107.5058022485542
 30
0.0
 10
169.0428553270215
 20
-135.417449105722
 30
0.0
 10
169.0428553270215
 20
-135.417449105722
 30
0.0
  0
HATCH
  5
D4
330
B9
100
AcDbEntity
  8
Layer 1
 62
    18
420
        0
440
 33554687
100
AcDbHatch
 10
0.0
 20
0.0
 30
0.0
210
0.0
220
0.0
230
1.0
  2
SOLID
 70
     1
 71
     1
 91
        1
 92
        1
 93
        1
 72
     4
 94
        3
 73
     0
 74
     0
 95
       41
 96
       37
 40
0.0
 40
0.0
 40
0.0
 40
0.0
 40
1.0
 40
1.0
 40
1.0
 40
2.0
 40
2.0
 40
2.0
 40
3.0
 40
3.0
 40
3.0
 40
4.0
 40
4.0
 40
4.0
 40
5.0
 40
5.0
 40
5.0
 40
6.0
 40
6.0
 40
6.0
 40
7.0
 40
7.0
 40
7.0
 40
8.0
 40
8.0
 40
8.0
 40
9.0
 40
9.0
 40
9.0
 40
10.0
 40
10.0
 40
10.0
 40
11.0
 40
11.0
 40
11.0
 40
12.0
 40
12.0
 40
12.0
 40
12.0
 10
169.0428553270215
 20
-135.417449105722
 10
169.0428553270215
 20
-135.417449105722
 10
153.806231524409
 20
-135.4174565745986
 10
153.806231524409
 20
-135.4174565745986
 10
153.806231524409
 20
-135.4174565745986
 10
153.8062289759022
 20
-130.2184629778088
 10
153.8062289759022
 20
-130.2184629778088
 10
153.8062289759022
 20
-130.2184629778088
 10
163.7677225715005
 20
-130.2184580947608
 10
163.7677225715005
 20
-130.2184580947608
 10
163.7677225715005
 20
-130.2184580947608
 10
163.7677200973833
 20
-125.1712209540961
 10
163.7677200973833
 20
-125.1712209540961
 10
163.7677200973833
 20
-125.1712209540961
 10
153.806226501785
 20
-125.1712258371441
 10
153.806226501785
 20
-125.1712258371441
 10
153.806226501785
 20
-125.1712258371441
 10
153.8062239997187
 20
-120.0669723661986
 10
153.8062239997187
 20
-120.0669723661986
 10
153.8062239997187
 20
-120.0669723661986
 10
163.7677175953176
 20
-120.0669674831509
 10
163.7677175953176
 20
-120.0669674831509
 10
163.7677175953176
 20
-120.0669674831509
 10
163.7677139958108
 20
-112.7239187111155
 10
163.7677139958108
 20
-112.7239187111155
 10
163.7677139958108
 20
-112.7239187111155
 10
153.8062204002128
 20
-112.7239235941635
 10
153.8062204002128
 20
-112.7239235941635
 10
153.8062204002128
 20
-112.7239235941635
 10
153.8062178423331
 20
-107.5058097174308
 10
153.8062178423331
 20
-107.5058097174308
 10
153.8062178423331
 20
-107.5058097174308
 10
169.0428416449456
 20
-107.5058022485542
 10
169.0428416449456
 20
-107.5058022485542
 10
169.0428416449456
 20
-107.5058022485542
 10
169.0428553270215
 20
-135.417449105722
 10
169.0428553270215
 20
-135.417449105722
 97
        0
 97
        1
330
D3
 75
     2
 76
     1
 98
        1
 10
0.0
 20
0.0
450
        0
451
        0
460
0.0
461
0.0
452
        0
462
0.0
453
        0
470

  0
SPLINE
  5
D5
330
B9
100
AcDbEntity
  8
Layer 1
 62
   250
420
  2301728
370
     0
100
AcDbSpline
210
0.0
220
0.0
230
1.0
 70
    11
 71
     3
 72
    29
 73
    25
 74
     0
 42
0.0000000001
 43
0.0000000001
 40
0.0
 40
0.0
 40
0.0
 40
0.0
 40
1.0
 40
1.0
 40
1.0
 40
2.0
 40
2.0
 40
2.0
 40
3.0
 40
3.0
 40
3.0
 40
4.0
 40
4.0
 40
4.0
 40
5.0
 40
5.0
 40
5.0
 40
6.0
 40
6.0
 40
6.0
 40
7.0
 40
7.0
 40
7.0
 40
8.0
 40
8.0
 40
8.0
 40
8.0
 10
143.1805181710373
 20
-124.5070166362289
 30
0.0
 10
143.1805181710373
 20
-124.5070166362289
 30
0.0
 10
141.5158480325649
 20
-124.5070174522375
 30
0.0
 10
141.5158480325649
 20
-124.5070174522375
 30
0.0
 10
139.8260286970502
 20
-124.5070182805737
 30
0.0
 10
138.6626200606065
 20
-124.7292275096663
 30
0.0
 10
138.025966632613
 20
-125.1733006297977
 30
0.0
 10
137.3889686950716
 20
-125.6173737500981
 30
0.0
 10
137.0706422331222
 20
-126.3535908113373
 30
0.0
 10
137.0706427371332
 20
-127.3817795589101
 30
0.0
 10
137.0706430356211
 20
-127.990700185928
 30
0.0
 10
137.2284286685764
 20
-128.5205557942138
 30
0.0
 10
137.5436551263666
 20
-128.9711741291631
 30
0.0
 10
137.8588815841565
 20
-129.421792464112
 30
0.0
 10
138.2815949587711
 20
-129.7452867229665
 30
0.0
 10
138.8111062313664
 20
-129.9421736703861
 30
0.0
 10
139.3406175039622
 20
-130.1390606178054
 30
0.0
 10
140.3114454599196
 20
-130.2374176180172
 30
0.0
 10
141.723934608872
 20
-130.2374169256259
 30
0.0
 10
141.723934608872
 20
-130.2374169256259
 30
0.0
 10
143.1805209800351
 20
-130.2374162116186
 30
0.0
 10
143.1805209800351
 20
-130.2374162116186
 30
0.0
 10
143.1805209800351
 20
-130.2374162116186
 30
0.0
 10
143.1805181710373
 20
-124.5070166362289
 30
0.0
 10
143.1805181710373
 20
-124.5070166362289
 30
0.0
  0
SPLINE
  5
D6
330
B9
100
AcDbEntity
  8
Layer 1
 62
   250
420
  2301728
370
     0
100
AcDbSpline
210
0.0
220
0.0
230
1.0
 70
    11
 71
     3
 72
    44
 73
    40
 74
     0
 42
0.0000000001
 43
0.0000000001
 40
0.0
 40
0.0
 40
0.0
 40
0.0
 40
1.0
 40
1.0
 40
1.0
 40
2.0
 40
2.0
 40
2.0
 40
3.0
 40
3.0
 40
3.0
 40
4.0
 40
4.0
 40
4.0
 40
5.0
 40
5.0
 40
5.0
 40
6.0
 40
6.0
 40
6.0
 40
7.0
 40
7.0
 40
7.0
 40
8.0
 40
8.0
 40
8.0
 40
9.0
 40
9.0
 40
9.0
 40
10.0
 40
10.0
 40
10.0
 40
11.0
 40
11.0
 40
11.0
 40
12.0
 40
12.0
 40
12.0
 40
13.0
 40
13.0
 40
13.0
 40
13.0
 10
148.4935497766055
 20
-135.4174591788344
 30
0.0
 10
148.4935497766055
 20
-135.4174591788344
 30
0.0
 10
142.8646082632565
 20
-135.4174619380983
 30
0.0
 10
142.8646082632565
 20
-135.4174619380983
 30
0.0
 10
139.781592313507
 20
-135.4174634493695
 30
0.0
 10
137.5863773354585
 20
-135.1423736509499
 30
0.0
 10
136.2786188195628
 20
-134.5921925430086
 30
0.0
 10
134.970860303583
 20
-134.0418391802931
 30
0.0
 10
133.9187276943599
 20
-133.1278558638034
 30
0.0
 10
133.1229100109908
 20
-131.8502425932021
 30
0.0
 10
132.3267478179893
 20
-130.5724570679956
 30
0.0
 10
131.9284940390356
 20
-129.0610938738374
 30
0.0
 10
131.9284931832567
 20
-127.315291736687
 30
0.0
 10
131.9284922841613
 20
-125.4811229003403
 30
0.0
 10
132.3680857162434
 20
-123.9473661748214
 30
0.0
 10
133.2472734795031
 20
-122.7140215601311
 30
0.0
 10
134.1264612427631
 20
-121.4806769454401
 30
0.0
 10
135.451444508989
 20
-120.5475721837633
 30
0.0
 10
137.2218787688868
 20
-119.915224039592
 30
0.0
 10
137.2218787688868
 20
-119.915224039592
 30
0.0
 10
130.6097009210517
 20
-107.5058210881857
 30
0.0
 10
130.6097009210517
 20
-107.5058210881857
 30
0.0
 10
130.6097009210517
 20
-107.5058210881857
 30
0.0
 10
136.4177873996338
 20
-107.505818241106
 30
0.0
 10
136.4177873996338
 20
-107.505818241106
 30
0.0
 10
136.4177873996338
 20
-107.505818241106
 30
0.0
 10
142.6944126588504
 20
-119.3269713028916
 30
0.0
 10
142.6944126588504
 20
-119.3269713028916
 30
0.0
 10
142.6944126588504
 20
-119.3269713028916
 30
0.0
 10
143.1805156318185
 20
-119.3269710646079
 30
0.0
 10
143.1805156318185
 20
-119.3269710646079
 30
0.0
 10
143.1805156318185
 20
-119.3269710646079
 30
0.0
 10
143.180509837178
 20
-107.5058149260714
 30
0.0
 10
143.180509837178
 20
-107.5058149260714
 30
0.0
 10
143.180509837178
 20
-107.5058149260714
 30
0.0
 10
148.4935360945299
 20
-107.5058123216666
 30
0.0
 10
148.4935360945299
 20
-107.5058123216666
 30
0.0
 10
148.4935360945299
 20
-107.5058123216666
 30
0.0
 10
148.4935497766055
 20
-135.4174591788344
 30
0.0
 10
148.4935497766055
 20
-135.4174591788344
 30
0.0
  0
HATCH
  5
D7
330
B9
100
AcDbEntity
  8
Layer 1
 62
    18
420
        0
440
 33554687
100
AcDbHatch
 10
0.0
 20
0.0
 30
0.0
210
0.0
220
0.0
230
1.0
  2
SOLID
 70
     1
 71
     1
 91
        2
 92
        1
 93
        1
 72
     4
 94
        3
 73
     0
 74
     0
 95
       29
 96
       25
 40
0.0
 40
0.0
 40
0.0
 40
0.0
 40
1.0
 40
1.0
 40
1.0
 40
2.0
 40
2.0
 40
2.0
 40
3.0
 40
3.0
 40
3.0
 40
4.0
 40
4.0
 40
4.0
 40
5.0
 40
5.0
 40
5.0
 40
6.0
 40
6.0
 40
6.0
 40
7.0
 40
7.0
 40
7.0
 40
8.0
 40
8.0
 40
8.0
 40
8.0
 10
143.1805181710373
 20
-124.5070166362289
 10
143.1805181710373
 20
-124.5070166362289
 10
141.5158480325649
 20
-124.5070174522375
 10
141.5158480325649
 20
-124.5070174522375
 10
139.8260286970502
 20
-124.5070182805737
 10
138.6626200606065
 20
-124.7292275096663
 10
138.025966632613
 20
-125.1733006297977
 10
137.3889686950716
 20
-125.6173737500981
 10
137.0706422331222
 20
-126.3535908113373
 10
137.0706427371332
 20
-127.3817795589101
 10
137.0706430356211
 20
-127.990700185928
 10
137.2284286685764
 20
-128.5205557942138
 10
137.5436551263666
 20
-128.9711741291631
 10
137.8588815841565
 20
-129.421792464112
 10
138.2815949587711
 20
-129.7452867229665
 10
138.8111062313664
 20
-129.9421736703861
 10
139.3406175039622
 20
-130.1390606178054
 10
140.3114454599196
 20
-130.2374176180172
 10
141.723934608872
 20
-130.2374169256259
 10
141.723934608872
 20
-130.2374169256259
 10
143.1805209800351
 20
-130.2374162116186
 10
143.1805209800351
 20
-130.2374162116186
 10
143.1805209800351
 20
-130.2374162116186
 10
143.1805181710373
 20
-124.5070166362289
 10
143.1805181710373
 20
-124.5070166362289
 97
        0
 97
        1
330
D5
 92
        1
 93
        1
 72
     4
 94
        3
 73
     0
 74
     0
 95
       44
 96
       40
 40
0.0
 40
0.0
 40
0.0
 40
0.0
 40
1.0
 40
1.0
 40
1.0
 40
2.0
 40
2.0
 40
2.0
 40
3.0
 40
3.0
 40
3.0
 40
4.0
 40
4.0
 40
4.0
 40
5.0
 40
5.0
 40
5.0
 40
6.0
 40
6.0
 40
6.0
 40
7.0
 40
7.0
 40
7.0
 40
8.0
 40
8.0
 40
8.0
 40
9.0
 40
9.0
 40
9.0
 40
10.0
 40
10.0
 40
10.0
 40
11.0
 40
11.0
 40
11.0
 40
12.0
 40
12.0
 40
12.0
 40
13.0
 40
13.0
 40
13.0
 40
13.0
 10
148.4935497766055
 20
-135.4174591788344
 10
148.4935497766055
 20
-135.4174591788344
 10
142.8646082632565
 20
-135.4174619380983
 10
142.8646082632565
 20
-135.4174619380983
 10
139.781592313507
 20
-135.4174634493695
 10
137.5863773354585
 20
-135.1423736509499
 10
136.2786188195628
 20
-134.5921925430086
 10
134.970860303583
 20
-134.0418391802931
 10
133.9187276943599
 20
-133.1278558638034
 10
133.1229100109908
 20
-131.8502425932021
 10
132.3267478179893
 20
-130.5724570679956
 10
131.9284940390356
 20
-129.0610938738374
 10
131.9284931832567
 20
-127.315291736687
 10
131.9284922841613
 20
-125.4811229003403
 10
132.3680857162434
 20
-123.9473661748214
 10
133.2472734795031
 20
-122.7140215601311
 10
134.1264612427631
 20
-121.4806769454401
 10
135.451444508989
 20
-120.5475721837633
 10
137.2218787688868
 20
-119.915224039592
 10
137.2218787688868
 20
-119.915224039592
 10
130.6097009210517
 20
-107.5058210881857
 10
130.6097009210517
 20
-107.5058210881857
 10
130.6097009210517
 20
-107.5058210881857
 10
136.4177873996338
 20
-107.505818241106
 10
136.4177873996338
 20
-107.505818241106
 10
136.4177873996338
 20
-107.505818241106
 10
142.6944126588504
 20
-119.3269713028916
 10
142.6944126588504
 20
-119.3269713028916
 10
142.6944126588504
 20
-119.3269713028916
 10
143.1805156318185
 20
-119.3269710646079
 10
143.1805156318185
 20
-119.3269710646079
 10
143.1805156318185
 20
-119.3269710646079
 10
143.180509837178
 20
-107.5058149260714
 10
143.180509837178
 20
-107.5058149260714
 10
143.180509837178
 20
-107.5058149260714
 10
148.4935360945299
 20
-107.5058123216666
 10
148.4935360945299
 20
-107.5058123216666
 10
148.4935360945299
 20
-107.5058123216666
 10
148.4935497766055
 20
-135.4174591788344
 10
148.4935497766055
 20
-135.4174591788344
 97
        0
 97
        1
330
D6
 75
     2
 76
     1
 98
        1
 10
0.0
 20
0.0
450
        0
451
        0
460
0.0
461
0.0
452
        0
462
0.0
453
        0
470

  0
LWPOLYLINE
  5
D8
330
B9
100
AcDbEntity
  8
Layer 1
100
AcDbPolyline
 90
        4
 70
     1
 43
0.0
 10
427.34752982901
 20
-94.83639076573139
 10
426.1065324289295
 20
-91.76002140042703
 10
396.9881182706089
 20
-157.6172551743364
 10
398.2291156706933
 20
-160.6936245396408
  0
LWPOLYLINE
  5
D9
330
B9
100
AcDbEntity
  8
Layer 1
100
AcDbPolyline
 90
        4
 70
     1
 43
0.0
 10
414.6899075745891
 20
-94.83639697040057
 10
413.4489101745086
 20
-91.76002760509655
 10
384.3304960161919
 20
-157.6172613790062
 10
385.5714934162724
 20
-160.6936307443102
  0
LWPOLYLINE
  5
DA
330
B9
100
AcDbEntity
  8
Layer 1
100
AcDbPolyline
 90
        4
 70
     1
 43
0.0
 10
402.0322853201681
 20
-94.8364031750704
 10
400.7912879200877
 20
-91.76003380976606
 10
371.672873761771
 20
-157.6172675836757
 10
372.9138711618515
 20
-160.6936369489798
  0
LWPOLYLINE
  5
DB
330
B9
100
AcDbEntity
  8
Layer 1
100
AcDbPolyline
 90
        4
 70
     1
 43
0.0
 10
389.3746630657473
 20
-94.83640937974023
 10
388.1336656656668
 20
-91.76004001443589
 10
359.01525150735
 20
-157.6172737883452
 10
360.2562489074306
 20
-160.6936431536493
  0
LWPOLYLINE
  5
DC
330
B9
100
AcDbEntity
  8
Layer 1
100
AcDbPolyline
 90
        4
 70
     1
 43
0.0
 10
376.7170408113264
 20
-94.83641558440941
 10
375.4760434112459
 20
-91.76004621910475
 10
346.3576292529272
 20
-157.6172799930147
 10
347.598626653009
 20
-160.6936493583194
  0
LWPOLYLINE
  5
DD
330
B9
100
AcDbEntity
  8
Layer 1
100
AcDbPolyline
 90
        4
 70
     1
 43
0.0
 10
364.0594185569055
 20
-94.83642178907926
 10
362.818421156825
 20
-91.76005242377458
 10
333.700006998507
 20
-157.6172861976846
 10
334.9410043985881
 20
-160.6936555629883
  0
LWPOLYLINE
  5
DE
330
B9
100
AcDbEntity
  8
Layer 1
100
AcDbPolyline
 90
        4
 70
     1
 43
0.0
 10
351.4017963024853
 20
-94.83642799374843
 10
350.1607989024034
 20
-91.76005862844441
 10
321.0423847440854
 20
-157.6172924023538
 10
322.2833821441672
 20
-160.6936617676578
  0
LWPOLYLINE
  5
DF
330
B9
100
AcDbEntity
  8
Layer 1
100
AcDbPolyline
 90
        4
 70
     1
 43
0.0
 10
338.7441740480643
 20
-94.83643419841795
 10
337.5031766479825
 20
-91.76006483311359
 10
308.3847624896652
 20
-157.6172986070233
 10
309.6257598897463
 20
-160.6936679723276
  0
LWPOLYLINE
  5
E0
330
B9
100
AcDbEntity
  8
Layer 1
100
AcDbPolyline
 90
        4
 70
     1
 43
0.0
 10
326.0865517936427
 20
-94.83644040308778
 10
324.8455543935609
 20
-91.7600710377831
 10
295.7271402352436
 20
-157.6173048116925
 10
296.9681376353254
 20
-160.6936741769968
  0
LWPOLYLINE
  5
E1
330
B9
100
AcDbEntity
  8
Layer 1
100
AcDbPolyline
 90
        4
 70
     1
 43
0.0
 10
313.4289295392218
 20
-94.83644660775729
 10
312.1879321391407
 20
-91.76007724245293
 10
283.069517980823
 20
-157.6173110163623
 10
284.3105153809048
 20
-160.6936803816666
  0
LWPOLYLINE
  5
E2
330
B9
100
AcDbEntity
  8
Layer 1
100
AcDbPolyline
 90
        4
 70
     1
 43
0.0
 10
300.7713072848009
 20
-94.83645281242647
 10
299.5303098847198
 20
-91.76008344712213
 10
270.4118957264017
 20
-157.6173172210318
 10
271.6528931264836
 20
-160.6936865863361
  0
LWPOLYLINE
  5
E3
330
B9
100
AcDbEntity
  8
Layer 1
100
AcDbPolyline
 90
        4
 70
     1
 43
0.0
 10
288.1136850303807
 20
-94.83645901709598
 10
286.8726876302985
 20
-91.76008965179162
 10
257.7542734719805
 20
-157.6173234257016
 10
258.9952708720626
 20
-160.6936927910053
  0
LWPOLYLINE
  5
E4
330
B9
100
AcDbEntity
  8
Layer 1
100
AcDbPolyline
 90
        4
 70
     1
 43
0.0
 10
275.4560627759598
 20
-94.83646522176547
 10
274.215065375878
 20
-91.76009585646147
 10
245.0966512175593
 20
-157.6173296303711
 10
246.3376486176427
 20
-160.6936989956752
  0
LWPOLYLINE
  5
E5
330
B9
100
AcDbEntity
  8
Layer 1
100
AcDbPolyline
 90
        4
 70
     1
 43
0.0
 10
262.7984405215385
 20
-94.83647142643564
 10
261.5574431214561
 20
-91.76010206113065
 10
232.4390289631397
 20
-157.6173358350406
 10
233.6800263632215
 20
-160.693705200345
  0
LWPOLYLINE
  5
E6
330
B9
100
AcDbEntity
  8
Layer 1
100
AcDbPolyline
 90
        4
 70
     1
 43
0.0
 10
250.140818267118
 20
-94.8364776311048
 10
248.8998208670361
 20
-91.7601082658008
 10
219.7814067087187
 20
-157.6173420397101
 10
221.0224041088012
 20
-160.6937114050142
  0
LWPOLYLINE
  5
E7
330
B9
100
AcDbEntity
  8
Layer 1
100
AcDbPolyline
 90
        4
 70
     1
 43
0.0
 10
237.4831960126986
 20
-94.83648383577433
 10
236.2421986126149
 20
-91.76011447046965
 10
207.1237844542978
 20
-157.6173482443797
 10
208.3647818543809
 20
-160.6937176096837
  0
LWPOLYLINE
  5
E8
330
B9
100
AcDbEntity
  8
Layer 1
100
AcDbPolyline
 90
        4
 70
     1
 43
0.0
 10
224.8255737582774
 20
-94.83649004044384
 10
223.5845763581943
 20
-91.7601206751395
 10
194.4661621998775
 20
-157.6173544490495
 10
195.70715959996
 20
-160.6937238143532
  0
LWPOLYLINE
  5
E9
330
B9
100
AcDbEntity
  8
Layer 1
100
AcDbPolyline
 90
        4
 70
     1
 43
0.0
 10
212.1679515038568
 20
-94.83649624511334
 10
210.9269541037737
 20
-91.76012687980868
 10
181.8085399454573
 20
-157.6173606537187
 10
183.0495373455397
 20
-160.693730019023
  0
LWPOLYLINE
  5
EA
330
B9
100
AcDbEntity
  8
Layer 1
100
AcDbPolyline
 90
        4
 70
     1
 43
0.0
 10
199.5103292494355
 20
-94.83650244978285
 10
198.2693318493531
 20
-91.76013308447851
 10
169.150917691037
 20
-157.6173668583882
 10
170.3919150911195
 20
-160.6937362236922
  0
LWPOLYLINE
  5
EB
330
B9
100
AcDbEntity
  8
Layer 1
100
AcDbPolyline
 90
        4
 70
     1
 43
0.0
 10
186.8527069950149
 20
-94.83650865445236
 10
185.6117095949331
 20
-91.76013928914802
 10
156.4932954366161
 20
-157.6173730630577
 10
157.7342928366992
 20
-160.6937424283617
  0
LWPOLYLINE
  5
EC
330
B9
100
AcDbEntity
  8
Layer 1
100
AcDbPolyline
 90
        4
 70
     1
 43
0.0
 10
174.195084740595
 20
-94.83651485912155
 10
172.9540873405125
 20
-91.76014549381752
 10
143.8356731821961
 20
-157.6173792677272
 10
145.0766705822786
 20
-160.6937486330312
  0
LWPOLYLINE
  5
ED
330
B9
100
AcDbEntity
  8
Layer 1
100
AcDbPolyline
 90
        4
 70
     1
 43
0.0
 10
161.5374624861744
 20
-94.83652106379169
 10
160.2964650860919
 20
-91.76015169848735
 10
131.1780509277755
 20
-157.6173854723967
 10
132.419048327858
 20
-160.6937548377007
  0
LWPOLYLINE
  5
EE
330
B9
100
AcDbEntity
  8
Layer 1
100
AcDbPolyline
 90
        4
 70
     1
 43
0.0
 10
148.8798402317538
 20
-94.8365272684612
 10
147.638842831672
 20
-91.76015790315686
 10
118.5204286733543
 20
-157.6173916770662
 10
119.7614260734371
 20
-160.6937610423706
  0
ENDBLK
  5
BC
330
B9
100
AcDbEntity
  8
0
100
AcDbBlockEnd
  0
ENDSEC
  0
SECTION
  2
ENTITIES
  0
INSERT
  5
7A
330
70
100
AcDbEntity
  8
Layer 1
100
AcDbBlockReference
  2
Block_0
 10
0.0
 20
0.0
 30
0.0
  0
INSERT
  5
92
330
70
100
AcDbEntity
  8
Layer 1
100
AcDbBlockReference
  2
Block_1
 10
0.0
 20
0.0
 30
0.0
  0
INSERT
  5
A6
330
70
100
AcDbEntity
  8
Layer 1
100
AcDbBlockReference
  2
Block_2
 10
0.0
 20
0.0
 30
0.0
  0
INSERT
  5
BA
330
70
100
AcDbEntity
  8
Layer 1
100
AcDbBlockReference
  2
Block_3
 10
0.0
 20
0.0
 30
0.0
  0
ENDSEC
  0
SECTION
  2
OBJECTS
  0
DICTIONARY
  5
C
330
0
100
AcDbDictionary
281
     1
  3
ACAD_COLOR
350
63
  3
ACAD_DETAILVIEWSTYLE
350
6A
  3
ACAD_GROUP
350
D
  3
ACAD_LAYOUT
350
62
  3
ACAD_MATERIAL
350
10
  3
ACAD_MLEADERSTYLE
350
66
  3
ACAD_MLINESTYLE
350
5F
  3
ACAD_PLOTSETTINGS
350
61
  3
ACAD_PLOTSTYLENAME
350
E
  3
ACAD_SCALELIST
350
42
  3
ACAD_SECTIONVIEWSTYLE
350
68
  3
ACAD_TABLESTYLE
350
64
  3
ACAD_VISUALSTYLE
350
29
  3
ACDB_RECOMPOSE_DATA
350
F7
  3
AcDbVariableDictionary
350
EF
  0
DICTIONARY
  5
63
102
{ACAD_REACTORS
330
C
102
}
330
C
100
AcDbDictionary
281
     1
  0
DICTIONARY
  5
6A
102
{ACAD_REACTORS
330
C
102
}
330
C
100
AcDbDictionary
281
     1
  3
Imperial24
350
6B
  0
DICTIONARY
  5
D
102
{ACAD_REACTORS
330
C
102
}
330
C
100
AcDbDictionary
281
     1
  0
DICTIONARY
  5
62
102
{ACAD_REACTORS
330
C
102
}
330
C
100
AcDbDictionary
281
     1
  3
Layout1
350
6F
  3
Layout2
350
77
  3
Model
350
73
  0
DICTIONARY
  5
10
102
{ACAD_REACTORS
330
C
102
}
330
C
100
AcDbDictionary
281
     1
  3
ByBlock
350
19
  3
ByLayer
350
11
  3
Global
350
21
  0
DICTIONARY
  5
66
102
{ACAD_REACTORS
330
C
102
}
330
C
100
AcDbDictionary
281
     1
  3
Standard
350
67
  0
DICTIONARY
  5
5F
102
{ACAD_REACTORS
330
C
102
}
330
C
100
AcDbDictionary
281
     1
  3
Standard
350
60
  0
DICTIONARY
  5
61
102
{ACAD_REACTORS
330
C
102
}
330
C
100
AcDbDictionary
281
     1
  0
ACDBDICTIONARYWDFLT
  5
E
102
{ACAD_REACTORS
330
C
102
}
330
C
100
AcDbDictionary
281
     1
  3
Normal
350
F
100
AcDbDictionaryWithDefault
340
F
  0
DICTIONARY
  5
42
102
{ACAD_REACTORS
330
C
102
}
330
C
100
AcDbDictionary
281
     1
  3
A0
350
43
  3
A1
350
44
  3
A2
350
45
  3
A3
350
46
  3
A4
350
47
  3
A5
350
48
  3
A6
350
49
  3
A7
350
4A
  3
A8
350
4B
  3
A9
350
4C
  3
B0
350
4D
  3
B1
350
4E
  3
B2
350
4F
  3
B3
350
50
  3
B4
350
51
  3
B5
350
52
  3
B6
350
53
  0
DICTIONARY
  5
68
102
{ACAD_REACTORS
330
C
102
}
330
C
100
AcDbDictionary
281
     1
  3
Imperial24
350
69
  0
DICTIONARY
  5
64
102
{ACAD_REACTORS
330
C
102
}
330
C
100
AcDbDictionary
281
     1
  3
Standard
350
65
  0
DICTIONARY
  5
29
102
{ACAD_REACTORS
330
C
102
}
330
C
100
AcDbDictionary
281
     1
  3
2dWireframe
350
2F
  3
Basic
350
2E
  3
Brighten
350
35
  3
ColorChange
350
39
  3
Conceptual
350
32
  3
Dim
350
34
  3
EdgeColorOff
350
41
  3
Facepattern
350
38
  3
Flat
350
2A
  3
FlatWithEdges
350
2B
  3
Gouraud
350
2C
  3
GouraudWithEdges
350
2D
  3
Hidden
350
31
  3
JitterOff
350
3F
  3
Linepattern
350
37
  3
OverhangOff
350
40
  3
Realistic
350
33
  3
Shaded
350
3E
  3
Shaded with edges
350
3D
  3
Shades of Gray
350
3A
  3
Sketchy
350
3B
  3
Thicken
350
36
  3
Wireframe
350
30
  3
X-Ray
350
3C
  0
XRECORD
  5
F7
102
{ACAD_REACTORS
330
C
102
}
330
C
100
AcDbXrecord
280
     1
 90
        1
330
65
  0
DICTIONARY
  5
EF
102
{ACAD_REACTORS
330
C
102
}
330
C
100
AcDbDictionary
281
     1
  3
CANNOSCALE
350
F4
  3
CMLEADERSTYLE
350
F1
  3
CTABLESTYLE
350
F0
  3
CVIEWDETAILSTYLE
350
F2
  3
CVIEWSECTIONSTYLE
350
F3
  0
ACDBDETAILVIEWSTYLE
  5
6B
102
{ACAD_REACTORS
330
6A
102
}
330
6A
100
AcDbModelDocViewStyle
 70
     0
  3
Imperial24
290
     1
300
Imperial24
 90
        0
100
AcDbDetailViewStyle
 70
     0
 71
     0
 90
        3
 71
     1
340
55
 62
   256
 40
0.24
340
0
 62
   256
 40
0.24
300

 40
0.36
280
     3
 71
     2
340
5D
 90
       25
 62
   256
 71
     3
340
55
 62
   256
 40
0.24
 90
        1
 40
0.75
 90
        1
300
%<\AcVar ViewType \f "%tc1">% %<\AcVar ViewDetailId>%\PSCALE %<\AcVar ViewScale \f "%sn">%
 71
     4
340
5D
 90
       25
 62
   256
340
5D
 90
       25
 62
   256
280
     0
  0
LAYOUT
  5
6F
102
{ACAD_REACTORS
330
62
102
}
330
62
100
AcDbPlotSettings
  1

  2

  4

  6

 40
0.0
 41
0.0
 42
0.0
 43
0.0
 44
0.0
 45
0.0
 46
0.0
 47
0.0
 48
0.0
 49
0.0
140
0.0
141
0.0
142
1.0
143
1.0
 70
   688
 72
     0
 73
     0
 74
     5
  7

 75
    16
147
1.0
 76
     0
 77
     2
 78
   300
148
0.0
149
0.0
100
AcDbLayout
  1
Layout1
 70
     1
 71
     1
 10
0.0
 20
0.0
 11
12.0
 21
9.0
 12
0.0
 22
0.0
 32
0.0
 14
0.0
 24
0.0
 34
0.0
 15
0.0
 25
0.0
 35
0.0
146
0.0
 13
0.0
 23
0.0
 33
0.0
 16
1.0
 26
0.0
 36
0.0
 17
0.0
 27
1.0
 37
0.0
 76
     0
330
6C
  0
LAYOUT
  5
77
102
{ACAD_REACTORS
330
62
102
}
330
62
100
AcDbPlotSettings
  1

  2

  4

  6

 40
0.0
 41
0.0
 42
0.0
 43
0.0
 44
0.0
 45
0.0
 46
0.0
 47
0.0
 48
0.0
 49
0.0
140
0.0
141
0.0
142
1.0
143
1.0
 70
   688
 72
     0
 73
     0
 74
     5
  7

 75
    16
147
1.0
 76
     0
 77
     2
 78
   300
148
0.0
149
0.0
100
AcDbLayout
  1
Layout2
 70
     1
 71
     2
 10
0.0
 20
0.0
 11
12.0
 21
9.0
 12
0.0
 22
0.0
 32
0.0
 14
0.0
 24
0.0
 34
0.0
 15
0.0
 25
0.0
 35
0.0
146
0.0
 13
0.0
 23
0.0
 33
0.0
 16
1.0
 26
0.0
 36
0.0
 17
0.0
 27
1.0
 37
0.0
 76
     0
330
74
  0
LAYOUT
  5
73
102
{ACAD_REACTORS
330
62
102
}
330
62
100
AcDbPlotSettings
  1

  2

  4

  6

 40
0.0
 41
0.0
 42
0.0
 43
0.0
 44
0.0
 45
0.0
 46
0.0
 47
0.0
 48
0.0
 49
0.0
140
0.0
141
0.0
142
1.0
143
1.0
 70
  1712
 72
     0
 73
     0
 74
     0
  7

 75
     0
147
1.0
 76
     0
 77
     2
 78
   300
148
0.0
149
0.0
100
AcDbLayout
  1
Model
 70
     1
 71
     0
 10
0.0
 20
0.0
 11
12.0
 21
9.0
 12
0.0
 22
0.0
 32
0.0
 14
0.0
 24
0.0
 34
0.0
 15
0.0
 25
0.0
 35
0.0
146
0.0
 13
0.0
 23
0.0
 33
0.0
 16
1.0
 26
0.0
 36
0.0
 17
0.0
 27
1.0
 37
0.0
 76
     0
330
70
  0
MATERIAL
  5
19
102
{ACAD_XDICTIONARY
360
1A
102
}
102
{ACAD_REACTORS
330
10
102
}
330
10
100
AcDbMaterial
  1
ByBlock
 72
     0
 43
0.0208333333333333
 43
0.0
 43
0.0
 43
0.0
 43
0.0
 43
0.0208333333333333
 43
0.0
 43
0.0
 43
0.0
 43
0.0
 43
1.0
 43
0.0
 43
0.0
 43
0.0
 43
0.0
 43
1.0
 77
     0
 47
0.0208333333333333
 47
0.0
 47
0.0
 47
0.0
 47
0.0
 47
0.0208333333333333
 47
0.0
 47
0.0
 47
0.0
 47
0.0
 47
1.0
 47
0.0
 47
0.0
 47
0.0
 47
0.0
 47
1.0
171
     0
 49
0.0208333333333333
 49
0.0
 49
0.0
 49
0.0
 49
0.0
 49
0.0208333333333333
 49
0.0
 49
0.0
 49
0.0
 49
0.0
 49
1.0
 49
0.0
 49
0.0
 49
0.0
 49
0.0
 49
1.0
175
     0
142
0.0208333333333333
142
0.0
142
0.0
142
0.0
142
0.0
142
0.0208333333333333
142
0.0
142
0.0
142
0.0
142
0.0
142
1.0
142
0.0
142
0.0
142
0.0
142
0.0
142
1.0
179
     0
144
0.0208333333333333
144
0.0
144
0.0
144
0.0
144
0.0
144
0.0208333333333333
144
0.0
144
0.0
144
0.0
144
0.0
144
1.0
144
0.0
144
0.0
144
0.0
144
0.0
144
1.0
147
0.0208333333333333
147
0.0
147
0.0
147
0.0
147
0.0
147
0.0208333333333333
147
0.0
147
0.0
147
0.0
147
0.0
147
1.0
147
0.0
147
0.0
147
0.0
147
0.0
147
1.0
  0
MATERIAL
  5
11
102
{ACAD_XDICTIONARY
360
12
102
}
102
{ACAD_REACTORS
330
10
102
}
330
10
100
AcDbMaterial
  1
ByLayer
 72
     0
 43
0.0208333333333333
 43
0.0
 43
0.0
 43
0.0
 43
0.0
 43
0.0208333333333333
 43
0.0
 43
0.0
 43
0.0
 43
0.0
 43
1.0
 43
0.0
 43
0.0
 43
0.0
 43
0.0
 43
1.0
 77
     0
 47
0.0208333333333333
 47
0.0
 47
0.0
 47
0.0
 47
0.0
 47
0.0208333333333333
 47
0.0
 47
0.0
 47
0.0
 47
0.0
 47
1.0
 47
0.0
 47
0.0
 47
0.0
 47
0.0
 47
1.0
171
     0
 49
0.0208333333333333
 49
0.0
 49
0.0
 49
0.0
 49
0.0
 49
0.0208333333333333
 49
0.0
 49
0.0
 49
0.0
 49
0.0
 49
1.0
 49
0.0
 49
0.0
 49
0.0
 49
0.0
 49
1.0
175
     0
142
0.0208333333333333
142
0.0
142
0.0
142
0.0
142
0.0
142
0.0208333333333333
142
0.0
142
0.0
142
0.0
142
0.0
142
1.0
142
0.0
142
0.0
142
0.0
142
0.0
142
1.0
179
     0
144
0.0208333333333333
144
0.0
144
0.0
144
0.0
144
0.0
144
0.0208333333333333
144
0.0
144
0.0
144
0.0
144
0.0
144
1.0
144
0.0
144
0.0
144
0.0
144
0.0
144
1.0
147
0.0208333333333333
147
0.0
147
0.0
147
0.0
147
0.0
147
0.0208333333333333
147
0.0
147
0.0
147
0.0
147
0.0
147
1.0
147
0.0
147
0.0
147
0.0
147
0.0
147
1.0
  0
MATERIAL
  5
21
102
{ACAD_XDICTIONARY
360
22
102
}
102
{ACAD_REACTORS
330
10
102
}
330
10
100
AcDbMaterial
  1
Global
 72
     0
 43
0.0208333333333333
 43
0.0
 43
0.0
 43
0.0
 43
0.0
 43
0.0208333333333333
 43
0.0
 43
0.0
 43
0.0
 43
0.0
 43
1.0
 43
0.0
 43
0.0
 43
0.0
 43
0.0
 43
1.0
 77
     0
 47
0.0208333333333333
 47
0.0
 47
0.0
 47
0.0
 47
0.0
 47
0.0208333333333333
 47
0.0
 47
0.0
 47
0.0
 47
0.0
 47
1.0
 47
0.0
 47
0.0
 47
0.0
 47
0.0
 47
1.0
171
     0
 49
0.0208333333333333
 49
0.0
 49
0.0
 49
0.0
 49
0.0
 49
0.0208333333333333
 49
0.0
 49
0.0
 49
0.0
 49
0.0
 49
1.0
 49
0.0
 49
0.0
 49
0.0
 49
0.0
 49
1.0
175
     0
142
0.0208333333333333
142
0.0
142
0.0
142
0.0
142
0.0
142
0.0208333333333333
142
0.0
142
0.0
142
0.0
142
0.0
142
1.0
142
0.0
142
0.0
142
0.0
142
0.0
142
1.0
179
     0
144
0.0208333333333333
144
0.0
144
0.0
144
0.0
144
0.0
144
0.0208333333333333
144
0.0
144
0.0
144
0.0
144
0.0
144
1.0
144
0.0
144
0.0
144
0.0
144
0.0
144
1.0
147
0.0208333333333333
147
0.0
147
0.0
147
0.0
147
0.0
147
0.0208333333333333
147
0.0
147
0.0
147
0.0
147
0.0
147
1.0
147
0.0
147
0.0
147
0.0
147
0.0
147
1.0
  0
MLEADERSTYLE
  5
67
102
{ACAD_REACTORS
330
66
102
}
330
66
100
AcDbMLeaderStyle
179
     2
170
     2
171
     1
172
     0
 90
        2
 40
0.0
 41
0.0
173
     1
 91
-1056964608
340
5B
 92
       -2
290
     1
 42
0.09
291
     1
 43
0.36
  3
Standard
 44
0.18
300

342
55
174
     1
178
     6
175
     1
176
     0
 93
-1056964608
 45
0.18
292
     0
297
     0
 46
0.18
 94
-1056964608
 47
1.0
 49
1.0
140
1.0
293
     1
141
0.0
294
     1
177
     0
142
1.0
295
     1
296
     0
143
0.125
271
     0
272
     9
273
     9
298
     1
  0
MLINESTYLE
  5
60
102
{ACAD_REACTORS
330
5F
102
}
330
5F
100
AcDbMlineStyle
  2
STANDARD
 70
     0
  3

 62
   256
 51
90.0
 52
90.0
 71
     2
 49
0.5
 62
   256
  6
BYLAYER
 49
-0.5
 62
   256
  6
BYLAYER
  0
ACDBPLACEHOLDER
  5
F
102
{ACAD_REACTORS
330
E
102
}
330
E
  0
SCALE
  5
43
102
{ACAD_REACTORS
330
42
102
}
330
42
100
AcDbScale
 70
     0
300
1:1
140
1.0
141
1.0
290
     1
  0
SCALE
  5
44
102
{ACAD_REACTORS
330
42
102
}
330
42
100
AcDbScale
 70
     0
300
1/128" = 1'-0"
140
0.0078125
141
12.0
290
     0
  0
SCALE
  5
45
102
{ACAD_REACTORS
330
42
102
}
330
42
100
AcDbScale
 70
     0
300
1/64" = 1'-0"
140
0.015625
141
12.0
290
     0
  0
SCALE
  5
46
102
{ACAD_REACTORS
330
42
102
}
330
42
100
AcDbScale
 70
     0
300
1/32" = 1'-0"
140
0.03125
141
12.0
290
     0
  0
SCALE
  5
47
102
{ACAD_REACTORS
330
42
102
}
330
42
100
AcDbScale
 70
     0
300
1/16" = 1'-0"
140
0.0625
141
12.0
290
     0
  0
SCALE
  5
48
102
{ACAD_REACTORS
330
42
102
}
330
42
100
AcDbScale
 70
     0
300
3/32" = 1'-0"
140
0.09375
141
12.0
290
     0
  0
SCALE
  5
49
102
{ACAD_REACTORS
330
42
102
}
330
42
100
AcDbScale
 70
     0
300
1/8" = 1'-0"
140
0.125
141
12.0
290
     0
  0
SCALE
  5
4A
102
{ACAD_REACTORS
330
42
102
}
330
42
100
AcDbScale
 70
     0
300
3/16" = 1'-0"
140
0.1875
141
12.0
290
     0
  0
SCALE
  5
4B
102
{ACAD_REACTORS
330
42
102
}
330
42
100
AcDbScale
 70
     0
300
1/4" = 1'-0"
140
0.25
141
12.0
290
     0
  0
SCALE
  5
4C
102
{ACAD_REACTORS
330
42
102
}
330
42
100
AcDbScale
 70
     0
300
3/8" = 1'-0"
140
0.375
141
12.0
290
     0
  0
SCALE
  5
4D
102
{ACAD_REACTORS
330
42
102
}
330
42
100
AcDbScale
 70
     0
300
1/2" = 1'-0"
140
0.5
141
12.0
290
     0
  0
SCALE
  5
4E
102
{ACAD_REACTORS
330
42
102
}
330
42
100
AcDbScale
 70
     0
300
3/4" = 1'-0"
140
0.75
141
12.0
290
     0
  0
SCALE
  5
4F
102
{ACAD_REACTORS
330
42
102
}
330
42
100
AcDbScale
 70
     0
300
1" = 1'-0"
140
1.0
141
12.0
290
     0
  0
SCALE
  5
50
102
{ACAD_REACTORS
330
42
102
}
330
42
100
AcDbScale
 70
     0
300
1-1/2" = 1'-0"
140
1.5
141
12.0
290
     0
  0
SCALE
  5
51
102
{ACAD_REACTORS
330
42
102
}
330
42
100
AcDbScale
 70
     0
300
3" = 1'-0"
140
3.0
141
12.0
290
     0
  0
SCALE
  5
52
102
{ACAD_REACTORS
330
42
102
}
330
42
100
AcDbScale
 70
     0
300
6" = 1'-0"
140
6.0
141
12.0
290
     0
  0
SCALE
  5
53
102
{ACAD_REACTORS
330
42
102
}
330
42
100
AcDbScale
 70
     0
300
1'-0" = 1'-0"
140
12.0
141
12.0
290
     0
  0
ACDBSECTIONVIEWSTYLE
  5
69
102
{ACAD_REACTORS
330
68
102
}
330
68
100
AcDbModelDocViewStyle
 70
     0
  3
Imperial24
290
     1
300
Imperial24
 90
        0
100
AcDbSectionViewStyle
 70
     0
 71
     0
 90
       78
 71
     1
340
55
 62
   256
 40
0.24
340
0
340
0
 62
   256
 40
0.24
300
I, O, Q, S, X, Z
 40
0.48
 90
        3
 40
0.18
 90
        1
 71
     2
340
5D
 90
       25
 62
   256
340
5D
 90
       50
 62
   256
 40
0.24
 40
0.0
 40
0.24
 71
     3
340
55
 62
   256
 40
0.24
 90
        1
 40
0.75
 90
        1
300
%<\AcVar ViewType \f "%tc1">% %<\AcVar ViewSectionStartId>%-%<\AcVar ViewSectionEndId>%\PSCALE %<\AcVar ViewScale \f "%sn">%
 71
     4
 62
   256
 62
   257
300
ANSI31
 40
1.0
 90
        0
290
     0
290
     0
 90
        6
 40
0.0
 40
1.570796326794896
 40
0.2617993877991494
 40
1.308996938995747
 40
-0.2617993877991494
 40
1.832595714594046
  0
TABLESTYLE
  5
65
102
{ACAD_XDICTIONARY
360
F5
102
}
102
{ACAD_REACTORS
330
64
102
}
330
64
100
AcDbTableStyle
280
     0
  3
Standard
 70
     0
 71
     0
 40
0.06
 41
0.06
280
     0
281
     0
  7
Standard
140
0.18
170
     2
 62
     0
 63
     7
283
     0
 90
      512
 91
        0
  1

274
    -2
284
     1
 64
     0
275
    -2
285
     1
 65
     0
276
    -2
286
     1
 66
     0
277
    -2
287
     1
 67
     0
278
    -2
288
     1
 68
     0
279
    -2
289
     1
 69
     0
  7
Standard
140
0.25
170
     5
 62
     0
 63
     7
283
     0
 90
      512
 91
        0
  1

274
    -2
284
     1
 64
     0
275
    -2
285
     1
 65
     0
276
    -2
286
     1
 66
     0
277
    -2
287
     1
 67
     0
278
    -2
288
     1
 68
     0
279
    -2
289
     1
 69
     0
  7
Standard
140
0.18
170
     5
 62
     0
 63
     7
283
     0
 90
      512
 91
        0
  1

274
    -2
284
     1
 64
     0
275
    -2
285
     1
 65
     0
276
    -2
286
     1
 66
     0
277
    -2
287
     1
 67
     0
278
    -2
288
     1
 68
     0
279
    -2
289
     1
 69
     0
  0
VISUALSTYLE
  5
2F
102
{ACAD_REACTORS
330
29
102
}
330
29
100
AcDbVisualStyle
  2
2dWireframe
 70
     4
177
     3
291
     0
 70
    58
 90
        0
176
     1
 90
        2
176
     1
 90
        0
176
     1
 90
        0
176
     1
 40
0.6
176
     1
 40
30.0
176
     1
 62
     7
420
 16777215
176
     1
 90
        1
176
     1
 90
        4
176
     1
 62
     7
176
     1
 62
   257
176
     1
 90
        1
176
     1
 90
        1
176
     1
 40
1.0
176
     1
 90
        0
176
     1
 62
   257
176
     1
 40
1.0
176
     1
 90
        1
176
     1
 90
        6
176
     1
 90
        2
176
     1
 62
     7
176
     1
 90
        5
176
     1
 90
        0
176
     1
 90
        0
176
     1
290
     0
176
     1
 90
        1
176
     1
 40
0.0
176
     1
 90
        0
176
     1
290
     1
176
     1
290
     1
176
     1
290
     0
176
     1
290
     0
176
     1
290
     0
176
     1
290
     0
176
     1
290
     0
176
     1
290
     0
176
     1
290
     0
176
     1
 90
       50
176
     1
 40
0.0
176
     1
 40
1.0
176
     1
 90
        0
176
     1
 62
    18
420
        0
176
     1
 90
       50
176
     1
 90
        3
176
     1
 62
     5
420
      255
176
     1
290
     0
176
     1
 90
       50
176
     1
 90
       50
176
     1
 90
       50
176
     1
290
     0
176
     1
 90
       50
176
     1
 62
   256
176
     0
 40
1.0
176
     0
 90
        2
176
     1
  1
strokes_ogs.tif
176
     1
290
     0
176
     1
 40
1.0
176
     1
 40
1.0
176
     1
  0
VISUALSTYLE
  5
2E
102
{ACAD_REACTORS
330
29
102
}
330
29
100
AcDbVisualStyle
  2
Basic
 70
     7
177
     3
291
     1
 70
    58
 90
        1
176
     1
 90
        0
176
     1
 90
        1
176
     1
 90
        0
176
     1
 40
0.6
176
     1
 40
30.0
176
     1
 62
     7
420
 16777215
176
     1
 90
        0
176
     1
 90
        4
176
     1
 62
     7
176
     1
 62
   257
176
     1
 90
        1
176
     1
 90
        1
176
     1
 40
1.0
176
     1
 90
        8
176
     1
 62
     7
176
     1
 40
1.0
176
     1
 90
        1
176
     1
 90
        6
176
     1
 90
        2
176
     1
 62
     7
176
     1
 90
        5
176
     1
 90
        0
176
     1
 90
        0
176
     1
290
     0
176
     1
 90
        1
176
     1
 40
0.0
176
     1
 90
        0
176
     1
290
     0
176
     1
290
     1
176
     1
290
     1
176
     1
290
     0
176
     1
290
     0
176
     1
290
     0
176
     1
290
     0
176
     1
290
     0
176
     1
290
     0
176
     1
 90
       50
176
     1
 40
0.0
176
     1
 40
1.0
176
     1
 90
        0
176
     1
 62
    18
420
        0
176
     1
 90
       50
176
     1
 90
        3
176
     1
 62
     5
420
      255
176
     1
290
     0
176
     1
 90
       50
176
     1
 90
       50
176
     1
 90
       50
176
     1
290
     0
176
     1
 90
       50
176
     1
 62
   256
176
     0
 40
1.0
176
     0
 90
        2
176
     1
  1
strokes_ogs.tif
176
     1
290
     0
176
     1
 40
1.0
176
     1
 40
1.0
176
     1
  0
VISUALSTYLE
  5
35
102
{ACAD_REACTORS
330
29
102
}
330
29
100
AcDbVisualStyle
  2
Brighten
 70
    12
177
     3
291
     1
 70
    58
 90
        2
176
     1
 90
        2
176
     1
 90
        0
176
     1
 90
        0
176
     1
 40
0.6
176
     1
 40
30.0
176
     1
 62
     7
420
 16777215
176
     1
 90
        1
176
     1
 90
        4
176
     1
 62
     7
176
     1
 62
   257
176
     1
 90
        1
176
     1
 90
        1
176
     1
 40
1.0
176
     1
 90
        8
176
     1
 62
     7
176
     1
 40
1.0
176
     1
 90
        1
176
     1
 90
        6
176
     1
 90
        2
176
     1
 62
     7
176
     1
 90
        5
176
     1
 90
        0
176
     1
 90
        0
176
     1
290
     0
176
     1
 90
        1
176
     1
 40
50.0
176
     1
 90
        0
176
     1
290
     0
176
     1
290
     1
176
     1
290
     1
176
     1
290
     0
176
     1
290
     0
176
     1
290
     0
176
     1
290
     0
176
     1
290
     0
176
     1
290
     0
176
     1
 90
       50
176
     1
 40
0.0
176
     1
 40
1.0
176
     1
 90
        0
176
     1
 62
    18
420
        0
176
     1
 90
       50
176
     1
 90
        3
176
     1
 62
     5
420
      255
176
     1
290
     0
176
     1
 90
       50
176
     1
 90
       50
176
     1
 90
       50
176
     1
290
     0
176
     1
 90
       50
176
     1
 62
   256
176
     0
 40
1.0
176
     0
 90
        2
176
     1
  1
strokes_ogs.tif
176
     1
290
     0
176
     1
 40
1.0
176
     1
 40
1.0
176
     1
  0
VISUALSTYLE
  5
39
102
{ACAD_REACTORS
330
29
102
}
330
29
100
AcDbVisualStyle
  2
ColorChange
 70
    16
177
     3
291
     1
 70
    58
 90
        2
176
     1
 90
        2
176
     1
 90
        3
176
     1
 90
        0
176
     1
 40
0.6
176
     1
 40
30.0
176
     1
 62
     8
420
  8421504
176
     1
 90
        1
176
     1
 90
        4
176
     1
 62
     7
176
     1
 62
   257
176
     1
 90
        1
176
     1
 90
        1
176
     1
 40
1.0
176
     1
 90
        8
176
     1
 62
     8
420
  8421504
176
     1
 40
1.0
176
     1
 90
        1
176
     1
 90
        6
176
     1
 90
        2
176
     1
 62
     7
176
     1
 90
        5
176
     1
 90
        0
176
     1
 90
        0
176
     1
290
     0
176
     1
 90
        1
176
     1
 40
0.0
176
     1
 90
        0
176
     1
290
     0
176
     1
290
     1
176
     1
290
     1
176
     1
290
     0
176
     1
290
     0
176
     1
290
     0
176
     1
290
     0
176
     1
290
     0
176
     1
290
     0
176
     1
 90
       50
176
     1
 40
0.0
176
     1
 40
1.0
176
     1
 90
        0
176
     1
 62
    18
420
        0
176
     1
 90
       50
176
     1
 90
        3
176
     1
 62
     5
420
      255
176
     1
290
     0
176
     1
 90
       50
176
     1
 90
       50
176
     1
 90
       50
176
     1
290
     0
176
     1
 90
       50
176
     1
 62
   256
176
     0
 40
1.0
176
     0
 90
        2
176
     1
  1
strokes_ogs.tif
176
     1
290
     0
176
     1
 40
1.0
176
     1
 40
1.0
176
     1
  0
VISUALSTYLE
  5
32
102
{ACAD_REACTORS
330
29
102
}
330
29
100
AcDbVisualStyle
  2
Conceptual
 70
     9
177
     3
291
     0
 70
    58
 90
        3
176
     1
 90
        2
176
     1
 90
        0
176
     1
 90
        0
176
     1
 40
0.6
176
     1
 40
30.0
176
     1
 62
     7
420
 16777215
176
     1
 90
        2
176
     1
 90
        2
176
     1
 62
     7
176
     1
 62
   257
176
     1
 90
        1
176
     1
 90
        1
176
     1
 40
179.0
176
     1
 90
        8
176
     1
 62
     7
176
     1
 40
1.0
176
     1
 90
        1
176
     1
 90
        6
176
     1
 90
        2
176
     1
 62
     7
176
     1
 90
        3
176
     1
 90
        0
176
     1
 90
        0
176
     1
290
     0
176
     1
 90
        1
176
     1
 40
0.0
176
     1
 90
        0
176
     1
290
     0
176
     1
290
     1
176
     1
290
     1
176
     1
290
     0
176
     1
290
     0
176
     1
290
     0
176
     1
290
     0
176
     1
290
     0
176
     1
290
     0
176
     1
 90
       50
176
     1
 40
0.0
176
     1
 40
1.0
176
     1
 90
        0
176
     1
 62
    18
420
        0
176
     1
 90
       50
176
     1
 90
        3
176
     1
 62
     5
420
      255
176
     1
290
     0
176
     1
 90
       50
176
     1
 90
       50
176
     1
 90
       50
176
     1
290
     0
176
     1
 90
       50
176
     1
 62
   256
176
     0
 40
1.0
176
     0
 90
        2
176
     1
  1
strokes_ogs.tif
176
     1
290
     0
176
     1
 40
1.0
176
     1
 40
1.0
176
     1
  0
VISUALSTYLE
  5
34
102
{ACAD_REACTORS
330
29
102
}
330
29
100
AcDbVisualStyle
  2
Dim
 70
    11
177
     3
291
     1
 70
    58
 90
        2
176
     1
 90
        2
176
     1
 90
        0
176
     1
 90
        0
176
     1
 40
0.6
176
     1
 40
30.0
176
     1
 62
     7
420
 16777215
176
     1
 90
        1
176
     1
 90
        4
176
     1
 62
     7
176
     1
 62
   257
176
     1
 90
        1
176
     1
 90
        1
176
     1
 40
1.0
176
     1
 90
        8
176
     1
 62
     7
176
     1
 40
1.0
176
     1
 90
        1
176
     1
 90
        6
176
     1
 90
        2
176
     1
 62
     7
176
     1
 90
        5
176
     1
 90
        0
176
     1
 90
        0
176
     1
290
     0
176
     1
 90
        1
176
     1
 40
-50.0
176
     1
 90
        0
176
     1
290
     0
176
     1
290
     1
176
     1
290
     1
176
     1
290
     0
176
     1
290
     0
176
     1
290
     0
176
     1
290
     0
176
     1
290
     0
176
     1
290
     0
176
     1
 90
       50
176
     1
 40
0.0
176
     1
 40
1.0
176
     1
 90
        0
176
     1
 62
    18
420
        0
176
     1
 90
       50
176
     1
 90
        3
176
     1
 62
     5
420
      255
176
     1
290
     0
176
     1
 90
       50
176
     1
 90
       50
176
     1
 90
       50
176
     1
290
     0
176
     1
 90
       50
176
     1
 62
   256
176
     0
 40
1.0
176
     0
 90
        2
176
     1
  1
strokes_ogs.tif
176
     1
290
     0
176
     1
 40
1.0
176
     1
 40
1.0
176
     1
  0
VISUALSTYLE
  5
41
102
{ACAD_REACTORS
330
29
102
}
330
29
100
AcDbVisualStyle
  2
EdgeColorOff
 70
    22
177
     3
291
     1
 70
    58
 90
        2
176
     0
 90
        2
176
     0
 90
        0
176
     0
 90
        0
176
     0
 40
0.6
176
     0
 40
30.0
176
     0
 62
     7
420
 16777215
176
     0
 90
        1
176
     0
 90
        4
176
     0
 62
     7
176
     0
 62
   257
176
     0
 90
        1
176
     0
 90
        1
176
     0
 40
1.0
176
     0
 90
        8
176
     2
 62
     7
176
     0
 40
1.0
176
     0
 90
        1
176
     0
 90
        6
176
     0
 90
        2
176
     0
 62
     7
176
     0
 90
        5
176
     0
 90
        0
176
     0
 90
        0
176
     0
290
     0
176
     0
 90
        1
176
     0
 40
0.0
176
     0
 90
        0
176
     0
290
     0
176
     0
290
     1
176
     0
290
     1
176
     0
290
     0
176
     0
290
     0
176
     0
290
     0
176
     0
290
     0
176
     0
290
     0
176
     0
290
     0
176
     0
 90
       50
176
     0
 40
0.0
176
     0
 40
1.0
176
     0
 90
        0
176
     0
 62
    18
420
        0
176
     0
 90
       50
176
     0
 90
        3
176
     0
 62
     5
420
      255
176
     0
290
     0
176
     0
 90
       50
176
     0
 90
       50
176
     0
 90
       50
176
     0
290
     0
176
     0
 90
       50
176
     0
 62
   256
176
     0
 40
1.0
176
     0
 90
        2
176
     0
  1
strokes_ogs.tif
176
     0
290
     0
176
     0
 40
1.0
176
     0
 40
1.0
176
     0
  0
VISUALSTYLE
  5
38
102
{ACAD_REACTORS
330
29
102
}
330
29
100
AcDbVisualStyle
  2
Facepattern
 70
    15
177
     3
291
     1
 70
    58
 90
        2
176
     1
 90
        2
176
     1
 90
        0
176
     1
 90
        0
176
     1
 40
0.6
176
     1
 40
30.0
176
     1
 62
     7
420
 16777215
176
     1
 90
        1
176
     1
 90
        4
176
     1
 62
     7
176
     1
 62
   257
176
     1
 90
        1
176
     1
 90
        1
176
     1
 40
1.0
176
     1
 90
        8
176
     1
 62
     7
176
     1
 40
1.0
176
     1
 90
        1
176
     1
 90
        6
176
     1
 90
        2
176
     1
 62
     7
176
     1
 90
        5
176
     1
 90
        0
176
     1
 90
        0
176
     1
290
     0
176
     1
 90
        1
176
     1
 40
0.0
176
     1
 90
        0
176
     1
290
     0
176
     1
290
     1
176
     1
290
     1
176
     1
290
     0
176
     1
290
     0
176
     1
290
     0
176
     1
290
     0
176
     1
290
     0
176
     1
290
     0
176
     1
 90
       50
176
     1
 40
0.0
176
     1
 40
1.0
176
     1
 90
        0
176
     1
 62
    18
420
        0
176
     1
 90
       50
176
     1
 90
        3
176
     1
 62
     5
420
      255
176
     1
290
     0
176
     1
 90
       50
176
     1
 90
       50
176
     1
 90
       50
176
     1
290
     0
176
     1
 90
       50
176
     1
 62
   256
176
     0
 40
1.0
176
     0
 90
        2
176
     1
  1
strokes_ogs.tif
176
     1
290
     0
176
     1
 40
1.0
176
     1
 40
1.0
176
     1
  0
VISUALSTYLE
  5
2A
102
{ACAD_REACTORS
330
29
102
}
330
29
100
AcDbVisualStyle
  2
Flat
 70
     0
177
     3
291
     1
 70
    58
 90
        2
176
     1
 90
        1
176
     1
 90
        1
176
     1
 90
        2
176
     1
 40
0.6
176
     1
 40
30.0
176
     1
 62
     7
420
 16777215
176
     1
 90
        0
176
     1
 90
        0
176
     1
 62
     7
176
     1
 62
   257
176
     1
 90
        1
176
     1
 90
        1
176
     1
 40
1.0
176
     1
 90
        8
176
     1
 62
     7
176
     1
 40
1.0
176
     1
 90
        1
176
     1
 90
        6
176
     1
 90
        2
176
     1
 62
     7
176
     1
 90
        5
176
     1
 90
        0
176
     1
 90
        0
176
     1
290
     0
176
     1
 90
       13
176
     1
 40
0.0
176
     1
 90
        0
176
     1
290
     0
176
     1
290
     1
176
     1
290
     1
176
     1
290
     0
176
     1
290
     0
176
     1
290
     0
176
     1
290
     0
176
     1
290
     0
176
     1
290
     0
176
     1
 90
       50
176
     1
 40
0.0
176
     1
 40
1.0
176
     1
 90
        0
176
     1
 62
    18
420
        0
176
     1
 90
       50
176
     1
 90
        3
176
     1
 62
     5
420
      255
176
     1
290
     0
176
     1
 90
       50
176
     1
 90
       50
176
     1
 90
       50
176
     1
290
     0
176
     1
 90
       50
176
     1
 62
   256
176
     0
 40
1.0
176
     0
 90
        2
176
     1
  1
strokes_ogs.tif
176
     1
290
     0
176
     1
 40
1.0
176
     1
 40
1.0
176
     1
  0
VISUALSTYLE
  5
2B
102
{ACAD_REACTORS
330
29
102
}
330
29
100
AcDbVisualStyle
  2
FlatWithEdges
 70
     1
177
     3
291
     1
 70
    58
 90
        2
176
     1
 90
        1
176
     1
 90
        1
176
     1
 90
        2
176
     1
 40
0.6
176
     1
 40
30.0
176
     1
 62
     7
420
 16777215
176
     1
 90
        1
176
     1
 90
        0
176
     1
 62
     7
176
     1
 62
   257
176
     1
 90
        1
176
     1
 90
        1
176
     1
 40
1.0
176
     1
 90
        0
176
     1
 62
   257
176
     1
 40
1.0
176
     1
 90
        1
176
     1
 90
        6
176
     1
 90
        2
176
     1
 62
     7
176
     1
 90
        5
176
     1
 90
        0
176
     1
 90
        0
176
     1
290
     0
176
     1
 90
       13
176
     1
 40
0.0
176
     1
 90
        0
176
     1
290
     0
176
     1
290
     1
176
     1
290
     1
176
     1
290
     0
176
     1
290
     0
176
     1
290
     0
176
     1
290
     0
176
     1
290
     0
176
     1
290
     0
176
     1
 90
       50
176
     1
 40
0.0
176
     1
 40
1.0
176
     1
 90
        0
176
     1
 62
    18
420
        0
176
     1
 90
       50
176
     1
 90
        3
176
     1
 62
     5
420
      255
176
     1
290
     0
176
     1
 90
       50
176
     1
 90
       50
176
     1
 90
       50
176
     1
290
     0
176
     1
 90
       50
176
     1
 62
   256
176
     0
 40
1.0
176
     0
 90
        2
176
     1
  1
strokes_ogs.tif
176
     1
290
     0
176
     1
 40
1.0
176
     1
 40
1.0
176
     1
  0
VISUALSTYLE
  5
2C
102
{ACAD_REACTORS
330
29
102
}
330
29
100
AcDbVisualStyle
  2
Gouraud
 70
     2
177
     3
291
     1
 70
    58
 90
        2
176
     1
 90
        2
176
     1
 90
        1
176
     1
 90
        2
176
     1
 40
0.6
176
     1
 40
30.0
176
     1
 62
     7
420
 16777215
176
     1
 90
        0
176
     1
 90
        0
176
     1
 62
     7
176
     1
 62
   257
176
     1
 90
        1
176
     1
 90
        1
176
     1
 40
1.0
176
     1
 90
        0
176
     1
 62
     7
176
     1
 40
1.0
176
     1
 90
        1
176
     1
 90
        6
176
     1
 90
        2
176
     1
 62
     7
176
     1
 90
        5
176
     1
 90
        0
176
     1
 90
        0
176
     1
290
     0
176
     1
 90
       13
176
     1
 40
0.0
176
     1
 90
        0
176
     1
290
     0
176
     1
290
     1
176
     1
290
     1
176
     1
290
     0
176
     1
290
     0
176
     1
290
     0
176
     1
290
     0
176
     1
290
     0
176
     1
290
     0
176
     1
 90
       50
176
     1
 40
0.0
176
     1
 40
1.0
176
     1
 90
        0
176
     1
 62
    18
420
        0
176
     1
 90
       50
176
     1
 90
        3
176
     1
 62
     5
420
      255
176
     1
290
     0
176
     1
 90
       50
176
     1
 90
       50
176
     1
 90
       50
176
     1
290
     0
176
     1
 90
       50
176
     1
 62
   256
176
     0
 40
1.0
176
     0
 90
        2
176
     1
  1
strokes_ogs.tif
176
     1
290
     0
176
     1
 40
1.0
176
     1
 40
1.0
176
     1
  0
VISUALSTYLE
  5
2D
102
{ACAD_REACTORS
330
29
102
}
330
29
100
AcDbVisualStyle
  2
GouraudWithEdges
 70
     3
177
     3
291
     1
 70
    58
 90
        2
176
     1
 90
        2
176
     1
 90
        1
176
     1
 90
        2
176
     1
 40
0.6
176
     1
 40
30.0
176
     1
 62
     7
420
 16777215
176
     1
 90
        1
176
     1
 90
        0
176
     1
 62
     7
176
     1
 62
   257
176
     1
 90
        1
176
     1
 90
        1
176
     1
 40
1.0
176
     1
 90
        0
176
     1
 62
   257
176
     1
 40
1.0
176
     1
 90
        1
176
     1
 90
        6
176
     1
 90
        2
176
     1
 62
     7
176
     1
 90
        5
176
     1
 90
        0
176
     1
 90
        0
176
     1
290
     0
176
     1
 90
       13
176
     1
 40
0.0
176
     1
 90
        0
176
     1
290
     0
176
     1
290
     1
176
     1
290
     1
176
     1
290
     0
176
     1
290
     0
176
     1
290
     0
176
     1
290
     0
176
     1
290
     0
176
     1
290
     0
176
     1
 90
       50
176
     1
 40
0.0
176
     1
 40
1.0
176
     1
 90
        0
176
     1
 62
    18
420
        0
176
     1
 90
       50
176
     1
 90
        3
176
     1
 62
     5
420
      255
176
     1
290
     0
176
     1
 90
       50
176
     1
 90
       50
176
     1
 90
       50
176
     1
290
     0
176
     1
 90
       50
176
     1
 62
   256
176
     0
 40
1.0
176
     0
 90
        2
176
     1
  1
strokes_ogs.tif
176
     1
290
     0
176
     1
 40
1.0
176
     1
 40
1.0
176
     1
  0
VISUALSTYLE
  5
31
102
{ACAD_REACTORS
330
29
102
}
330
29
100
AcDbVisualStyle
  2
Hidden
 70
     6
177
     3
291
     0
 70
    58
 90
        1
176
     1
 90
        2
176
     1
 90
        2
176
     1
 90
        0
176
     1
 40
0.6
176
     1
 40
30.0
176
     1
 62
     7
420
 16777215
176
     1
 90
        2
176
     1
 90
        2
176
     1
 62
     7
176
     1
 62
   257
176
     1
 90
        2
176
     1
 90
        1
176
     1
 40
40.0
176
     1
 90
        0
176
     1
 62
   257
176
     1
 40
1.0
176
     1
 90
        1
176
     1
 90
        6
176
     1
 90
        2
176
     1
 62
     7
176
     1
 90
        3
176
     1
 90
        0
176
     1
 90
        0
176
     1
290
     0
176
     1
 90
        1
176
     1
 40
0.0
176
     1
 90
        0
176
     1
290
     0
176
     1
290
     1
176
     1
290
     1
176
     1
290
     0
176
     1
290
     0
176
     1
290
     0
176
     1
290
     0
176
     1
290
     0
176
     1
290
     0
176
     1
 90
       50
176
     1
 40
0.0
176
     1
 40
1.0
176
     1
 90
        0
176
     1
 62
    18
420
        0
176
     1
 90
       50
176
     1
 90
        3
176
     1
 62
     5
420
      255
176
     1
290
     0
176
     1
 90
       50
176
     1
 90
       50
176
     1
 90
       50
176
     1
290
     0
176
     1
 90
       50
176
     1
 62
   256
176
     0
 40
1.0
176
     0
 90
        2
176
     1
  1
strokes_ogs.tif
176
     1
290
     0
176
     1
 40
1.0
176
     1
 40
1.0
176
     1
  0
VISUALSTYLE
  5
3F
102
{ACAD_REACTORS
330
29
102
}
330
29
100
AcDbVisualStyle
  2
JitterOff
 70
    20
177
     3
291
     1
 70
    58
 90
        2
176
     0
 90
        2
176
     0
 90
        0
176
     0
 90
        0
176
     0
 40
0.6
176
     0
 40
30.0
176
     0
 62
     7
420
 16777215
176
     0
 90
        1
176
     0
 90
        4
176
     0
 62
     7
176
     0
 62
   257
176
     0
 90
        1
176
     0
 90
        1
176
     0
 40
1.0
176
     0
 90
       10
176
     2
 62
     7
176
     0
 40
1.0
176
     0
 90
        1
176
     0
 90
        6
176
     0
 90
        2
176
     0
 62
     7
176
     0
 90
        5
176
     0
 90
        0
176
     0
 90
        0
176
     0
290
     0
176
     0
 90
        1
176
     0
 40
0.0
176
     0
 90
        0
176
     0
290
     0
176
     0
290
     1
176
     0
290
     1
176
     0
290
     0
176
     0
290
     0
176
     0
290
     0
176
     0
290
     0
176
     0
290
     0
176
     0
290
     0
176
     0
 90
       50
176
     0
 40
0.0
176
     0
 40
1.0
176
     0
 90
        0
176
     0
 62
    18
420
        0
176
     0
 90
       50
176
     0
 90
        3
176
     0
 62
     5
420
      255
176
     0
290
     0
176
     0
 90
       50
176
     0
 90
       50
176
     0
 90
       50
176
     0
290
     0
176
     0
 90
       50
176
     0
 62
   256
176
     0
 40
1.0
176
     0
 90
        2
176
     0
  1
strokes_ogs.tif
176
     0
290
     0
176
     0
 40
1.0
176
     0
 40
1.0
176
     0
  0
VISUALSTYLE
  5
37
102
{ACAD_REACTORS
330
29
102
}
330
29
100
AcDbVisualStyle
  2
Linepattern
 70
    14
177
     3
291
     1
 70
    58
 90
        2
176
     1
 90
        2
176
     1
 90
        0
176
     1
 90
        0
176
     1
 40
0.6
176
     1
 40
30.0
176
     1
 62
     7
420
 16777215
176
     1
 90
        1
176
     1
 90
        4
176
     1
 62
     7
176
     1
 62
   257
176
     1
 90
        7
176
     1
 90
        7
176
     1
 40
1.0
176
     1
 90
        8
176
     1
 62
     7
176
     1
 40
1.0
176
     1
 90
        1
176
     1
 90
        6
176
     1
 90
        2
176
     1
 62
     7
176
     1
 90
        5
176
     1
 90
        0
176
     1
 90
        0
176
     1
290
     0
176
     1
 90
        1
176
     1
 40
0.0
176
     1
 90
        0
176
     1
290
     0
176
     1
290
     1
176
     1
290
     1
176
     1
290
     0
176
     1
290
     0
176
     1
290
     0
176
     1
290
     0
176
     1
290
     0
176
     1
290
     0
176
     1
 90
       50
176
     1
 40
0.0
176
     1
 40
1.0
176
     1
 90
        0
176
     1
 62
    18
420
        0
176
     1
 90
       50
176
     1
 90
        3
176
     1
 62
     5
420
      255
176
     1
290
     0
176
     1
 90
       50
176
     1
 90
       50
176
     1
 90
       50
176
     1
290
     0
176
     1
 90
       50
176
     1
 62
   256
176
     0
 40
1.0
176
     0
 90
        2
176
     1
  1
strokes_ogs.tif
176
     1
290
     0
176
     1
 40
1.0
176
     1
 40
1.0
176
     1
  0
VISUALSTYLE
  5
40
102
{ACAD_REACTORS
330
29
102
}
330
29
100
AcDbVisualStyle
  2
OverhangOff
 70
    21
177
     3
291
     1
 70
    58
 90
        2
176
     0
 90
        2
176
     0
 90
        0
176
     0
 90
        0
176
     0
 40
0.6
176
     0
 40
30.0
176
     0
 62
     7
420
 16777215
176
     0
 90
        1
176
     0
 90
        4
176
     0
 62
     7
176
     0
 62
   257
176
     0
 90
        1
176
     0
 90
        1
176
     0
 40
1.0
176
     0
 90
        9
176
     2
 62
     7
176
     0
 40
1.0
176
     0
 90
        1
176
     0
 90
        6
176
     0
 90
        2
176
     0
 62
     7
176
     0
 90
        5
176
     0
 90
        0
176
     0
 90
        0
176
     0
290
     0
176
     0
 90
        1
176
     0
 40
0.0
176
     0
 90
        0
176
     0
290
     0
176
     0
290
     1
176
     0
290
     1
176
     0
290
     0
176
     0
290
     0
176
     0
290
     0
176
     0
290
     0
176
     0
290
     0
176
     0
290
     0
176
     0
 90
       50
176
     0
 40
0.0
176
     0
 40
1.0
176
     0
 90
        0
176
     0
 62
    18
420
        0
176
     0
 90
       50
176
     0
 90
        3
176
     0
 62
     5
420
      255
176
     0
290
     0
176
     0
 90
       50
176
     0
 90
       50
176
     0
 90
       50
176
     0
290
     0
176
     0
 90
       50
176
     0
 62
   256
176
     0
 40
1.0
176
     0
 90
        2
176
     0
  1
strokes_ogs.tif
176
     0
290
     0
176
     0
 40
1.0
176
     0
 40
1.0
176
     0
  0
VISUALSTYLE
  5
33
102
{ACAD_REACTORS
330
29
102
}
330
29
100
AcDbVisualStyle
  2
Realistic
 70
     8
177
     3
291
     0
 70
    58
 90
        2
176
     1
 90
        3
176
     1
 90
        0
176
     1
 90
        2
176
     1
 40
0.6
176
     1
 40
30.0
176
     1
 62
     7
420
 16777215
176
     1
 90
        0
176
     1
 90
        0
176
     1
 62
     7
176
     1
 62
   257
176
     1
 90
        1
176
     1
 90
        1
176
     1
 40
1.0
176
     1
 90
        8
176
     1
 62
   257
176
     1
 40
1.0
176
     1
 90
        1
176
     1
 90
        6
176
     1
 90
        2
176
     1
 62
     7
176
     1
 90
        3
176
     1
 90
        0
176
     1
 90
        0
176
     1
290
     0
176
     1
 90
       13
176
     1
 40
0.0
176
     1
 90
        0
176
     1
290
     0
176
     1
290
     1
176
     1
290
     1
176
     1
290
     0
176
     1
290
     0
176
     1
290
     0
176
     1
290
     0
176
     1
290
     0
176
     1
290
     0
176
     1
 90
       50
176
     1
 40
0.0
176
     1
 40
1.0
176
     1
 90
        0
176
     1
 62
    18
420
        0
176
     1
 90
       50
176
     1
 90
        3
176
     1
 62
     5
420
      255
176
     1
290
     0
176
     1
 90
       50
176
     1
 90
       50
176
     1
 90
       50
176
     1
290
     0
176
     1
 90
       50
176
     1
 62
   256
176
     0
 40
1.0
176
     0
 90
        2
176
     1
  1
strokes_ogs.tif
176
     1
290
     0
176
     1
 40
1.0
176
     1
 40
1.0
176
     1
  0
VISUALSTYLE
  5
3E
102
{ACAD_REACTORS
330
29
102
}
330
29
100
AcDbVisualStyle
  2
Shaded
 70
    27
177
     3
291
     0
 70
    58
 90
        2
176
     1
 90
        2
176
     1
 90
        1
176
     1
 90
        2
176
     1
 40
0.6
176
     1
 40
30.0
176
     1
 62
     7
420
 16777215
176
     1
 90
        0
176
     1
 90
        4
176
     1
 62
     7
176
     1
 62
   257
176
     1
 90
        1
176
     1
 90
        1
176
     1
 40
1.0
176
     1
 90
        8
176
     1
 62
   257
176
     1
 40
1.0
176
     1
 90
        1
176
     1
 90
        6
176
     1
 90
        2
176
     1
 62
     8
420
  7895160
176
     1
 90
        3
176
     1
 90
        0
176
     1
 90
        0
176
     1
290
     0
176
     1
 90
        5
176
     1
 40
0.0
176
     1
 90
        0
176
     1
290
     0
176
     1
290
     1
176
     1
290
     1
176
     1
290
     0
176
     1
290
     0
176
     1
290
     0
176
     1
290
     0
176
     1
290
     0
176
     1
290
     0
176
     1
 90
       50
176
     1
 40
0.0
176
     1
 40
1.0
176
     1
 90
        0
176
     1
 62
    18
420
        0
176
     1
 90
       50
176
     1
 90
        3
176
     1
 62
     5
420
      255
176
     1
290
     0
176
     1
 90
       50
176
     1
 90
       50
176
     1
 90
       50
176
     1
290
     0
176
     1
 90
       50
176
     1
 62
   256
176
     0
 40
1.0
176
     0
 90
        2
176
     1
  1
strokes_ogs.tif
176
     1
290
     0
176
     1
 40
1.0
176
     1
 40
1.0
176
     1
  0
VISUALSTYLE
  5
3D
102
{ACAD_REACTORS
330
29
102
}
330
29
100
AcDbVisualStyle
  2
Shaded with edges
 70
    26
177
     3
291
     0
 70
    58
 90
        2
176
     1
 90
        2
176
     1
 90
        1
176
     1
 90
        2
176
     1
 40
0.6
176
     1
 40
30.0
176
     1
 62
     7
420
 16777215
176
     1
 90
        1
176
     1
 90
        2
176
     1
 62
     7
176
     1
 62
   257
176
     1
 90
        2
176
     1
 90
        1
176
     1
 40
1.0
176
     1
 90
        8
176
     1
 62
   257
176
     1
 40
1.0
176
     1
 90
        1
176
     1
 90
        6
176
     1
 90
        2
176
     1
 62
     7
176
     1
 90
        3
176
     1
 90
        0
176
     1
 90
        0
176
     1
290
     0
176
     1
 90
        5
176
     1
 40
0.0
176
     1
 90
        0
176
     1
290
     0
176
     1
290
     1
176
     1
290
     1
176
     1
290
     0
176
     1
290
     0
176
     1
290
     0
176
     1
290
     0
176
     1
290
     0
176
     1
290
     0
176
     1
 90
       50
176
     1
 40
0.0
176
     1
 40
1.0
176
     1
 90
        0
176
     1
 62
    18
420
        0
176
     1
 90
       50
176
     1
 90
        3
176
     1
 62
     5
420
      255
176
     1
290
     0
176
     1
 90
       50
176
     1
 90
       50
176
     1
 90
       50
176
     1
290
     0
176
     1
 90
       50
176
     1
 62
   256
176
     0
 40
1.0
176
     0
 90
        2
176
     1
  1
strokes_ogs.tif
176
     1
290
     0
176
     1
 40
1.0
176
     1
 40
1.0
176
     1
  0
VISUALSTYLE
  5
3A
102
{ACAD_REACTORS
330
29
102
}
330
29
100
AcDbVisualStyle
  2
Shades of Gray
 70
    23
177
     3
291
     0
 70
    58
 90
        2
176
     1
 90
        2
176
     1
 90
        3
176
     1
 90
        0
176
     1
 40
0.6
176
     1
 40
30.0
176
     1
 62
     7
420
 16777215
176
     1
 90
        2
176
     1
 90
        2
176
     1
 62
     7
176
     1
 62
     7
176
     1
 90
        1
176
     1
 90
        1
176
     1
 40
40.0
176
     1
 90
        8
176
     1
 62
     7
176
     1
 40
1.0
176
     1
 90
        1
176
     1
 90
        6
176
     1
 90
        2
176
     1
 62
     7
176
     1
 90
        3
176
     1
 90
        0
176
     1
 90
        0
176
     1
290
     0
176
     1
 90
        1
176
     1
 40
0.0
176
     1
 90
        0
176
     1
290
     0
176
     1
290
     1
176
     1
290
     1
176
     1
290
     0
176
     1
290
     0
176
     1
290
     0
176
     1
290
     0
176
     1
290
     0
176
     1
290
     0
176
     1
 90
       50
176
     1
 40
0.0
176
     1
 40
1.0
176
     1
 90
        0
176
     1
 62
    18
420
        0
176
     1
 90
       50
176
     1
 90
        3
176
     1
 62
     5
420
      255
176
     1
290
     0
176
     1
 90
       50
176
     1
 90
       50
176
     1
 90
       50
176
     1
290
     0
176
     1
 90
       50
176
     1
 62
   256
176
     0
 40
1.0
176
     0
 90
        2
176
     1
  1
strokes_ogs.tif
176
     1
290
     0
176
     1
 40
1.0
176
     1
 40
1.0
176
     1
  0
VISUALSTYLE
  5
3B
102
{ACAD_REACTORS
330
29
102
}
330
29
100
AcDbVisualStyle
  2
Sketchy
 70
    24
177
     3
291
     0
 70
    58
 90
        1
176
     1
 90
        2
176
     1
 90
        2
176
     1
 90
        0
176
     1
 40
0.6
176
     1
 40
30.0
176
     1
 62
     7
420
 16777215
176
     1
 90
        2
176
     1
 90
        2
176
     1
 62
     7
176
     1
 62
     7
176
     1
 90
        1
176
     1
 90
        1
176
     1
 40
40.0
176
     1
 90
       11
176
     1
 62
     7
176
     1
 40
1.0
176
     1
 90
        1
176
     1
 90
        6
176
     1
 90
        2
176
     1
 62
     7
176
     1
 90
        6
176
     1
 90
        0
176
     1
 90
        0
176
     1
290
     0
176
     1
 90
        1
176
     1
 40
0.0
176
     1
 90
        0
176
     1
290
     0
176
     1
290
     1
176
     1
290
     1
176
     1
290
     0
176
     1
290
     0
176
     1
290
     0
176
     1
290
     0
176
     1
290
     0
176
     1
290
     0
176
     1
 90
       50
176
     1
 40
0.0
176
     1
 40
1.0
176
     1
 90
        0
176
     1
 62
    18
420
        0
176
     1
 90
       50
176
     1
 90
        3
176
     1
 62
     5
420
      255
176
     1
290
     0
176
     1
 90
       50
176
     1
 90
       50
176
     1
 90
       50
176
     1
290
     0
176
     1
 90
       50
176
     1
 62
   256
176
     0
 40
1.0
176
     0
 90
        2
176
     1
  1
strokes_ogs.tif
176
     1
290
     0
176
     1
 40
1.0
176
     1
 40
1.0
176
     1
  0
VISUALSTYLE
  5
36
102
{ACAD_REACTORS
330
29
102
}
330
29
100
AcDbVisualStyle
  2
Thicken
 70
    13
177
     3
291
     1
 70
    58
 90
        2
176
     1
 90
        2
176
     1
 90
        0
176
     1
 90
        0
176
     1
 40
0.6
176
     1
 40
30.0
176
     1
 62
     7
420
 16777215
176
     1
 90
        1
176
     1
 90
        4
176
     1
 62
     7
176
     1
 62
   257
176
     1
 90
        1
176
     1
 90
        1
176
     1
 40
1.0
176
     1
 90
       12
176
     1
 62
     7
176
     1
 40
1.0
176
     1
 90
        1
176
     1
 90
        6
176
     1
 90
        2
176
     1
 62
     7
176
     1
 90
        5
176
     1
 90
        0
176
     1
 90
        0
176
     1
290
     0
176
     1
 90
        1
176
     1
 40
0.0
176
     1
 90
        0
176
     1
290
     0
176
     1
290
     1
176
     1
290
     1
176
     1
290
     0
176
     1
290
     0
176
     1
290
     0
176
     1
290
     0
176
     1
290
     0
176
     1
290
     0
176
     1
 90
       50
176
     1
 40
0.0
176
     1
 40
1.0
176
     1
 90
        0
176
     1
 62
    18
420
        0
176
     1
 90
       50
176
     1
 90
        3
176
     1
 62
     5
420
      255
176
     1
290
     0
176
     1
 90
       50
176
     1
 90
       50
176
     1
 90
       50
176
     1
290
     0
176
     1
 90
       50
176
     1
 62
   256
176
     0
 40
1.0
176
     0
 90
        2
176
     1
  1
strokes_ogs.tif
176
     1
290
     0
176
     1
 40
1.0
176
     1
 40
1.0
176
     1
  0
VISUALSTYLE
  5
30
102
{ACAD_REACTORS
330
29
102
}
330
29
100
AcDbVisualStyle
  2
Wireframe
 70
     5
177
     3
291
     0
 70
    58
 90
        0
176
     1
 90
        2
176
     1
 90
        0
176
     1
 90
        0
176
     1
 40
0.6
176
     1
 40
30.0
176
     1
 62
     7
420
 16777215
176
     1
 90
        1
176
     1
 90
        4
176
     1
 62
     7
176
     1
 62
   257
176
     1
 90
        1
176
     1
 90
        1
176
     1
 40
1.0
176
     1
 90
        0
176
     1
 62
   257
176
     1
 40
1.0
176
     1
 90
        1
176
     1
 90
        6
176
     1
 90
        2
176
     1
 62
     7
176
     1
 90
        3
176
     1
 90
        0
176
     1
 90
        0
176
     1
290
     0
176
     1
 90
        1
176
     1
 40
0.0
176
     1
 90
        0
176
     1
290
     0
176
     1
290
     1
176
     1
290
     1
176
     1
290
     0
176
     1
290
     0
176
     1
290
     0
176
     1
290
     0
176
     1
290
     0
176
     1
290
     0
176
     1
 90
       50
176
     1
 40
0.0
176
     1
 40
1.0
176
     1
 90
        0
176
     1
 62
    18
420
        0
176
     1
 90
       50
176
     1
 90
        3
176
     1
 62
     5
420
      255
176
     1
290
     0
176
     1
 90
       50
176
     1
 90
       50
176
     1
 90
       50
176
     1
290
     0
176
     1
 90
       50
176
     1
 62
   256
176
     0
 40
1.0
176
     0
 90
        2
176
     1
  1
strokes_ogs.tif
176
     1
290
     0
176
     1
 40
1.0
176
     1
 40
1.0
176
     1
  0
VISUALSTYLE
  5
3C
102
{ACAD_REACTORS
330
29
102
}
330
29
100
AcDbVisualStyle
  2
X-Ray
 70
    25
177
     3
291
     0
 70
    58
 90
        2
176
     1
 90
        2
176
     1
 90
        1
176
     1
 90
        1
176
     1
 40
0.5
176
     1
 40
30.0
176
     1
 62
     7
420
 16777215
176
     1
 90
        1
176
     1
 90
        0
176
     1
 62
     7
176
     1
 62
   257
176
     1
 90
        1
176
     1
 90
        1
176
     1
 40
1.0
176
     1
 90
        8
176
     1
 62
     7
176
     1
 40
1.0
176
     1
 90
        1
176
     1
 90
        6
176
     1
 90
        2
176
     1
 62
     7
176
     1
 90
        3
176
     1
 90
        0
176
     1
 90
        0
176
     1
290
     0
176
     1
 90
       13
176
     1
 40
0.0
176
     1
 90
        0
176
     1
290
     0
176
     1
290
     1
176
     1
290
     1
176
     1
290
     0
176
     1
290
     0
176
     1
290
     0
176
     1
290
     0
176
     1
290
     0
176
     1
290
     0
176
     1
 90
       50
176
     1
 40
0.0
176
     1
 40
1.0
176
     1
 90
        0
176
     1
 62
    18
420
        0
176
     1
 90
       50
176
     1
 90
        3
176
     1
 62
     5
420
      255
176
     1
290
     0
176
     1
 90
       50
176
     1
 90
       50
176
     1
 90
       50
176
     1
290
     0
176
     1
 90
       50
176
     1
 62
   256
176
     0
 40
1.0
176
     0
 90
        2
176
     1
  1
strokes_ogs.tif
176
     1
290
     0
176
     1
 40
1.0
176
     1
 40
1.0
176
     1
  0
DICTIONARYVAR
  5
F4
102
{ACAD_REACTORS
330
EF
102
}
330
EF
100
DictionaryVariables
280
     0
  1
1:1
  0
DICTIONARYVAR
  5
F1
102
{ACAD_REACTORS
330
EF
102
}
330
EF
100
DictionaryVariables
280
     0
  1
STANDARD
  0
DICTIONARYVAR
  5
F0
102
{ACAD_REACTORS
330
EF
102
}
330
EF
100
DictionaryVariables
280
     0
  1
STANDARD
  0
DICTIONARYVAR
  5
F2
102
{ACAD_REACTORS
330
EF
102
}
330
EF
100
DictionaryVariables
280
     0
  1
Imperial24
  0
DICTIONARYVAR
  5
F3
102
{ACAD_REACTORS
330
EF
102
}
330
EF
100
DictionaryVariables
280
     0
  1
Imperial24
  0
DICTIONARY
  5
1A
330
19
100
AcDbDictionary
280
     1
281
     1
  3
BUMPTILE
360
1C
  3
DIFFUSETILE
360
1B
  3
OPACITYTILE
360
1F
  3
REFLECTIONTILE
360
1E
  3
REFRACTIONTILE
360
20
  3
SPECULARTILE
360
1D
  0
DICTIONARY
  5
12
330
11
100
AcDbDictionary
280
     1
281
     1
  3
BUMPTILE
360
14
  3
DIFFUSETILE
360
13
  3
OPACITYTILE
360
17
  3
REFLECTIONTILE
360
16
  3
REFRACTIONTILE
360
18
  3
SPECULARTILE
360
15
  0
DICTIONARY
  5
22
330
21
100
AcDbDictionary
280
     1
281
     1
  3
BUMPTILE
360
24
  3
DIFFUSETILE
360
23
  3
OPACITYTILE
360
27
  3
REFLECTIONTILE
360
26
  3
REFRACTIONTILE
360
28
  3
SPECULARTILE
360
25
  0
DICTIONARY
  5
F5
330
65
100
AcDbDictionary
280
     1
281
     1
  3
ACAD_ROUNDTRIP_2008_TABLESTYLE_CELLSTYLEMAP
360
F6
  0
XRECORD
  5
1C
102
{ACAD_REACTORS
330
1A
102
}
330
1A
100
AcDbXrecord
280
     1
270
     1
271
     1
  0
XRECORD
  5
1B
102
{ACAD_REACTORS
330
1A
102
}
330
1A
100
AcDbXrecord
280
     1
270
     1
271
     1
  0
XRECORD
  5
1F
102
{ACAD_REACTORS
330
1A
102
}
330
1A
100
AcDbXrecord
280
     1
270
     1
271
     1
  0
XRECORD
  5
1E
102
{ACAD_REACTORS
330
1A
102
}
330
1A
100
AcDbXrecord
280
     1
270
     1
271
     1
  0
XRECORD
  5
20
102
{ACAD_REACTORS
330
1A
102
}
330
1A
100
AcDbXrecord
280
     1
270
     1
271
     1
  0
XRECORD
  5
1D
102
{ACAD_REACTORS
330
1A
102
}
330
1A
100
AcDbXrecord
280
     1
270
     1
271
     1
  0
XRECORD
  5
14
102
{ACAD_REACTORS
330
12
102
}
330
12
100
AcDbXrecord
280
     1
270
     1
271
     1
  0
XRECORD
  5
13
102
{ACAD_REACTORS
330
12
102
}
330
12
100
AcDbXrecord
280
     1
270
     1
271
     1
  0
XRECORD
  5
17
102
{ACAD_REACTORS
330
12
102
}
330
12
100
AcDbXrecord
280
     1
270
     1
271
     1
  0
XRECORD
  5
16
102
{ACAD_REACTORS
330
12
102
}
330
12
100
AcDbXrecord
280
     1
270
     1
271
     1
  0
XRECORD
  5
18
102
{ACAD_REACTORS
330
12
102
}
330
12
100
AcDbXrecord
280
     1
270
     1
271
     1
  0
XRECORD
  5
15
102
{ACAD_REACTORS
330
12
102
}
330
12
100
AcDbXrecord
280
     1
270
     1
271
     1
  0
XRECORD
  5
24
102
{ACAD_REACTORS
330
22
102
}
330
22
100
AcDbXrecord
280
     1
270
     1
271
     1
  0
XRECORD
  5
23
102
{ACAD_REACTORS
330
22
102
}
330
22
100
AcDbXrecord
280
     1
270
     1
271
     1
  0
XRECORD
  5
27
102
{ACAD_REACTORS
330
22
102
}
330
22
100
AcDbXrecord
280
     1
270
     1
271
     1
  0
XRECORD
  5
26
102
{ACAD_REACTORS
330
22
102
}
330
22
100
AcDbXrecord
280
     1
270
     1
271
     1
  0
XRECORD
  5
28
102
{ACAD_REACTORS
330
22
102
}
330
22
100
AcDbXrecord
280
     1
270
     1
271
     1
  0
XRECORD
  5
25
102
{ACAD_REACTORS
330
22
102
}
330
22
100
AcDbXrecord
280
     1
270
     1
271
     1
  0
CELLSTYLEMAP
  5
F6
102
{ACAD_REACTORS
330
F5
102
}
330
F5
100
AcDbCellStyleMap
 90
        3
300
CELLSTYLE
  1
TABLEFORMAT_BEGIN
 90
        5
170
     1
 91
        0
 92
    32768
 62
   257
 93
        1
300
CONTENTFORMAT
  1
CONTENTFORMAT_BEGIN
 90
        0
 91
        0
 92
      512
 93
        0
300

 40
0.0
140
1.0
 94
        5
 62
     0
340
55
144
0.25
309
CONTENTFORMAT_END
171
     0
 94
        0
309
TABLEFORMAT_END
  1
CELLSTYLE_BEGIN
 90
        1
 91
        1
300
_TITLE
309
CELLSTYLE_END
300
CELLSTYLE
  1
TABLEFORMAT_BEGIN
 90
        5
170
     1
 91
        0
 92
        0
 62
   257
 93
        1
300
CONTENTFORMAT
  1
CONTENTFORMAT_BEGIN
 90
        0
 91
        0
 92
      512
 93
        0
300

 40
0.0
140
1.0
 94
        5
 62
     0
340
55
144
0.18
309
CONTENTFORMAT_END
171
     0
 94
        0
309
TABLEFORMAT_END
  1
CELLSTYLE_BEGIN
 90
        2
 91
        1
300
_HEADER
309
CELLSTYLE_END
300
CELLSTYLE
  1
TABLEFORMAT_BEGIN
 90
        5
170
     1
 91
        0
 92
        0
 62
   257
 93
        1
300
CONTENTFORMAT
  1
CONTENTFORMAT_BEGIN
 90
        0
 91
        0
 92
      512
 93
        0
300

 40
0.0
140
1.0
 94
        2
 62
     0
340
55
144
0.18
309
CONTENTFORMAT_END
171
     0
 94
        0
309
TABLEFORMAT_END
  1
CELLSTYLE_BEGIN
 90
        3
 91
        2
300
_DATA
309
CELLSTYLE_END
  0
ENDSEC
  0
EOF
