ISO-10303-21;
HEADER;
/* Generated by software containing ST-Developer
 * from STEP Tools, Inc. (www.steptools.com) 
 */

FILE_DESCRIPTION(
/* description */ (''),
/* implementation_level */ '2;1');

FILE_NAME(
/* name */ '02-10-01 Shaft_two.step',
/* time_stamp */ '2024-08-03T18:37:31+02:00',
/* author */ (''),
/* organization */ (''),
/* preprocessor_version */ 'ST-DEVELOPER v20',
/* originating_system */ 'Autodesk Translation Framework v13.14.0.145',

/* authorisation */ '');

FILE_SCHEMA (('AUTOMOTIVE_DESIGN { 1 0 10303 214 3 1 1 }'));
ENDSEC;

DATA;
#10=MECHANICAL_DESIGN_GEOMETRIC_PRESENTATION_REPRESENTATION('',(#13),#209);
#11=SHAPE_REPRESENTATION_RELATIONSHIP('SRR','None',#216,#12);
#12=ADVANCED_BREP_SHAPE_REPRESENTATION('',(#14),#208);
#13=STYLED_ITEM('',(#225),#14);
#14=MANIFOLD_SOLID_BREP('02-10-01 Shaft_two',#113);
#15=FACE_BOUND('',#34,.T.);
#16=FACE_BOUND('',#37,.T.);
#17=FACE_BOUND('',#38,.T.);
#18=FACE_BOUND('',#40,.T.);
#19=FACE_BOUND('',#41,.T.);
#20=PLANE('',#136);
#21=PLANE('',#140);
#22=PLANE('',#141);
#23=FACE_OUTER_BOUND('',#30,.T.);
#24=FACE_OUTER_BOUND('',#31,.T.);
#25=FACE_OUTER_BOUND('',#32,.T.);
#26=FACE_OUTER_BOUND('',#33,.T.);
#27=FACE_OUTER_BOUND('',#35,.T.);
#28=FACE_OUTER_BOUND('',#36,.T.);
#29=FACE_OUTER_BOUND('',#39,.T.);
#30=EDGE_LOOP('',(#78,#79,#80,#81));
#31=EDGE_LOOP('',(#82,#83,#84,#85));
#32=EDGE_LOOP('',(#86,#87,#88,#89));
#33=EDGE_LOOP('',(#90));
#34=EDGE_LOOP('',(#91));
#35=EDGE_LOOP('',(#92,#93,#94,#95));
#36=EDGE_LOOP('',(#96));
#37=EDGE_LOOP('',(#97));
#38=EDGE_LOOP('',(#98));
#39=EDGE_LOOP('',(#99));
#40=EDGE_LOOP('',(#100));
#41=EDGE_LOOP('',(#101));
#42=LINE('',#183,#46);
#43=LINE('',#189,#47);
#44=LINE('',#195,#48);
#45=LINE('',#203,#49);
#46=VECTOR('',#148,1.55);
#47=VECTOR('',#155,1.55);
#48=VECTOR('',#162,8.5);
#49=VECTOR('',#173,7.5);
#50=CIRCLE('',#128,1.55);
#51=CIRCLE('',#129,1.55);
#52=CIRCLE('',#131,1.55);
#53=CIRCLE('',#132,1.55);
#54=CIRCLE('',#134,8.);
#55=CIRCLE('',#135,8.);
#56=CIRCLE('',#137,7.5);
#57=CIRCLE('',#139,7.5);
#58=VERTEX_POINT('',#180);
#59=VERTEX_POINT('',#182);
#60=VERTEX_POINT('',#186);
#61=VERTEX_POINT('',#188);
#62=VERTEX_POINT('',#192);
#63=VERTEX_POINT('',#194);
#64=VERTEX_POINT('',#198);
#65=VERTEX_POINT('',#201);
#66=EDGE_CURVE('',#58,#58,#50,.T.);
#67=EDGE_CURVE('',#58,#59,#42,.T.);
#68=EDGE_CURVE('',#59,#59,#51,.T.);
#69=EDGE_CURVE('',#60,#60,#52,.T.);
#70=EDGE_CURVE('',#60,#61,#43,.T.);
#71=EDGE_CURVE('',#61,#61,#53,.T.);
#72=EDGE_CURVE('',#62,#62,#54,.T.);
#73=EDGE_CURVE('',#62,#63,#44,.T.);
#74=EDGE_CURVE('',#63,#63,#55,.T.);
#75=EDGE_CURVE('',#64,#64,#56,.T.);
#76=EDGE_CURVE('',#65,#65,#57,.T.);
#77=EDGE_CURVE('',#65,#64,#45,.T.);
#78=ORIENTED_EDGE('',*,*,#66,.F.);
#79=ORIENTED_EDGE('',*,*,#67,.T.);
#80=ORIENTED_EDGE('',*,*,#68,.F.);
#81=ORIENTED_EDGE('',*,*,#67,.F.);
#82=ORIENTED_EDGE('',*,*,#69,.F.);
#83=ORIENTED_EDGE('',*,*,#70,.T.);
#84=ORIENTED_EDGE('',*,*,#71,.F.);
#85=ORIENTED_EDGE('',*,*,#70,.F.);
#86=ORIENTED_EDGE('',*,*,#72,.F.);
#87=ORIENTED_EDGE('',*,*,#73,.T.);
#88=ORIENTED_EDGE('',*,*,#74,.F.);
#89=ORIENTED_EDGE('',*,*,#73,.F.);
#90=ORIENTED_EDGE('',*,*,#72,.T.);
#91=ORIENTED_EDGE('',*,*,#75,.F.);
#92=ORIENTED_EDGE('',*,*,#76,.F.);
#93=ORIENTED_EDGE('',*,*,#77,.T.);
#94=ORIENTED_EDGE('',*,*,#75,.T.);
#95=ORIENTED_EDGE('',*,*,#77,.F.);
#96=ORIENTED_EDGE('',*,*,#74,.T.);
#97=ORIENTED_EDGE('',*,*,#66,.T.);
#98=ORIENTED_EDGE('',*,*,#69,.T.);
#99=ORIENTED_EDGE('',*,*,#76,.T.);
#100=ORIENTED_EDGE('',*,*,#68,.T.);
#101=ORIENTED_EDGE('',*,*,#71,.T.);
#102=CYLINDRICAL_SURFACE('',#127,1.55);
#103=CYLINDRICAL_SURFACE('',#130,1.55);
#104=CYLINDRICAL_SURFACE('',#133,8.);
#105=CYLINDRICAL_SURFACE('',#138,7.5);
#106=ADVANCED_FACE('',(#23),#102,.F.);
#107=ADVANCED_FACE('',(#24),#103,.F.);
#108=ADVANCED_FACE('',(#25),#104,.T.);
#109=ADVANCED_FACE('',(#26,#15),#20,.F.);
#110=ADVANCED_FACE('',(#27),#105,.T.);
#111=ADVANCED_FACE('',(#28,#16,#17),#21,.T.);
#112=ADVANCED_FACE('',(#29,#18,#19),#22,.F.);
#113=CLOSED_SHELL('',(#106,#107,#108,#109,#110,#111,#112));
#114=DERIVED_UNIT_ELEMENT(#116,1.);
#115=DERIVED_UNIT_ELEMENT(#211,-3.);
#116=(
MASS_UNIT()
NAMED_UNIT(*)
SI_UNIT(.KILO.,.GRAM.)
);
#117=DERIVED_UNIT((#114,#115));
#118=MEASURE_REPRESENTATION_ITEM('density measure',
POSITIVE_RATIO_MEASURE(7850.),#117);
#119=PROPERTY_DEFINITION_REPRESENTATION(#124,#121);
#120=PROPERTY_DEFINITION_REPRESENTATION(#125,#122);
#121=REPRESENTATION('material name',(#123),#208);
#122=REPRESENTATION('density',(#118),#208);
#123=DESCRIPTIVE_REPRESENTATION_ITEM('Stahl','Stahl');
#124=PROPERTY_DEFINITION('material property','material name',#218);
#125=PROPERTY_DEFINITION('material property','density of part',#218);
#126=AXIS2_PLACEMENT_3D('',#178,#142,#143);
#127=AXIS2_PLACEMENT_3D('',#179,#144,#145);
#128=AXIS2_PLACEMENT_3D('',#181,#146,#147);
#129=AXIS2_PLACEMENT_3D('',#184,#149,#150);
#130=AXIS2_PLACEMENT_3D('',#185,#151,#152);
#131=AXIS2_PLACEMENT_3D('',#187,#153,#154);
#132=AXIS2_PLACEMENT_3D('',#190,#156,#157);
#133=AXIS2_PLACEMENT_3D('',#191,#158,#159);
#134=AXIS2_PLACEMENT_3D('',#193,#160,#161);
#135=AXIS2_PLACEMENT_3D('',#196,#163,#164);
#136=AXIS2_PLACEMENT_3D('',#197,#165,#166);
#137=AXIS2_PLACEMENT_3D('',#199,#167,#168);
#138=AXIS2_PLACEMENT_3D('',#200,#169,#170);
#139=AXIS2_PLACEMENT_3D('',#202,#171,#172);
#140=AXIS2_PLACEMENT_3D('',#204,#174,#175);
#141=AXIS2_PLACEMENT_3D('',#205,#176,#177);
#142=DIRECTION('axis',(0.,0.,1.));
#143=DIRECTION('refdir',(1.,0.,0.));
#144=DIRECTION('center_axis',(0.,0.,1.));
#145=DIRECTION('ref_axis',(1.,0.,0.));
#146=DIRECTION('center_axis',(-1.15079156022785E-16,-2.74593595427295E-14,
1.));
#147=DIRECTION('ref_axis',(1.,0.,0.));
#148=DIRECTION('',(0.,0.,1.));
#149=DIRECTION('center_axis',(1.15079156022785E-16,2.74593595427295E-14,
-1.));
#150=DIRECTION('ref_axis',(1.,0.,0.));
#151=DIRECTION('center_axis',(0.,0.,1.));
#152=DIRECTION('ref_axis',(1.,0.,0.));
#153=DIRECTION('center_axis',(-1.15079156022785E-16,-2.74593595427295E-14,
1.));
#154=DIRECTION('ref_axis',(1.,0.,0.));
#155=DIRECTION('',(0.,0.,1.));
#156=DIRECTION('center_axis',(1.15079156022785E-16,2.74593595427295E-14,
-1.));
#157=DIRECTION('ref_axis',(1.,0.,0.));
#158=DIRECTION('center_axis',(-2.30158312045568E-16,-2.74593595427295E-14,
1.));
#159=DIRECTION('ref_axis',(-1.,9.47999976331043E-30,-2.30158312045568E-16));
#160=DIRECTION('center_axis',(-1.15079156022785E-16,-2.74593595427295E-14,
1.));
#161=DIRECTION('ref_axis',(-1.,9.47999976331043E-30,-2.30158312045568E-16));
#162=DIRECTION('',(2.30158312045568E-16,2.74593595427295E-14,-1.));
#163=DIRECTION('center_axis',(1.15079156022785E-16,2.74593595427295E-14,
-1.));
#164=DIRECTION('ref_axis',(-1.,9.47999976331043E-30,-2.30158312045568E-16));
#165=DIRECTION('center_axis',(1.15079156022785E-16,2.74593595427295E-14,
-1.));
#166=DIRECTION('ref_axis',(-1.,6.31999984220698E-30,-1.15079156022785E-16));
#167=DIRECTION('center_axis',(-1.15079156022785E-16,-2.74593595427295E-14,
1.));
#168=DIRECTION('ref_axis',(-1.,6.9394986628272E-30,-1.37639726660138E-16));
#169=DIRECTION('center_axis',(-1.37639726660138E-16,-2.74593595427295E-14,
1.));
#170=DIRECTION('ref_axis',(-1.,6.9394986628272E-30,-1.37639726660138E-16));
#171=DIRECTION('center_axis',(-1.15079156022785E-16,-2.74593595427295E-14,
1.));
#172=DIRECTION('ref_axis',(-1.,6.31999984220698E-30,-1.15079156022785E-16));
#173=DIRECTION('',(1.37639726660138E-16,2.74593595427295E-14,-1.));
#174=DIRECTION('center_axis',(1.15079156022785E-16,2.74593595427295E-14,
-1.));
#175=DIRECTION('ref_axis',(-1.,6.31999984220698E-30,-1.15079156022785E-16));
#176=DIRECTION('center_axis',(1.15079156022785E-16,2.74593595427295E-14,
-1.));
#177=DIRECTION('ref_axis',(-1.,6.31999984220698E-30,-1.15079156022785E-16));
#178=CARTESIAN_POINT('',(0.,0.,0.));
#179=CARTESIAN_POINT('Origin',(-2.24999999999984,-8.88178419700125E-14,
-5.));
#180=CARTESIAN_POINT('',(-3.79999999999984,-8.90076622238804E-14,6.0000000000002));
#181=CARTESIAN_POINT('Origin',(-2.24999999999984,-8.88178419700125E-14,
6.0000000000002));
#182=CARTESIAN_POINT('',(-3.79999999999984,-8.86280217161447E-14,12.0000000000002));
#183=CARTESIAN_POINT('',(-3.79999999999984,-8.90076622238804E-14,-5.));
#184=CARTESIAN_POINT('Origin',(-2.24999999999984,-8.88178419700125E-14,
12.0000000000002));
#185=CARTESIAN_POINT('Origin',(2.25000000000016,-8.88178419700125E-14,-5.));
#186=CARTESIAN_POINT('',(0.700000000000163,-8.90076622238804E-14,6.0000000000002));
#187=CARTESIAN_POINT('Origin',(2.25000000000016,-8.88178419700125E-14,6.0000000000002));
#188=CARTESIAN_POINT('',(0.700000000000163,-8.86280217161447E-14,12.0000000000002));
#189=CARTESIAN_POINT('',(0.700000000000163,-8.90076622238804E-14,-5.));
#190=CARTESIAN_POINT('Origin',(2.25000000000016,-8.88178419700125E-14,12.0000000000002));
#191=CARTESIAN_POINT('Origin',(-2.26695808150103E-13,-9.6149086909147E-13,
6.0000000000002));
#192=CARTESIAN_POINT('',(7.99999999999977,-9.87970511194881E-13,7.0000000000002));
#193=CARTESIAN_POINT('Origin',(-2.26925966462148E-13,-9.88950228634199E-13,
7.0000000000002));
#194=CARTESIAN_POINT('',(7.99999999999977,-9.62470586530788E-13,6.0000000000002));
#195=CARTESIAN_POINT('',(7.99999999999977,-9.60511151652152E-13,6.0000000000002));
#196=CARTESIAN_POINT('Origin',(-2.26695808150103E-13,-9.6149086909147E-13,
6.0000000000002));
#197=CARTESIAN_POINT('Origin',(-2.26925966462148E-13,-9.88950228634199E-13,
7.0000000000002));
#198=CARTESIAN_POINT('',(7.49999999999977,-9.8986871373356E-13,7.0000000000002));
#199=CARTESIAN_POINT('Origin',(-2.26833447876763E-13,-9.88950228634199E-13,
7.0000000000002));
#200=CARTESIAN_POINT('Origin',(-2.26695808150103E-13,-9.6149086909147E-13,
6.0000000000002));
#201=CARTESIAN_POINT('',(7.49999999999977,-1.12716551144721E-12,12.0000000000002));
#202=CARTESIAN_POINT('Origin',(-2.27521646510064E-13,-1.12624702634785E-12,
12.0000000000002));
#203=CARTESIAN_POINT('',(7.49999999999977,-9.60572383992109E-13,6.0000000000002));
#204=CARTESIAN_POINT('Origin',(-2.26695808150103E-13,-9.6149086909147E-13,
6.0000000000002));
#205=CARTESIAN_POINT('Origin',(-2.27521646510064E-13,-1.12624702634785E-12,
12.0000000000002));
#206=UNCERTAINTY_MEASURE_WITH_UNIT(LENGTH_MEASURE(0.01),#210,
'DISTANCE_ACCURACY_VALUE',
'Maximum model space distance between geometric entities at asserted c
onnectivities');
#207=UNCERTAINTY_MEASURE_WITH_UNIT(LENGTH_MEASURE(0.01),#210,
'DISTANCE_ACCURACY_VALUE',
'Maximum model space distance between geometric entities at asserted c
onnectivities');
#208=(
GEOMETRIC_REPRESENTATION_CONTEXT(3)
GLOBAL_UNCERTAINTY_ASSIGNED_CONTEXT((#206))
GLOBAL_UNIT_ASSIGNED_CONTEXT((#210,#212,#213))
REPRESENTATION_CONTEXT('','3D')
);
#209=(
GEOMETRIC_REPRESENTATION_CONTEXT(3)
GLOBAL_UNCERTAINTY_ASSIGNED_CONTEXT((#207))
GLOBAL_UNIT_ASSIGNED_CONTEXT((#210,#212,#213))
REPRESENTATION_CONTEXT('','3D')
);
#210=(
LENGTH_UNIT()
NAMED_UNIT(*)
SI_UNIT(.MILLI.,.METRE.)
);
#211=(
LENGTH_UNIT()
NAMED_UNIT(*)
SI_UNIT($,.METRE.)
);
#212=(
NAMED_UNIT(*)
PLANE_ANGLE_UNIT()
SI_UNIT($,.RADIAN.)
);
#213=(
NAMED_UNIT(*)
SI_UNIT($,.STERADIAN.)
SOLID_ANGLE_UNIT()
);
#214=SHAPE_DEFINITION_REPRESENTATION(#215,#216);
#215=PRODUCT_DEFINITION_SHAPE('',$,#218);
#216=SHAPE_REPRESENTATION('',(#126),#208);
#217=PRODUCT_DEFINITION_CONTEXT('part definition',#222,'design');
#218=PRODUCT_DEFINITION('02-10-01 Shaft_two','02-10-01 Shaft_two',#219,
#217);
#219=PRODUCT_DEFINITION_FORMATION('',$,#224);
#220=PRODUCT_RELATED_PRODUCT_CATEGORY('02-10-01 Shaft_two',
'02-10-01 Shaft_two',(#224));
#221=APPLICATION_PROTOCOL_DEFINITION('international standard',
'automotive_design',2009,#222);
#222=APPLICATION_CONTEXT(
'Core Data for Automotive Mechanical Design Process');
#223=PRODUCT_CONTEXT('part definition',#222,'mechanical');
#224=PRODUCT('02-10-01 Shaft_two','02-10-01 Shaft_two',$,(#223));
#225=PRESENTATION_STYLE_ASSIGNMENT((#226));
#226=SURFACE_STYLE_USAGE(.BOTH.,#227);
#227=SURFACE_SIDE_STYLE('',(#228));
#228=SURFACE_STYLE_FILL_AREA(#229);
#229=FILL_AREA_STYLE('Stahl - satiniert',(#230));
#230=FILL_AREA_STYLE_COLOUR('Stahl - satiniert',#231);
#231=COLOUR_RGB('Stahl - satiniert',0.627450980392157,0.627450980392157,
0.627450980392157);
ENDSEC;
END-ISO-10303-21;
