0
SECTION
2
HEADER
9
$INSUNITS
70
4
9
$ACADVER
1
AC1014
9
$HANDSEED
5
FFFF
0
ENDSEC
0
SECTION
2
TABLES
0
TABLE
2
VPORT
5
8
100
AcDbSymbolTable
0
ENDTAB
0
TABLE
2
LTYPE
5
5
100
AcDbSymbolTable
70
2
0
LTYPE
5
14
100
AcDbSymbolTableRecord
100
AcDbLinetypeTableRecord
2
BYBLOCK
70
0
0
LTYPE
5
15
100
AcDbSymbolTableRecord
100
AcDbLinetypeTableRecord
2
BYLAYER
70
0
0
ENDTAB
0
TABLE
2
LAYER
5
2
100
AcDbSymbolTable
70
3
0
LAYER
5
50
100
AcDbSymbolTableRecord
100
AcDbLayerTableRecord
2
0
70
0
6
CONTINUOUS
0
LAYER
5
51
100
AcDbSymbolTableRecord
100
AcDbLayerTableRecord
2
CUTOUTS
70
0
62
1
6
CONTINUOUS
0
LAYER
5
52
100
AcDbSymbolTableRecord
100
AcDbLayerTableRecord
2
PERIMETER
70
0
62
5
6
CONTINUOUS
0
ENDTAB
0
TABLE
2
STYLE
5
3
100
AcDbSymbolTable
70
1
0
STYLE
5
11
100
AcDbSymbolTableRecord
100
AcDbTextStyleTableRecord
2
STANDARD
70
0
0
ENDTAB
0
TABLE
2
VIEW
5
6
100
AcDbSymbolTable
0
ENDTAB
0
TABLE
2
UCS
5
7
100
AcDbSymbolTable
0
ENDTAB
0
TABLE
2
APPID
5
9
100
AcDbSymbolTable
70
1
0
APPID
5
12
100
AcDbSymbolTableRecord
100
AcDbRegAppTableRecord
2
ACAD
70
0
0
ENDTAB
0
TABLE
2
DIMSTYLE
5
A
100
AcDbSymbolTable
0
ENDTAB
0
TABLE
2
BLOCK_RECORD
5
1
100
AcDbSymbolTable
70
2
0
BLOCK_RECORD
5
1F
100
AcDbSymbolTableRecord
100
AcDbBlockTableRecord
2
*MODEL_SPACE
0
BLOCK_RECORD
5
1B
100
AcDbSymbolTableRecord
100
AcDbBlockTableRecord
2
*PAPER_SPACE
0
ENDTAB
0
ENDSEC
0
SECTION
2
BLOCKS
0
BLOCK
5
20
100
AcDbEntity
100
AcDbBlockBegin
2
*MODEL_SPACE
0
ENDBLK
5
21
100
AcDbEntity
100
AcDbBlockEnd
0
BLOCK
5
1C
100
AcDbEntity
100
AcDbBlockBegin
2
*PAPER_SPACE
0
ENDBLK
5
1D
100
AcDbEntity
100
AcDbBlockEnd
0
ENDSEC
0
SECTION
2
ENTITIES
0
CIRCLE
5
100
100
AcDbEntity
8
CUTOUTS
100
AcDbCircle
10
0
20
30.000000000000007
30
3.3306690738754696e-15
40
2.21
210
0
220
0
230
1
0
LINE
5
101
100
AcDbEntity
8
CUTOUTS
100
AcDbLine
10
-26.936189241549165
20
-25.959999999999994
30
0
11
-41.614664938168829
21
-25.959999999999994
31
0
0
LINE
5
102
100
AcDbEntity
8
CUTOUTS
100
AcDbLine
10
-41.614664938168829
20
-25.959999999999994
30
0
11
-41.614664938168829
21
-15.639999999999992
31
0
0
LINE
5
103
100
AcDbEntity
8
CUTOUTS
100
AcDbLine
10
-41.614664938168829
20
-15.639999999999992
30
0
11
-37.694664938168835
21
-15.639999999999992
31
0
0
LINE
5
104
100
AcDbEntity
8
CUTOUTS
100
AcDbLine
10
-37.694664938168827
20
-15.639999999999992
30
0
11
-37.694664938168827
21
-22.039999999999988
31
0
0
LINE
5
105
100
AcDbEntity
8
CUTOUTS
100
AcDbLine
10
-37.694664938168827
20
-22.039999999999988
30
0
11
-26.936189241549158
21
-22.039999999999988
31
0
0
LINE
5
106
100
AcDbEntity
8
CUTOUTS
100
AcDbLine
10
-26.936189241549165
20
-22.039999999999988
30
0
11
-26.936189241549165
21
-25.959999999999987
31
0
0
LINE
5
107
100
AcDbEntity
8
CUTOUTS
100
AcDbLine
10
41.614664938168815
20
-25.959999999999994
30
0
11
26.936189241549133
21
-25.959999999999994
31
0
0
LINE
5
108
100
AcDbEntity
8
CUTOUTS
100
AcDbLine
10
26.936189241549133
20
-25.959999999999994
30
0
11
26.936189241549133
21
-22.039999999999992
31
0
0
LINE
5
109
100
AcDbEntity
8
CUTOUTS
100
AcDbLine
10
26.936189241549133
20
-22.039999999999988
30
0
11
37.694664938168799
21
-22.039999999999988
31
0
0
LINE
5
10A
100
AcDbEntity
8
CUTOUTS
100
AcDbLine
10
37.694664938168799
20
-22.039999999999988
30
0
11
37.69466493816882
21
-15.63999999999999
31
0
0
LINE
5
10B
100
AcDbEntity
8
CUTOUTS
100
AcDbLine
10
37.69466493816882
20
-15.639999999999992
30
0
11
41.614664938168815
21
-15.639999999999992
31
0
0
LINE
5
10C
100
AcDbEntity
8
CUTOUTS
100
AcDbLine
10
41.614664938168815
20
-15.639999999999992
30
0
11
41.614664938168815
21
-25.959999999999994
31
0
0
LINE
5
10D
100
AcDbEntity
8
CUTOUTS
100
AcDbLine
10
-5.4192378483098436
20
-25.959999999999994
30
0
11
-16.097713544929505
21
-25.959999999999994
31
0
0
LINE
5
10E
100
AcDbEntity
8
CUTOUTS
100
AcDbLine
10
-16.097713544929505
20
-25.959999999999994
30
0
11
-16.097713544929505
21
-22.039999999999992
31
0
0
LINE
5
10F
100
AcDbEntity
8
CUTOUTS
100
AcDbLine
10
-16.097713544929505
20
-22.039999999999988
30
0
11
-5.4192378483098436
21
-22.039999999999988
31
0
0
LINE
5
110
100
AcDbEntity
8
CUTOUTS
100
AcDbLine
10
-5.4192378483098436
20
-22.039999999999988
30
0
11
-5.4192378483098436
21
-25.959999999999987
31
0
0
LINE
5
111
100
AcDbEntity
8
CUTOUTS
100
AcDbLine
10
16.097713544929483
20
-22.039999999999988
30
0
11
16.097713544929483
21
-25.959999999999997
31
0
0
LINE
5
112
100
AcDbEntity
8
CUTOUTS
100
AcDbLine
10
16.097713544929483
20
-25.959999999999997
30
0
11
5.4192378483098125
21
-25.959999999999997
31
0
0
LINE
5
113
100
AcDbEntity
8
CUTOUTS
100
AcDbLine
10
5.4192378483098125
20
-25.959999999999997
30
0
11
5.4192378483098125
21
-22.039999999999988
31
0
0
LINE
5
114
100
AcDbEntity
8
CUTOUTS
100
AcDbLine
10
5.4192378483098125
20
-22.039999999999988
30
0
11
16.097713544929483
21
-22.039999999999988
31
0
0
LINE
5
115
100
AcDbEntity
8
CUTOUTS
100
AcDbLine
10
-37.694664938168827
20
-5.1599999999999913
30
0
11
-41.614664938168829
21
-5.1599999999999913
31
0
0
LINE
5
116
100
AcDbEntity
8
CUTOUTS
100
AcDbLine
10
-41.614664938168829
20
-5.1599999999999913
30
0
11
-41.614664938168829
21
5.160000000000009
31
0
0
LINE
5
117
100
AcDbEntity
8
CUTOUTS
100
AcDbLine
10
-41.614664938168829
20
5.160000000000009
30
0
11
-37.694664938168835
21
5.160000000000009
31
0
0
LINE
5
118
100
AcDbEntity
8
CUTOUTS
100
AcDbLine
10
-37.694664938168827
20
5.160000000000009
30
0
11
-37.694664938168827
21
-5.1599999999999913
31
0
0
LINE
5
119
100
AcDbEntity
8
CUTOUTS
100
AcDbLine
10
-37.694664938168827
20
15.640000000000009
30
0
11
-41.614664938168829
21
15.640000000000009
31
0
0
LINE
5
11A
100
AcDbEntity
8
CUTOUTS
100
AcDbLine
10
-41.614664938168829
20
15.640000000000009
30
0
11
-41.614664938168829
21
25.960000000000019
31
0
0
LINE
5
11B
100
AcDbEntity
8
CUTOUTS
100
AcDbLine
10
-41.614664938168829
20
25.960000000000019
30
0
11
-37.694664938168835
21
25.960000000000019
31
0
0
LINE
5
11C
100
AcDbEntity
8
CUTOUTS
100
AcDbLine
10
-37.694664938168827
20
25.960000000000019
30
0
11
-37.694664938168827
21
15.640000000000009
31
0
0
LINE
5
11D
100
AcDbEntity
8
CUTOUTS
100
AcDbLine
10
37.694664938168813
20
25.960000000000019
30
0
11
41.614664938168815
21
25.960000000000019
31
0
0
LINE
5
11E
100
AcDbEntity
8
CUTOUTS
100
AcDbLine
10
41.614664938168815
20
25.960000000000019
30
0
11
41.614664938168815
21
15.640000000000009
31
0
0
LINE
5
11F
100
AcDbEntity
8
CUTOUTS
100
AcDbLine
10
41.614664938168815
20
15.640000000000009
30
0
11
37.694664938168813
21
15.640000000000009
31
0
0
LINE
5
120
100
AcDbEntity
8
CUTOUTS
100
AcDbLine
10
37.694664938168813
20
15.640000000000009
30
0
11
37.694664938168813
21
25.960000000000019
31
0
0
LINE
5
121
100
AcDbEntity
8
CUTOUTS
100
AcDbLine
10
37.694664938168813
20
5.1600000000000135
30
0
11
41.614664938168815
21
5.1600000000000135
31
0
0
LINE
5
122
100
AcDbEntity
8
CUTOUTS
100
AcDbLine
10
41.614664938168815
20
5.1600000000000135
30
0
11
41.614664938168815
21
-5.1599999999999957
31
0
0
LINE
5
123
100
AcDbEntity
8
CUTOUTS
100
AcDbLine
10
41.614664938168815
20
-5.1599999999999957
30
0
11
37.694664938168813
21
-5.1599999999999957
31
0
0
LINE
5
124
100
AcDbEntity
8
CUTOUTS
100
AcDbLine
10
37.694664938168813
20
-5.1599999999999957
30
0
11
37.694664938168813
21
5.1600000000000135
31
0
0
CIRCLE
5
125
100
AcDbEntity
8
PERIMETER
100
AcDbCircle
10
0
20
8.8817841970012523e-15
30
0
40
51.373333333333321
210
0
220
0
230
1
0
ENDSEC
0
SECTION
2
OBJECTS
0
DICTIONARY
5
C
100
AcDbDictionary
3
ACAD_GROUP
350
D
3
ACAD_MLINESTYLE
350
17
0
DICTIONARY
5
D
100
AcDbDictionary
0
DICTIONARY
5
1A
330
C
100
AcDbDictionary
0
DICTIONARY
5
17
100
AcDbDictionary
0
ENDSEC
0
EOF
