  0
SECTION
  2
HEADER
  9
$ACADVER
  1
AC1021
  9
$ACADMAINTVER
 70
    25
  9
$DWGCODEPAGE
  3
ANSI_1252
  9
$INSBASE
 10
0.0
 20
0.0
 30
0.0
  9
$EXTMIN
 10
1.000000000000000E+20
 20
1.000000000000000E+20
 30
1.000000000000000E+20
  9
$EXTMAX
 10
-1.000000000000000E+20
 20
-1.000000000000000E+20
 30
-1.000000000000000E+20
  9
$LIMMIN
 10
0.0
 20
0.0
  9
$LIMMAX
 10
12.0
 20
9.0
  9
$ORTHOMODE
 70
     0
  9
$REGENMODE
 70
     1
  9
$FILLMODE
 70
     1
  9
$QTEXTMODE
 70
     0
  9
$MIRRTEXT
 70
     1
  9
$LTSCALE
 40
1.0
  9
$ATTMODE
 70
     1
  9
$TEXTSIZE
 40
0.2
  9
$TRACEWID
 40
0.05
  9
$TEXTSTYLE
  7
Standard
  9
$CLAYER
  8
Marcacao
  9
$CELTYPE
  6
ByLayer
  9
$CECOLOR
 62
   256
  9
$CELTSCALE
 40
1.0
  9
$DISPSILH
 70
     0
  9
$DIMSCALE
 40
1.0
  9
$DIMASZ
 40
0.18
  9
$DIMEXO
 40
0.0625
  9
$DIMDLI
 40
0.38
  9
$DIMRND
 40
0.0
  9
$DIMDLE
 40
0.0
  9
$DIMEXE
 40
0.18
  9
$DIMTP
 40
0.0
  9
$DIMTM
 40
0.0
  9
$DIMTXT
 40
0.18
  9
$DIMCEN
 40
0.09
  9
$DIMTSZ
 40
0.0
  9
$DIMTOL
 70
     0
  9
$DIMLIM
 70
     0
  9
$DIMTIH
 70
     1
  9
$DIMTOH
 70
     1
  9
$DIMSE1
 70
     0
  9
$DIMSE2
 70
     0
  9
$DIMTAD
 70
     0
  9
$DIMZIN
 70
     0
  9
$DIMBLK
  1

  9
$DIMASO
 70
     1
  9
$DIMSHO
 70
     1
  9
$DIMPOST
  1

  9
$DIMAPOST
  1

  9
$DIMALT
 70
     0
  9
$DIMALTD
 70
     2
  9
$DIMALTF
 40
25.4
  9
$DIMLFAC
 40
1.0
  9
$DIMTOFL
 70
     0
  9
$DIMTVP
 40
0.0
  9
$DIMTIX
 70
     0
  9
$DIMSOXD
 70
     0
  9
$DIMSAH
 70
     0
  9
$DIMBLK1
  1

  9
$DIMBLK2
  1

  9
$DIMSTYLE
  2
STANDARD_ACAD
  9
$DIMCLRD
 70
     0
  9
$DIMCLRE
 70
     0
  9
$DIMCLRT
 70
     0
  9
$DIMTFAC
 40
1.0
  9
$DIMGAP
 40
0.09
  9
$DIMJUST
 70
     0
  9
$DIMSD1
 70
     0
  9
$DIMSD2
 70
     0
  9
$DIMTOLJ
 70
     1
  9
$DIMTZIN
 70
     0
  9
$DIMALTZ
 70
     0
  9
$DIMALTTZ
 70
     0
  9
$DIMUPT
 70
     0
  9
$DIMDEC
 70
     4
  9
$DIMTDEC
 70
     4
  9
$DIMALTU
 70
     2
  9
$DIMALTTD
 70
     2
  9
$DIMTXSTY
  7
Standard
  9
$DIMAUNIT
 70
     0
  9
$DIMADEC
 70
     0
  9
$DIMALTRND
 40
0.0
  9
$DIMAZIN
 70
     0
  9
$DIMDSEP
 70
    46
  9
$DIMATFIT
 70
     3
  9
$DIMFRAC
 70
     0
  9
$DIMLDRBLK
  1

  9
$DIMLUNIT
 70
     2
  9
$DIMLWD
 70
    -2
  9
$DIMLWE
 70
    -2
  9
$DIMTMOVE
 70
     2
  9
$DIMFXL
 40
1.0
  9
$DIMFXLON
 70
     0
  9
$DIMJOGANG
 40
0.7853981633974483
  9
$DIMTFILL
 70
     0
  9
$DIMTFILLCLR
 70
     0
  9
$DIMARCSYM
 70
     0
  9
$DIMLTYPE
  6

  9
$DIMLTEX1
  6

  9
$DIMLTEX2
  6

  9
$LUNITS
 70
     2
  9
$LUPREC
 70
     3
  9
$SKETCHINC
 40
0.1
  9
$FILLETRAD
 40
0.5
  9
$AUNITS
 70
     0
  9
$AUPREC
 70
     0
  9
$MENU
  1
.
  9
$ELEVATION
 40
0.0
  9
$PELEVATION
 40
0.0
  9
$THICKNESS
 40
0.0
  9
$LIMCHECK
 70
     0
  9
$CHAMFERA
 40
0.0
  9
$CHAMFERB
 40
0.0
  9
$CHAMFERC
 40
0.0
  9
$CHAMFERD
 40
0.0
  9
$SKPOLY
 70
     0
  9
$TDCREATE
 40
2460788.39538125
  9
$TDUCREATE
 40
2460788.52038125
  9
$TDUPDATE
 40
2460788.395514896
  9
$TDUUPDATE
 40
2460788.520514896
  9
$TDINDWG
 40
0.0000000116
  9
$TDUSRTIMER
 40
0.0000000116
  9
$USRTIMER
 70
     1
  9
$ANGBASE
 50
0.0
  9
$ANGDIR
 70
     0
  9
$PDMODE
 70
     0
  9
$PDSIZE
 40
0.0
  9
$PLINEWID
 40
0.0
  9
$SPLFRAME
 70
     0
  9
$SPLINETYPE
 70
     6
  9
$SPLINESEGS
 70
     8
  9
$HANDSEED
  5
5A8
  9
$SURFTAB1
 70
     6
  9
$SURFTAB2
 70
     6
  9
$SURFTYPE
 70
     6
  9
$SURFU
 70
     6
  9
$SURFV
 70
     6
  9
$UCSBASE
  2

  9
$UCSNAME
  2

  9
$UCSORG
 10
0.0
 20
0.0
 30
0.0
  9
$UCSXDIR
 10
1.0
 20
0.0
 30
0.0
  9
$UCSYDIR
 10
0.0
 20
1.0
 30
0.0
  9
$UCSORTHOREF
  2

  9
$UCSORTHOVIEW
 70
     0
  9
$UCSORGTOP
 10
0.0
 20
0.0
 30
0.0
  9
$UCSORGBOTTOM
 10
0.0
 20
0.0
 30
0.0
  9
$UCSORGLEFT
 10
0.0
 20
0.0
 30
0.0
  9
$UCSORGRIGHT
 10
0.0
 20
0.0
 30
0.0
  9
$UCSORGFRONT
 10
0.0
 20
0.0
 30
0.0
  9
$UCSORGBACK
 10
0.0
 20
0.0
 30
0.0
  9
$PUCSBASE
  2

  9
$PUCSNAME
  2

  9
$PUCSORG
 10
0.0
 20
0.0
 30
0.0
  9
$PUCSXDIR
 10
1.0
 20
0.0
 30
0.0
  9
$PUCSYDIR
 10
0.0
 20
1.0
 30
0.0
  9
$PUCSORTHOREF
  2

  9
$PUCSORTHOVIEW
 70
     0
  9
$PUCSORGTOP
 10
0.0
 20
0.0
 30
0.0
  9
$PUCSORGBOTTOM
 10
0.0
 20
0.0
 30
0.0
  9
$PUCSORGLEFT
 10
0.0
 20
0.0
 30
0.0
  9
$PUCSORGRIGHT
 10
0.0
 20
0.0
 30
0.0
  9
$PUCSORGFRONT
 10
0.0
 20
0.0
 30
0.0
  9
$PUCSORGBACK
 10
0.0
 20
0.0
 30
0.0
  9
$USERI1
 70
     0
  9
$USERI2
 70
     0
  9
$USERI3
 70
     0
  9
$USERI4
 70
     0
  9
$USERI5
 70
     0
  9
$USERR1
 40
0.0
  9
$USERR2
 40
0.0
  9
$USERR3
 40
0.0
  9
$USERR4
 40
0.0
  9
$USERR5
 40
0.0
  9
$WORLDVIEW
 70
     1
  9
$SHADEDGE
 70
     3
  9
$SHADEDIF
 70
    70
  9
$TILEMODE
 70
     1
  9
$MAXACTVP
 70
    64
  9
$PINSBASE
 10
0.0
 20
0.0
 30
0.0
  9
$PLIMCHECK
 70
     0
  9
$PEXTMIN
 10
1.000000000000000E+20
 20
1.000000000000000E+20
 30
1.000000000000000E+20
  9
$PEXTMAX
 10
-1.000000000000000E+20
 20
-1.000000000000000E+20
 30
-1.000000000000000E+20
  9
$PLIMMIN
 10
0.0
 20
0.0
  9
$PLIMMAX
 10
12.0
 20
9.0
  9
$UNITMODE
 70
     0
  9
$VISRETAIN
 70
     1
  9
$PLINEGEN
 70
     0
  9
$PSLTSCALE
 70
     1
  9
$TREEDEPTH
 70
  3020
  9
$CMLSTYLE
  2
Standard
  9
$CMLJUST
 70
     0
  9
$CMLSCALE
 40
1.0
  9
$PROXYGRAPHICS
 70
     1
  9
$MEASUREMENT
 70
     1
  9
$CELWEIGHT
370
    -1
  9
$ENDCAPS
280
     0
  9
$JOINSTYLE
280
     0
  9
$LWDISPLAY
290
     0
  9
$INSUNITS
 70
     4
  9
$HYPERLINKBASE
  1

  9
$STYLESHEET
  1

  9
$XEDIT
290
     1
  9
$CEPSNTYPE
380
     0
  9
$PSTYLEMODE
290
     1
  9
$FINGERPRINTGUID
  2
{8ca29213-30a8-412e-8e73-3d5282cf69a8}
  9
$VERSIONGUID
  2
{FAEB1C32-E019-11D5-929B-00C0DF256EC4}
  9
$EXTNAMES
290
     1
  9
$PSVPSCALE
 40
0.0
  9
$OLESTARTUP
290
     0
  9
$SORTENTS
280
   127
  9
$INDEXCTL
280
     0
  9
$HIDETEXT
280
     1
  9
$XCLIPFRAME
290
     0
  9
$HALOGAP
280
     0
  9
$OBSCOLOR
 70
   257
  9
$OBSLTYPE
280
     0
  9
$INTERSECTIONDISPLAY
280
     0
  9
$INTERSECTIONCOLOR
 70
   257
  9
$DIMASSOC
280
     2
  9
$PROJECTNAME
  1

  9
$CAMERADISPLAY
290
     0
  9
$LENSLENGTH
 40
50.0
  9
$CAMERAHEIGHT
 40
0.0
  9
$STEPSPERSEC
 40
2.0
  9
$STEPSIZE
 40
6.0
  9
$3DDWFPREC
 40
2.0
  9
$PSOLWIDTH
 40
0.25
  9
$PSOLHEIGHT
 40
4.0
  9
$LOFTANG1
 40
1.570796326794897
  9
$LOFTANG2
 40
1.570796326794897
  9
$LOFTMAG1
 40
0.0
  9
$LOFTMAG2
 40
0.0
  9
$LOFTPARAM
 70
     7
  9
$LOFTNORMALS
280
     1
  9
$LATITUDE
 40
37.795
  9
$LONGITUDE
 40
-122.394
  9
$NORTHDIRECTION
 40
0.0
  9
$TIMEZONE
 70
 -8000
  9
$LIGHTGLYPHDISPLAY
280
     1
  9
$TILEMODELIGHTSYNCH
280
     1
  9
$CMATERIAL
347
44
  9
$SOLIDHIST
280
     0
  9
$SHOWHIST
280
     1
  9
$DWFFRAME
280
     2
  9
$DGNFRAME
280
     2
  9
$REALWORLDSCALE
290
     1
  9
$INTERFERECOLOR
 62
   256
  9
$CSHADOW
280
     0
  9
$SHADOWPLANELOCATION
 40
0.0
  0
ENDSEC
  0
SECTION
  2
CLASSES
  0
CLASS
  1
ACDBDICTIONARYWDFLT
  2
AcDbDictionaryWithDefault
  3
ObjectDBX Classes
 90
        0
 91
        3
280
     0
281
     0
  0
CLASS
  1
VISUALSTYLE
  2
AcDbVisualStyle
  3
ObjectDBX Classes
 90
     4095
 91
        3
280
     0
281
     0
  0
CLASS
  1
MATERIAL
  2
AcDbMaterial
  3
ObjectDBX Classes
 90
     1153
 91
        3
280
     0
281
     0
  0
CLASS
  1
SCALE
  2
AcDbScale
  3
ObjectDBX Classes
 90
     1153
 91
        3
280
     0
281
     0
  0
CLASS
  1
TABLESTYLE
  2
AcDbTableStyle
  3
ObjectDBX Classes
 90
     4095
 91
        3
280
     0
281
     0
  0
CLASS
  1
MLEADERSTYLE
  2
AcDbMLeaderStyle
  3
ACDB_MLEADERSTYLE_CLASS
 90
     4095
 91
        3
280
     0
281
     0
  0
CLASS
  1
SUN
  2
AcDbSun
  3
SCENEOE
 90
     1153
 91
        3
280
     0
281
     0
  0
CLASS
  1
DICTIONARYVAR
  2
AcDbDictionaryVar
  3
ObjectDBX Classes
 90
        0
 91
        3
280
     0
281
     0
  0
CLASS
  1
CELLSTYLEMAP
  2
AcDbCellStyleMap
  3
ObjectDBX Classes
 90
     1152
 91
        3
280
     0
281
     0
  0
ENDSEC
  0
SECTION
  2
TABLES
  0
TABLE
  2
VPORT
  5
8
330
0
100
AcDbSymbolTable
 70
     1
  0
VPORT
  5
29
330
8
100
AcDbSymbolTableRecord
100
AcDbViewportTableRecord
  2
*Active
 70
     0
 10
0.0
 20
0.0
 11
1.0
 21
1.0
 12
10.42990654205607
 22
4.5
 13
0.0
 23
0.0
 14
0.5
 24
0.5
 15
0.5
 25
0.5
 16
0.0
 26
0.0
 36
1.0
 17
0.0
 27
0.0
 37
0.0
 40
9.0
 41
1.972972972850329
 42
50.0
 43
0.0
 44
0.0
 50
0.0
 51
0.0
 71
     0
 72
   100
 73
     1
 74
     3
 75
     0
 76
     0
 77
     0
 78
     0
281
     0
 65
     1
110
0.0
120
0.0
130
0.0
111
1.0
121
0.0
131
0.0
112
0.0
122
1.0
132
0.0
 79
     0
146
0.0
348
2F
 60
     3
 61
     5
292
     1
282
     1
141
0.0
142
0.0
 63
   250
361
6D
  0
ENDTAB
  0
TABLE
  2
LTYPE
  5
5
330
0
100
AcDbSymbolTable
 70
     1
  0
LTYPE
  5
14
330
5
100
AcDbSymbolTableRecord
100
AcDbLinetypeTableRecord
  2
ByBlock
 70
     0
  3

 72
    65
 73
     0
 40
0.0
  0
LTYPE
  5
15
330
5
100
AcDbSymbolTableRecord
100
AcDbLinetypeTableRecord
  2
ByLayer
 70
     0
  3

 72
    65
 73
     0
 40
0.0
  0
LTYPE
  5
16
330
5
100
AcDbSymbolTableRecord
100
AcDbLinetypeTableRecord
  2
Continuous
 70
     0
  3
Solid line
 72
    65
 73
     0
 40
0.0
  0
ENDTAB
  0
TABLE
  2
LAYER
  5
2
330
0
100
AcDbSymbolTable
 70
     4
  0
LAYER
  5
10
330
2
100
AcDbSymbolTableRecord
100
AcDbLayerTableRecord
  2
0
 70
     0
 62
     7
  6
Continuous
370
    -3
390
F
347
46
  0
LAYER
  5
6E
330
2
100
AcDbSymbolTableRecord
100
AcDbLayerTableRecord
  2
Marcacao
 70
     0
 62
     5
420
      255
  6
Continuous
370
    -3
390
F
347
46
  0
LAYER
  5
2D4
330
2
100
AcDbSymbolTableRecord
100
AcDbLayerTableRecord
  2
Corte Externo
 70
     0
 62
    18
420
        0
  6
Continuous
370
    -3
390
F
347
46
  0
LAYER
  5
3EB
330
2
100
AcDbSymbolTableRecord
100
AcDbLayerTableRecord
  2
Corte Interno
 70
     0
 62
     1
420
 16711680
  6
Continuous
370
    -3
390
F
347
46
  0
ENDTAB
  0
TABLE
  2
STYLE
  5
3
330
0
100
AcDbSymbolTable
 70
     1
  0
STYLE
  5
11
330
3
100
AcDbSymbolTableRecord
100
AcDbTextStyleTableRecord
  2
Standard
 70
     0
 40
0.0
 41
1.0
 50
0.0
 71
     0
 42
0.2
  3
txt
  4

  0
ENDTAB
  0
TABLE
  2
VIEW
  5
6
330
0
100
AcDbSymbolTable
 70
     0
  0
ENDTAB
  0
TABLE
  2
UCS
  5
7
330
0
100
AcDbSymbolTable
 70
     0
  0
ENDTAB
  0
TABLE
  2
APPID
  5
9
330
0
100
AcDbSymbolTable
 70
     2
  0
APPID
  5
12
330
9
100
AcDbSymbolTableRecord
100
AcDbRegAppTableRecord
  2
ACAD
 70
     0
  0
APPID
  5
5A0
330
9
100
AcDbSymbolTableRecord
100
AcDbRegAppTableRecord
  2
ACAD_MLEADERVER
 70
     0
  0
ENDTAB
  0
TABLE
  2
DIMSTYLE
  5
A
330
0
100
AcDbSymbolTable
 70
     1
100
AcDbDimStyleTable
  0
DIMSTYLE
105
27
330
A
100
AcDbSymbolTableRecord
100
AcDbDimStyleTableRecord
  2
STANDARD_ACAD
 70
     0
178
     0
340
11
  0
ENDTAB
  0
TABLE
  2
BLOCK_RECORD
  5
1
330
0
100
AcDbSymbolTable
 70
     1
  0
BLOCK_RECORD
  5
1F
330
1
100
AcDbSymbolTableRecord
100
AcDbBlockTableRecord
  2
*Model_Space
340
22
 70
     0
280
     1
281
     0
  0
BLOCK_RECORD
  5
1B
330
1
100
AcDbSymbolTableRecord
100
AcDbBlockTableRecord
  2
*Paper_Space
340
1E
 70
     0
280
     1
281
     0
  0
BLOCK_RECORD
  5
23
330
1
100
AcDbSymbolTableRecord
100
AcDbBlockTableRecord
  2
*Paper_Space0
340
26
 70
     0
280
     1
281
     0
  0
ENDTAB
  0
ENDSEC
  0
SECTION
  2
BLOCKS
  0
BLOCK
  5
20
330
1F
100
AcDbEntity
  8
0
100
AcDbBlockBegin
  2
*Model_Space
 70
     0
 10
0.0
 20
0.0
 30
0.0
  3
*Model_Space
  1

  0
ENDBLK
  5
21
330
1F
100
AcDbEntity
  8
0
100
AcDbBlockEnd
  0
BLOCK
  5
1C
330
1B
100
AcDbEntity
 67
     1
  8
0
100
AcDbBlockBegin
  2
*Paper_Space
 70
     0
 10
0.0
 20
0.0
 30
0.0
  3
*Paper_Space
  1

  0
ENDBLK
  5
1D
330
1B
100
AcDbEntity
 67
     1
  8
0
100
AcDbBlockEnd
  0
BLOCK
  5
24
330
23
100
AcDbEntity
  8
0
100
AcDbBlockBegin
  2
*Paper_Space0
 70
     0
 10
0.0
 20
0.0
 30
0.0
  3
*Paper_Space0
  1

  0
ENDBLK
  5
25
330
23
100
AcDbEntity
  8
0
100
AcDbBlockEnd
  0
ENDSEC
  0
SECTION
  2
ENTITIES
  0
POLYLINE
  5
6F
330
1F
100
AcDbEntity
  8
Marcacao
100
AcDb2dPolyline
 66
     1
 10
0.0
 20
0.0
 30
0.0
 70
     1
  0
VERTEX
  5
70
330
6F
100
AcDbEntity
  8
Marcacao
100
AcDbVertex
100
AcDb2dVertex
 10
-13.24508550849465
 20
-36.5120422047558
 30
0.0
  0
VERTEX
  5
71
330
6F
100
AcDbEntity
  8
Marcacao
100
AcDbVertex
100
AcDb2dVertex
 10
-13.25121884182798
 20
-36.46875331586691
 30
0.0
  0
VERTEX
  5
72
330
6F
100
AcDbEntity
  8
Marcacao
100
AcDbVertex
100
AcDb2dVertex
 10
-13.21770773071687
 20
-36.46715331586692
 30
0.0
  0
VERTEX
  5
73
330
6F
100
AcDbEntity
  8
Marcacao
100
AcDbVertex
100
AcDb2dVertex
 10
-13.22890773071687
 20
-36.51248664920025
 30
0.0
  0
SEQEND
  5
74
330
6F
100
AcDbEntity
  8
Marcacao
  0
POLYLINE
  5
75
330
1F
100
AcDbEntity
  8
Marcacao
100
AcDb2dPolyline
 66
     1
 10
0.0
 20
0.0
 30
0.0
 70
     1
  0
VERTEX
  5
76
330
75
100
AcDbEntity
  8
Marcacao
100
AcDbVertex
100
AcDb2dVertex
 10
-13.37948550849465
 20
-31.85941998253358
 30
0.0
 42
0.5778814944412468
  0
VERTEX
  5
77
330
75
100
AcDbEntity
  8
Marcacao
100
AcDbVertex
100
AcDb2dVertex
 10
-13.57050773071687
 20
-31.78857553808913
 30
0.0
  0
VERTEX
  5
78
330
75
100
AcDbEntity
  8
Marcacao
100
AcDbVertex
100
AcDb2dVertex
 10
-13.62730773071687
 20
-31.91595331586691
 30
0.0
  0
VERTEX
  5
79
330
75
100
AcDbEntity
  8
Marcacao
100
AcDbVertex
100
AcDb2dVertex
 10
-13.51806328627243
 20
-32.06910887142247
 30
0.0
  0
VERTEX
  5
7A
330
75
100
AcDbEntity
  8
Marcacao
100
AcDbVertex
100
AcDb2dVertex
 10
-13.49050773071687
 20
-32.06830887142247
 30
0.0
  0
VERTEX
  5
7B
330
75
100
AcDbEntity
  8
Marcacao
100
AcDbVertex
100
AcDb2dVertex
 10
-13.37104106405021
 20
-31.91230887142247
 30
0.0
  0
SEQEND
  5
7C
330
75
100
AcDbEntity
  8
Marcacao
  0
POLYLINE
  5
7D
330
1F
100
AcDbEntity
  8
Marcacao
100
AcDb2dPolyline
 66
     1
 10
0.0
 20
0.0
 30
0.0
 70
     1
  0
VERTEX
  5
7E
330
7D
100
AcDbEntity
  8
Marcacao
100
AcDbVertex
100
AcDb2dVertex
 10
-13.54197439738354
 20
-31.94075331586691
 30
0.0
  0
VERTEX
  5
7F
330
7D
100
AcDbEntity
  8
Marcacao
100
AcDbVertex
100
AcDb2dVertex
 10
-13.52828550849465
 20
-31.85346442697802
 30
0.0
  0
VERTEX
  5
80
330
7D
100
AcDbEntity
  8
Marcacao
100
AcDbVertex
100
AcDb2dVertex
 10
-13.45361884182799
 20
-31.88777553808914
 30
0.0
  0
VERTEX
  5
81
330
7D
100
AcDbEntity
  8
Marcacao
100
AcDbVertex
100
AcDb2dVertex
 10
-13.48152995293909
 20
-31.99133109364469
 30
0.0
  0
SEQEND
  5
82
330
7D
100
AcDbEntity
  8
Marcacao
  0
POLYLINE
  5
83
330
1F
100
AcDbEntity
  8
Marcacao
100
AcDb2dPolyline
 66
     1
 10
0.0
 20
0.0
 30
0.0
 70
     1
  0
VERTEX
  5
84
330
83
100
AcDbEntity
  8
Marcacao
100
AcDbVertex
100
AcDb2dVertex
 10
-12.2975299529391
 20
-32.97728664920024
 30
0.0
  0
VERTEX
  5
85
330
83
100
AcDbEntity
  8
Marcacao
100
AcDbVertex
100
AcDb2dVertex
 10
-12.42739661960576
 20
-33.08501998253358
 30
0.0
  0
VERTEX
  5
86
330
83
100
AcDbEntity
  8
Marcacao
100
AcDbVertex
100
AcDb2dVertex
 10
-12.3759299529391
 20
-33.24573109364469
 30
0.0
  0
VERTEX
  5
87
330
83
100
AcDbEntity
  8
Marcacao
100
AcDbVertex
100
AcDb2dVertex
 10
-12.23601884182798
 20
-33.25933109364469
 30
0.0
  0
VERTEX
  5
88
330
83
100
AcDbEntity
  8
Marcacao
100
AcDbVertex
100
AcDb2dVertex
 10
-12.15930773071687
 20
-33.14253109364469
 30
0.0
  0
VERTEX
  5
89
330
83
100
AcDbEntity
  8
Marcacao
100
AcDbVertex
100
AcDb2dVertex
 10
-12.14890773071687
 20
-33.06297553808913
 30
0.0
  0
VERTEX
  5
8A
330
83
100
AcDbEntity
  8
Marcacao
100
AcDbVertex
100
AcDb2dVertex
 10
-12.17904106405021
 20
-32.99550887142247
 30
0.0
  0
VERTEX
  5
8B
330
83
100
AcDbEntity
  8
Marcacao
100
AcDbVertex
100
AcDb2dVertex
 10
-12.23779661960576
 20
-32.97675331586692
 30
0.0
  0
SEQEND
  5
8C
330
83
100
AcDbEntity
  8
Marcacao
  0
POLYLINE
  5
8D
330
1F
100
AcDbEntity
  8
Marcacao
100
AcDb2dPolyline
 66
     1
 10
0.0
 20
0.0
 30
0.0
 70
     1
  0
VERTEX
  5
8E
330
8D
100
AcDbEntity
  8
Marcacao
100
AcDbVertex
100
AcDb2dVertex
 10
-12.22748550849465
 20
-33.16430887142247
 30
0.0
  0
VERTEX
  5
8F
330
8D
100
AcDbEntity
  8
Marcacao
100
AcDbVertex
100
AcDb2dVertex
 10
-12.33504106405021
 20
-33.16608664920025
 30
0.0
  0
VERTEX
  5
90
330
8D
100
AcDbEntity
  8
Marcacao
100
AcDbVertex
100
AcDb2dVertex
 10
-12.35521884182798
 20
-33.10821998253358
 30
0.0
  0
VERTEX
  5
91
330
8D
100
AcDbEntity
  8
Marcacao
100
AcDbVertex
100
AcDb2dVertex
 10
-12.26446328627243
 20
-33.05968664920024
 30
0.0
  0
SEQEND
  5
92
330
8D
100
AcDbEntity
  8
Marcacao
  0
POLYLINE
  5
93
330
1F
100
AcDbEntity
  8
Marcacao
100
AcDb2dPolyline
 66
     1
 10
0.0
 20
0.0
 30
0.0
 70
     1
  0
VERTEX
  5
94
330
93
100
AcDbEntity
  8
Marcacao
100
AcDbVertex
100
AcDb2dVertex
 10
-12.83806328627243
 20
-32.08990887142247
 30
0.0
  0
VERTEX
  5
95
330
93
100
AcDbEntity
  8
Marcacao
100
AcDbVertex
100
AcDb2dVertex
 10
-12.96579661960576
 20
-32.06608664920024
 30
0.0
 42
0.4928730838531309
  0
VERTEX
  5
96
330
93
100
AcDbEntity
  8
Marcacao
100
AcDbVertex
100
AcDb2dVertex
 10
-13.10650773071688
 20
-32.23515331586692
 30
0.0
  0
VERTEX
  5
97
330
93
100
AcDbEntity
  8
Marcacao
100
AcDbVertex
100
AcDb2dVertex
 10
-13.02375217516132
 20
-32.38981998253358
 30
0.0
  0
VERTEX
  5
98
330
93
100
AcDbEntity
  8
Marcacao
100
AcDbVertex
100
AcDb2dVertex
 10
-12.90170773071688
 20
-32.39541998253358
 30
0.0
 42
0.3910919238119514
  0
VERTEX
  5
99
330
93
100
AcDbEntity
  8
Marcacao
100
AcDbVertex
100
AcDb2dVertex
 10
-12.84170773071687
 20
-32.08635331586692
 30
0.0
  0
SEQEND
  5
9A
330
93
100
AcDbEntity
  8
Marcacao
  0
POLYLINE
  5
9B
330
1F
100
AcDbEntity
  8
Marcacao
100
AcDb2dPolyline
 66
     1
 10
0.0
 20
0.0
 30
0.0
 70
     1
  0
VERTEX
  5
9C
330
9B
100
AcDbEntity
  8
Marcacao
100
AcDbVertex
100
AcDb2dVertex
 10
-13.01868550849465
 20
-32.25675331586692
 30
0.0
  0
VERTEX
  5
9D
330
9B
100
AcDbEntity
  8
Marcacao
100
AcDbVertex
100
AcDb2dVertex
 10
-13.01006328627243
 20
-32.16475331586692
 30
0.0
  0
VERTEX
  5
9E
330
9B
100
AcDbEntity
  8
Marcacao
100
AcDbVertex
100
AcDb2dVertex
 10
-12.90908550849465
 20
-32.18581998253358
 30
0.0
 42
-0.5863225700149151
  0
VERTEX
  5
9F
330
9B
100
AcDbEntity
  8
Marcacao
100
AcDbVertex
100
AcDb2dVertex
 10
-12.96561884182799
 20
-32.34039776031135
 30
0.0
  0
SEQEND
  5
A0
330
9B
100
AcDbEntity
  8
Marcacao
  0
POLYLINE
  5
A1
330
1F
100
AcDbEntity
  8
Marcacao
100
AcDb2dPolyline
 66
     1
 10
0.0
 20
0.0
 30
0.0
 70
     1
  0
VERTEX
  5
A2
330
A1
100
AcDbEntity
  8
Marcacao
100
AcDbVertex
100
AcDb2dVertex
 10
-12.16348550849465
 20
-34.1960422047558
 30
0.0
 42
0.4221737042882119
  0
VERTEX
  5
A3
330
A1
100
AcDbEntity
  8
Marcacao
100
AcDbVertex
100
AcDb2dVertex
 10
-12.24837439738355
 20
-34.39017553808914
 30
0.0
 42
0.3584624906982784
  0
VERTEX
  5
A4
330
A1
100
AcDbEntity
  8
Marcacao
100
AcDbVertex
100
AcDb2dVertex
 10
-12.05939661960576
 20
-34.5120422047558
 30
0.0
 42
0.4618798778860114
  0
VERTEX
  5
A5
330
A1
100
AcDbEntity
  8
Marcacao
100
AcDbVertex
100
AcDb2dVertex
 10
-11.91246328627243
 20
-34.37577553808914
 30
0.0
  0
VERTEX
  5
A6
330
A1
100
AcDbEntity
  8
Marcacao
100
AcDbVertex
100
AcDb2dVertex
 10
-11.89744106405021
 20
-34.24670887142247
 30
0.0
  0
VERTEX
  5
A7
330
A1
100
AcDbEntity
  8
Marcacao
100
AcDbVertex
100
AcDb2dVertex
 10
-11.92152995293909
 20
-34.1920422047558
 30
0.0
  0
VERTEX
  5
A8
330
A1
100
AcDbEntity
  8
Marcacao
100
AcDbVertex
100
AcDb2dVertex
 10
-12.01930773071687
 20
-34.15541998253358
 30
0.0
  0
SEQEND
  5
A9
330
A1
100
AcDbEntity
  8
Marcacao
  0
POLYLINE
  5
AA
330
1F
100
AcDbEntity
  8
Marcacao
100
AcDb2dPolyline
 66
     1
 10
0.0
 20
0.0
 30
0.0
 70
     1
  0
VERTEX
  5
AB
330
AA
100
AcDbEntity
  8
Marcacao
100
AcDbVertex
100
AcDb2dVertex
 10
-12.10419661960576
 20
-34.41906442697803
 30
0.0
  0
VERTEX
  5
AC
330
AA
100
AcDbEntity
  8
Marcacao
100
AcDbVertex
100
AcDb2dVertex
 10
-12.18508550849465
 20
-34.32581998253358
 30
0.0
  0
VERTEX
  5
AD
330
AA
100
AcDbEntity
  8
Marcacao
100
AcDbVertex
100
AcDb2dVertex
 10
-12.08455217516132
 20
-34.25675331586692
 30
0.0
  0
VERTEX
  5
AE
330
AA
100
AcDbEntity
  8
Marcacao
100
AcDbVertex
100
AcDb2dVertex
 10
-11.99201884182798
 20
-34.31790887142247
 30
0.0
  0
VERTEX
  5
AF
330
AA
100
AcDbEntity
  8
Marcacao
100
AcDbVertex
100
AcDb2dVertex
 10
-11.98686328627243
 20
-34.42599776031136
 30
0.0
  0
SEQEND
  5
B0
330
AA
100
AcDbEntity
  8
Marcacao
  0
POLYLINE
  5
B1
330
1F
100
AcDbEntity
  8
Marcacao
100
AcDb2dPolyline
 66
     1
 10
0.0
 20
0.0
 30
0.0
 70
     1
  0
VERTEX
  5
B2
330
B1
100
AcDbEntity
  8
Marcacao
100
AcDbVertex
100
AcDb2dVertex
 10
-12.21086328627243
 20
-33.85408664920025
 30
0.0
  0
VERTEX
  5
B3
330
B1
100
AcDbEntity
  8
Marcacao
100
AcDbVertex
100
AcDb2dVertex
 10
-12.07237439738354
 20
-33.91888664920025
 30
0.0
 42
0.6057498002928002
  0
VERTEX
  5
B4
330
B1
100
AcDbEntity
  8
Marcacao
100
AcDbVertex
100
AcDb2dVertex
 10
-11.94917439738354
 20
-33.6216422047558
 30
0.0
  0
VERTEX
  5
B5
330
B1
100
AcDbEntity
  8
Marcacao
100
AcDbVertex
100
AcDb2dVertex
 10
-12.12961884182798
 20
-33.53968664920025
 30
0.0
  0
VERTEX
  5
B6
330
B1
100
AcDbEntity
  8
Marcacao
100
AcDbVertex
100
AcDb2dVertex
 10
-12.25735217516132
 20
-33.70448664920025
 30
0.0
  0
SEQEND
  5
B7
330
B1
100
AcDbEntity
  8
Marcacao
  0
POLYLINE
  5
B8
330
1F
100
AcDbEntity
  8
Marcacao
100
AcDb2dPolyline
 66
     1
 10
0.0
 20
0.0
 30
0.0
 70
     1
  0
VERTEX
  5
B9
330
B8
100
AcDbEntity
  8
Marcacao
100
AcDbVertex
100
AcDb2dVertex
 10
-12.17832995293909
 20
-33.72146442697802
 30
0.0
  0
VERTEX
  5
BA
330
B8
100
AcDbEntity
  8
Marcacao
100
AcDbVertex
100
AcDb2dVertex
 10
-12.09015217516132
 20
-33.61533109364469
 30
0.0
  0
VERTEX
  5
BB
330
B8
100
AcDbEntity
  8
Marcacao
100
AcDbVertex
100
AcDb2dVertex
 10
-11.97984106405021
 20
-33.73870887142247
 30
0.0
  0
VERTEX
  5
BC
330
B8
100
AcDbEntity
  8
Marcacao
100
AcDbVertex
100
AcDb2dVertex
 10
-12.08855217516132
 20
-33.83408664920024
 30
0.0
  0
SEQEND
  5
BD
330
B8
100
AcDbEntity
  8
Marcacao
  0
POLYLINE
  5
BE
330
1F
100
AcDbEntity
  8
Marcacao
100
AcDb2dPolyline
 66
     1
 10
0.0
 20
0.0
 30
0.0
 70
     1
  0
VERTEX
  5
BF
330
BE
100
AcDbEntity
  8
Marcacao
100
AcDbVertex
100
AcDb2dVertex
 10
-12.19477439738354
 20
-35.18608664920025
 30
0.0
 42
0.3511784638807769
  0
VERTEX
  5
C0
330
BE
100
AcDbEntity
  8
Marcacao
100
AcDbVertex
100
AcDb2dVertex
 10
-12.08695217516132
 20
-34.93950887142248
 30
0.0
  0
VERTEX
  5
C1
330
BE
100
AcDbEntity
  8
Marcacao
100
AcDbVertex
100
AcDb2dVertex
 10
-12.1487299529391
 20
-34.86217553808913
 30
0.0
  0
VERTEX
  5
C2
330
BE
100
AcDbEntity
  8
Marcacao
100
AcDbVertex
100
AcDb2dVertex
 10
-12.36890773071687
 20
-34.89861998253358
 30
0.0
  0
VERTEX
  5
C3
330
BE
100
AcDbEntity
  8
Marcacao
100
AcDbVertex
100
AcDb2dVertex
 10
-12.40357439738354
 20
-35.06261998253358
 30
0.0
  0
VERTEX
  5
C4
330
BE
100
AcDbEntity
  8
Marcacao
100
AcDbVertex
100
AcDb2dVertex
 10
-12.24775217516132
 20
-35.19435331586691
 30
0.0
  0
SEQEND
  5
C5
330
BE
100
AcDbEntity
  8
Marcacao
  0
POLYLINE
  5
C6
330
1F
100
AcDbEntity
  8
Marcacao
100
AcDb2dPolyline
 66
     1
 10
0.0
 20
0.0
 30
0.0
 70
     1
  0
VERTEX
  5
C7
330
C6
100
AcDbEntity
  8
Marcacao
100
AcDbVertex
100
AcDb2dVertex
 10
-12.15370773071687
 20
-35.0136422047558
 30
0.0
  0
VERTEX
  5
C8
330
C6
100
AcDbEntity
  8
Marcacao
100
AcDbVertex
100
AcDb2dVertex
 10
-12.2486410640502
 20
-35.09773109364469
 30
0.0
  0
VERTEX
  5
C9
330
C6
100
AcDbEntity
  8
Marcacao
100
AcDbVertex
100
AcDb2dVertex
 10
-12.34126328627243
 20
-34.99541998253358
 30
0.0
  0
VERTEX
  5
CA
330
C6
100
AcDbEntity
  8
Marcacao
100
AcDbVertex
100
AcDb2dVertex
 10
-12.23121884182799
 20
-34.92795331586692
 30
0.0
  0
SEQEND
  5
CB
330
C6
100
AcDbEntity
  8
Marcacao
  0
POLYLINE
  5
CC
330
1F
100
AcDbEntity
  8
Marcacao
100
AcDb2dPolyline
 66
     1
 10
0.0
 20
0.0
 30
0.0
 70
     1
  0
VERTEX
  5
CD
330
CC
100
AcDbEntity
  8
Marcacao
100
AcDbVertex
100
AcDb2dVertex
 10
-12.72277439738354
 20
-32.55897553808914
 30
0.0
  0
VERTEX
  5
CE
330
CC
100
AcDbEntity
  8
Marcacao
100
AcDbVertex
100
AcDb2dVertex
 10
-12.73557439738354
 20
-32.64306442697803
 30
0.0
  0
VERTEX
  5
CF
330
CC
100
AcDbEntity
  8
Marcacao
100
AcDbVertex
100
AcDb2dVertex
 10
-12.65415217516132
 20
-32.80253109364469
 30
0.0
  0
VERTEX
  5
D0
330
CC
100
AcDbEntity
  8
Marcacao
100
AcDbVertex
100
AcDb2dVertex
 10
-12.47761884182798
 20
-32.79141998253358
 30
0.0
  0
VERTEX
  5
D1
330
CC
100
AcDbEntity
  8
Marcacao
100
AcDbVertex
100
AcDb2dVertex
 10
-12.43477439738354
 20
-32.64466442697803
 30
0.0
  0
VERTEX
  5
D2
330
CC
100
AcDbEntity
  8
Marcacao
100
AcDbVertex
100
AcDb2dVertex
 10
-12.44579661960576
 20
-32.6088422047558
 30
0.0
 42
0.5708784560948095
  0
VERTEX
  5
D3
330
CC
100
AcDbEntity
  8
Marcacao
100
AcDbVertex
100
AcDb2dVertex
 10
-12.64179661960576
 20
-32.51221998253358
 30
0.0
  0
VERTEX
  5
D4
330
CC
100
AcDbEntity
  8
Marcacao
100
AcDbVertex
100
AcDb2dVertex
 10
-12.72286328627243
 20
-32.55888664920025
 30
0.0
  0
SEQEND
  5
D5
330
CC
100
AcDbEntity
  8
Marcacao
  0
POLYLINE
  5
D6
330
1F
100
AcDbEntity
  8
Marcacao
100
AcDb2dPolyline
 66
     1
 10
0.0
 20
0.0
 30
0.0
 70
     1
  0
VERTEX
  5
D7
330
D6
100
AcDbEntity
  8
Marcacao
100
AcDbVertex
100
AcDb2dVertex
 10
-12.49424106405021
 20
-32.69079776031136
 30
0.0
  0
VERTEX
  5
D8
330
D6
100
AcDbEntity
  8
Marcacao
100
AcDbVertex
100
AcDb2dVertex
 10
-12.56215217516131
 20
-32.74297553808913
 30
0.0
  0
VERTEX
  5
D9
330
D6
100
AcDbEntity
  8
Marcacao
100
AcDbVertex
100
AcDb2dVertex
 10
-12.66099661960576
 20
-32.65950887142247
 30
0.0
  0
VERTEX
  5
DA
330
D6
100
AcDbEntity
  8
Marcacao
100
AcDbVertex
100
AcDb2dVertex
 10
-12.58135217516132
 20
-32.57977553808914
 30
0.0
  0
SEQEND
  5
DB
330
D6
100
AcDbEntity
  8
Marcacao
  0
POLYLINE
  5
DC
330
1F
100
AcDbEntity
  8
Marcacao
100
AcDb2dPolyline
 66
     1
 10
0.0
 20
0.0
 30
0.0
 70
     1
  0
VERTEX
  5
DD
330
DC
100
AcDbEntity
  8
Marcacao
100
AcDbVertex
100
AcDb2dVertex
 10
-12.72748550849465
 20
-35.56333109364469
 30
0.0
  0
VERTEX
  5
DE
330
DC
100
AcDbEntity
  8
Marcacao
100
AcDbVertex
100
AcDb2dVertex
 10
-12.74375217516132
 20
-35.63648664920025
 30
0.0
 42
0.4560459536989418
  0
VERTEX
  5
DF
330
DC
100
AcDbEntity
  8
Marcacao
100
AcDbVertex
100
AcDb2dVertex
 10
-12.62241884182799
 20
-35.81390887142246
 30
0.0
 42
0.3719777922692343
  0
VERTEX
  5
E0
330
DC
100
AcDbEntity
  8
Marcacao
100
AcDbVertex
100
AcDb2dVertex
 10
-12.43335217516132
 20
-35.66786442697802
 30
0.0
 42
0.539296582183508
  0
VERTEX
  5
E1
330
DC
100
AcDbEntity
  8
Marcacao
100
AcDbVertex
100
AcDb2dVertex
 10
-12.61121884182798
 20
-35.49879776031135
 30
0.0
  0
VERTEX
  5
E2
330
DC
100
AcDbEntity
  8
Marcacao
100
AcDbVertex
100
AcDb2dVertex
 10
-12.73006328627243
 20
-35.56768664920025
 30
0.0
  0
SEQEND
  5
E3
330
DC
100
AcDbEntity
  8
Marcacao
  0
POLYLINE
  5
E4
330
1F
100
AcDbEntity
  8
Marcacao
100
AcDb2dPolyline
 66
     1
 10
0.0
 20
0.0
 30
0.0
 70
     1
  0
VERTEX
  5
E5
330
E4
100
AcDbEntity
  8
Marcacao
100
AcDbVertex
100
AcDb2dVertex
 10
-12.60428550849465
 20
-35.71461998253358
 30
0.0
  0
VERTEX
  5
E6
330
E4
100
AcDbEntity
  8
Marcacao
100
AcDbVertex
100
AcDb2dVertex
 10
-12.67459661960576
 20
-35.65390887142247
 30
0.0
  0
VERTEX
  5
E7
330
E4
100
AcDbEntity
  8
Marcacao
100
AcDbVertex
100
AcDb2dVertex
 10
-12.59139661960576
 20
-35.58653109364469
 30
0.0
  0
VERTEX
  5
E8
330
E4
100
AcDbEntity
  8
Marcacao
100
AcDbVertex
100
AcDb2dVertex
 10
-12.51255217516132
 20
-35.65053109364469
 30
0.0
  0
SEQEND
  5
E9
330
E4
100
AcDbEntity
  8
Marcacao
  0
POLYLINE
  5
EA
330
1F
100
AcDbEntity
  8
Marcacao
100
AcDb2dPolyline
 66
     1
 10
0.0
 20
0.0
 30
0.0
 70
     1
  0
VERTEX
  5
EB
330
EA
100
AcDbEntity
  8
Marcacao
100
AcDbVertex
100
AcDb2dVertex
 10
-11.13201884182798
 20
-37.36306442697803
 30
0.0
  0
VERTEX
  5
EC
330
EA
100
AcDbEntity
  8
Marcacao
100
AcDbVertex
100
AcDb2dVertex
 10
-11.48410773071687
 20
-37.67355331586691
 30
0.0
  0
VERTEX
  5
ED
330
EA
100
AcDbEntity
  8
Marcacao
100
AcDbVertex
100
AcDb2dVertex
 10
-11.50828550849465
 20
-37.72830887142247
 30
0.0
  0
VERTEX
  5
EE
330
EA
100
AcDbEntity
  8
Marcacao
100
AcDbVertex
100
AcDb2dVertex
 10
-11.14081884182799
 20
-37.59355331586691
 30
0.0
  0
SEQEND
  5
EF
330
EA
100
AcDbEntity
  8
Marcacao
  0
POLYLINE
  5
F0
330
1F
100
AcDbEntity
  8
Marcacao
100
AcDb2dPolyline
 66
     1
 10
0.0
 20
0.0
 30
0.0
 70
     1
  0
VERTEX
  5
F1
330
F0
100
AcDbEntity
  8
Marcacao
100
AcDbVertex
100
AcDb2dVertex
 10
-11.54881884182798
 20
-38.09293109364469
 30
0.0
  0
VERTEX
  5
F2
330
F0
100
AcDbEntity
  8
Marcacao
100
AcDbVertex
100
AcDb2dVertex
 10
-11.54837439738354
 20
-38.17168664920025
 30
0.0
  0
VERTEX
  5
F3
330
F0
100
AcDbEntity
  8
Marcacao
100
AcDbVertex
100
AcDb2dVertex
 10
-11.16232995293909
 20
-38.23835331586692
 30
0.0
  0
VERTEX
  5
F4
330
F0
100
AcDbEntity
  8
Marcacao
100
AcDbVertex
100
AcDb2dVertex
 10
-11.17850773071687
 20
-38.05088664920025
 30
0.0
  0
SEQEND
  5
F5
330
F0
100
AcDbEntity
  8
Marcacao
  0
POLYLINE
  5
F6
330
1F
100
AcDbEntity
  8
Marcacao
100
AcDb2dPolyline
 66
     1
 10
0.0
 20
0.0
 30
0.0
 70
     1
  0
VERTEX
  5
F7
330
F6
100
AcDbEntity
  8
Marcacao
100
AcDbVertex
100
AcDb2dVertex
 10
-11.73379661960576
 20
-37.57870887142247
 30
0.0
  0
VERTEX
  5
F8
330
F6
100
AcDbEntity
  8
Marcacao
100
AcDbVertex
100
AcDb2dVertex
 10
-11.70926328627243
 20
-37.39266442697803
 30
0.0
  0
VERTEX
  5
F9
330
F6
100
AcDbEntity
  8
Marcacao
100
AcDbVertex
100
AcDb2dVertex
 10
-13.0334410640502
 20
-37.7056422047558
 30
0.0
 42
0.0428370084302927
  0
SEQEND
  5
FA
330
F6
100
AcDbEntity
  8
Marcacao
  0
POLYLINE
  5
FB
330
1F
100
AcDbEntity
  8
Marcacao
100
AcDb2dPolyline
 66
     1
 10
0.0
 20
0.0
 30
0.0
 70
     1
  0
VERTEX
  5
FC
330
FB
100
AcDbEntity
  8
Marcacao
100
AcDbVertex
100
AcDb2dVertex
 10
-11.80641884182799
 20
-38.56066442697802
 30
0.0
  0
VERTEX
  5
FD
330
FB
100
AcDbEntity
  8
Marcacao
100
AcDbVertex
100
AcDb2dVertex
 10
-11.81655217516132
 20
-38.21639776031136
 30
0.0
  0
VERTEX
  5
FE
330
FB
100
AcDbEntity
  8
Marcacao
100
AcDbVertex
100
AcDb2dVertex
 10
-12.84037439738354
 20
-38.17941998253358
 30
0.0
  0
SEQEND
  5
FF
330
FB
100
AcDbEntity
  8
Marcacao
  0
POLYLINE
  5
100
330
1F
100
AcDbEntity
  8
Marcacao
100
AcDb2dPolyline
 66
     1
 10
0.0
 20
0.0
 30
0.0
 70
     1
  0
VERTEX
  5
101
330
100
100
AcDbEntity
  8
Marcacao
100
AcDbVertex
100
AcDb2dVertex
 10
-13.28437439738354
 20
-38.06466442697803
 30
0.0
  0
VERTEX
  5
102
330
100
100
AcDbEntity
  8
Marcacao
100
AcDbVertex
100
AcDb2dVertex
 10
-11.81441884182798
 20
-38.11773109364469
 30
0.0
  0
VERTEX
  5
103
330
100
100
AcDbEntity
  8
Marcacao
100
AcDbVertex
100
AcDb2dVertex
 10
-11.80517439738354
 20
-37.94066442697802
 30
0.0
  0
VERTEX
  5
104
330
100
100
AcDbEntity
  8
Marcacao
100
AcDbVertex
100
AcDb2dVertex
 10
-13.28437439738354
 20
-37.99399776031136
 30
0.0
  0
SEQEND
  5
105
330
100
100
AcDbEntity
  8
Marcacao
  0
POLYLINE
  5
106
330
1F
100
AcDbEntity
  8
Marcacao
100
AcDb2dPolyline
 66
     1
 10
0.0
 20
0.0
 30
0.0
 70
     1
  0
VERTEX
  5
107
330
106
100
AcDbEntity
  8
Marcacao
100
AcDbVertex
100
AcDb2dVertex
 10
-15.53477439738354
 20
-36.72048664920025
 30
0.0
  0
VERTEX
  5
108
330
106
100
AcDbEntity
  8
Marcacao
100
AcDbVertex
100
AcDb2dVertex
 10
-15.08081884182798
 20
-37.10235331586691
 30
0.0
  0
VERTEX
  5
109
330
106
100
AcDbEntity
  8
Marcacao
100
AcDbVertex
100
AcDb2dVertex
 10
-15.06677439738354
 20
-37.0872422047558
 30
0.0
  0
VERTEX
  5
10A
330
106
100
AcDbEntity
  8
Marcacao
100
AcDbVertex
100
AcDb2dVertex
 10
-15.43077439738354
 20
-36.66866442697803
 30
0.0
  0
SEQEND
  5
10B
330
106
100
AcDbEntity
  8
Marcacao
  0
POLYLINE
  5
10C
330
1F
100
AcDbEntity
  8
Marcacao
100
AcDb2dPolyline
 66
     1
 10
0.0
 20
0.0
 30
0.0
 70
     1
  0
VERTEX
  5
10D
330
10C
100
AcDbEntity
  8
Marcacao
100
AcDbVertex
100
AcDb2dVertex
 10
-16.03317439738354
 20
-35.77737553808913
 30
0.0
  0
VERTEX
  5
10E
330
10C
100
AcDbEntity
  8
Marcacao
100
AcDbVertex
100
AcDb2dVertex
 10
-16.17299661960576
 20
-35.56475331586691
 30
0.0
  0
VERTEX
  5
10F
330
10C
100
AcDbEntity
  8
Marcacao
100
AcDbVertex
100
AcDb2dVertex
 10
-16.27139661960576
 20
-35.33924220475581
 30
0.0
  0
VERTEX
  5
110
330
10C
100
AcDbEntity
  8
Marcacao
100
AcDbVertex
100
AcDb2dVertex
 10
-16.74908550849465
 20
-35.44270887142247
 30
0.0
  0
VERTEX
  5
111
330
10C
100
AcDbEntity
  8
Marcacao
100
AcDbVertex
100
AcDb2dVertex
 10
-16.41495217516132
 20
-35.92777553808914
 30
0.0
  0
SEQEND
  5
112
330
10C
100
AcDbEntity
  8
Marcacao
  0
POLYLINE
  5
113
330
1F
100
AcDbEntity
  8
Marcacao
100
AcDb2dPolyline
 66
     1
 10
0.0
 20
0.0
 30
0.0
 70
     1
  0
VERTEX
  5
114
330
113
100
AcDbEntity
  8
Marcacao
100
AcDbVertex
100
AcDb2dVertex
 10
-16.33530773071687
 20
-35.21959776031136
 30
0.0
  0
VERTEX
  5
115
330
113
100
AcDbEntity
  8
Marcacao
100
AcDbVertex
100
AcDb2dVertex
 10
-16.52126328627243
 20
-34.70190887142247
 30
0.0
 42
0.1133697294644299
  0
VERTEX
  5
116
330
113
100
AcDbEntity
  8
Marcacao
100
AcDbVertex
100
AcDb2dVertex
 10
-16.99966328627243
 20
-34.76590887142247
 30
0.0
  0
VERTEX
  5
117
330
113
100
AcDbEntity
  8
Marcacao
100
AcDbVertex
100
AcDb2dVertex
 10
-16.79246328627243
 20
-35.34733109364469
 30
0.0
  0
SEQEND
  5
118
330
113
100
AcDbEntity
  8
Marcacao
  0
POLYLINE
  5
119
330
1F
100
AcDbEntity
  8
Marcacao
100
AcDb2dPolyline
 66
     1
 10
0.0
 20
0.0
 30
0.0
 70
     1
  0
VERTEX
  5
11A
330
119
100
AcDbEntity
  8
Marcacao
100
AcDbVertex
100
AcDb2dVertex
 10
-16.54721884182798
 20
-34.61195331586691
 30
0.0
  0
VERTEX
  5
11B
330
119
100
AcDbEntity
  8
Marcacao
100
AcDbVertex
100
AcDb2dVertex
 10
-16.63006328627243
 20
-34.13097553808913
 30
0.0
  0
VERTEX
  5
11C
330
119
100
AcDbEntity
  8
Marcacao
100
AcDbVertex
100
AcDb2dVertex
 10
-17.10481884182798
 20
-34.02901998253358
 30
0.0
  0
VERTEX
  5
11D
330
119
100
AcDbEntity
  8
Marcacao
100
AcDbVertex
100
AcDb2dVertex
 10
-17.02481884182799
 20
-34.65835331586691
 30
0.0
  0
SEQEND
  5
11E
330
119
100
AcDbEntity
  8
Marcacao
  0
POLYLINE
  5
11F
330
1F
100
AcDbEntity
  8
Marcacao
100
AcDb2dPolyline
 66
     1
 10
0.0
 20
0.0
 30
0.0
 70
     1
  0
VERTEX
  5
120
330
11F
100
AcDbEntity
  8
Marcacao
100
AcDbVertex
100
AcDb2dVertex
 10
-17.08526328627243
 20
-33.92866442697802
 30
0.0
  0
VERTEX
  5
121
330
11F
100
AcDbEntity
  8
Marcacao
100
AcDbVertex
100
AcDb2dVertex
 10
-16.62748550849465
 20
-34.02857553808914
 30
0.0
  0
VERTEX
  5
122
330
11F
100
AcDbEntity
  8
Marcacao
100
AcDbVertex
100
AcDb2dVertex
 10
-16.53486328627243
 20
-33.5448422047558
 30
0.0
  0
VERTEX
  5
123
330
11F
100
AcDbEntity
  8
Marcacao
100
AcDbVertex
100
AcDb2dVertex
 10
-16.94935217516132
 20
-33.30919776031136
 30
0.0
 42
0.1112088169266192
  0
SEQEND
  5
124
330
11F
100
AcDbEntity
  8
Marcacao
  0
POLYLINE
  5
125
330
1F
100
AcDbEntity
  8
Marcacao
100
AcDb2dPolyline
 66
     1
 10
0.0
 20
0.0
 30
0.0
 70
     1
  0
VERTEX
  5
126
330
125
100
AcDbEntity
  8
Marcacao
100
AcDbVertex
100
AcDb2dVertex
 10
-16.48677439738354
 20
-33.42919776031135
 30
0.0
  0
VERTEX
  5
127
330
125
100
AcDbEntity
  8
Marcacao
100
AcDbVertex
100
AcDb2dVertex
 10
-16.32704106405021
 20
-33.10155331586692
 30
0.0
  0
VERTEX
  5
128
330
125
100
AcDbEntity
  8
Marcacao
100
AcDbVertex
100
AcDb2dVertex
 10
-16.68241884182798
 20
-32.79515331586691
 30
0.0
  0
VERTEX
  5
129
330
125
100
AcDbEntity
  8
Marcacao
100
AcDbVertex
100
AcDb2dVertex
 10
-16.91068550849465
 20
-33.20679776031136
 30
0.0
  0
SEQEND
  5
12A
330
125
100
AcDbEntity
  8
Marcacao
  0
POLYLINE
  5
12B
330
1F
100
AcDbEntity
  8
Marcacao
100
AcDb2dPolyline
 66
     1
 10
0.0
 20
0.0
 30
0.0
 70
     1
  0
VERTEX
  5
12C
330
12B
100
AcDbEntity
  8
Marcacao
100
AcDbVertex
100
AcDb2dVertex
 10
-16.27424106405021
 20
-33.01168664920024
 30
0.0
  0
VERTEX
  5
12D
330
12B
100
AcDbEntity
  8
Marcacao
100
AcDbVertex
100
AcDb2dVertex
 10
-16.0527299529391
 20
-32.68981998253358
 30
0.0
  0
VERTEX
  5
12E
330
12B
100
AcDbEntity
  8
Marcacao
100
AcDbVertex
100
AcDb2dVertex
 10
-16.17850773071687
 20
-32.55888664920025
 30
0.0
  0
VERTEX
  5
12F
330
12B
100
AcDbEntity
  8
Marcacao
100
AcDbVertex
100
AcDb2dVertex
 10
-16.17841884182798
 20
-32.55888664920025
 30
0.0
  0
VERTEX
  5
130
330
12B
100
AcDbEntity
  8
Marcacao
100
AcDbVertex
100
AcDb2dVertex
 10
-16.35201884182798
 20
-32.35550887142247
 30
0.0
  0
VERTEX
  5
131
330
12B
100
AcDbEntity
  8
Marcacao
100
AcDbVertex
100
AcDb2dVertex
 10
-16.63637439738354
 20
-32.7208422047558
 30
0.0
  0
SEQEND
  5
132
330
12B
100
AcDbEntity
  8
Marcacao
  0
POLYLINE
  5
133
330
1F
100
AcDbEntity
  8
Marcacao
100
AcDb2dPolyline
 66
     1
 10
0.0
 20
0.0
 30
0.0
 70
     1
  0
VERTEX
  5
134
330
133
100
AcDbEntity
  8
Marcacao
100
AcDbVertex
100
AcDb2dVertex
 10
-15.99308550849465
 20
-32.60937553808914
 30
0.0
  0
VERTEX
  5
135
330
133
100
AcDbEntity
  8
Marcacao
100
AcDbVertex
100
AcDb2dVertex
 10
-15.62597439738354
 20
-32.25257553808913
 30
0.0
 42
0.1423582903959488
  0
VERTEX
  5
136
330
133
100
AcDbEntity
  8
Marcacao
100
AcDbVertex
100
AcDb2dVertex
 10
-15.82526328627243
 20
-31.91470887142247
 30
0.0
  0
VERTEX
  5
137
330
133
100
AcDbEntity
  8
Marcacao
100
AcDbVertex
100
AcDb2dVertex
 10
-16.06179661960577
 20
-32.08768664920025
 30
0.0
  0
VERTEX
  5
138
330
133
100
AcDbEntity
  8
Marcacao
100
AcDbVertex
100
AcDb2dVertex
 10
-16.2926410640502
 20
-32.27319776031136
 30
0.0
  0
SEQEND
  5
139
330
133
100
AcDbEntity
  8
Marcacao
  0
POLYLINE
  5
13A
330
1F
100
AcDbEntity
  8
Marcacao
100
AcDb2dPolyline
 66
     1
 10
0.0
 20
0.0
 30
0.0
 70
     1
  0
VERTEX
  5
13B
330
13A
100
AcDbEntity
  8
Marcacao
100
AcDbVertex
100
AcDb2dVertex
 10
-15.49610773071687
 20
-32.18261998253358
 30
0.0
  0
VERTEX
  5
13C
330
13A
100
AcDbEntity
  8
Marcacao
100
AcDbVertex
100
AcDb2dVertex
 10
-15.1078410640502
 20
-32.01586442697803
 30
0.0
  0
VERTEX
  5
13D
330
13A
100
AcDbEntity
  8
Marcacao
100
AcDbVertex
100
AcDb2dVertex
 10
-15.25761884182798
 20
-31.6728422047558
 30
0.0
  0
VERTEX
  5
13E
330
13A
100
AcDbEntity
  8
Marcacao
100
AcDbVertex
100
AcDb2dVertex
 10
-15.73477439738354
 20
-31.86475331586691
 30
0.0
  0
SEQEND
  5
13F
330
13A
100
AcDbEntity
  8
Marcacao
  0
POLYLINE
  5
140
330
1F
100
AcDbEntity
  8
Marcacao
100
AcDb2dPolyline
 66
     1
 10
0.0
 20
0.0
 30
0.0
 70
     1
  0
VERTEX
  5
141
330
140
100
AcDbEntity
  8
Marcacao
100
AcDbVertex
100
AcDb2dVertex
 10
-13.79344106405021
 20
-32.01586442697803
 30
0.0
  0
VERTEX
  5
142
330
140
100
AcDbEntity
  8
Marcacao
100
AcDbVertex
100
AcDb2dVertex
 10
-13.40570773071687
 20
-32.18261998253358
 30
0.0
  0
VERTEX
  5
143
330
140
100
AcDbEntity
  8
Marcacao
100
AcDbVertex
100
AcDb2dVertex
 10
-13.1663299529391
 20
-31.86475331586691
 30
0.0
  0
VERTEX
  5
144
330
140
100
AcDbEntity
  8
Marcacao
100
AcDbVertex
100
AcDb2dVertex
 10
-13.64357439738354
 20
-31.6728422047558
 30
0.0
  0
SEQEND
  5
145
330
140
100
AcDbEntity
  8
Marcacao
  0
POLYLINE
  5
146
330
1F
100
AcDbEntity
  8
Marcacao
100
AcDb2dPolyline
 66
     1
 10
0.0
 20
0.0
 30
0.0
 70
     1
  0
VERTEX
  5
147
330
146
100
AcDbEntity
  8
Marcacao
100
AcDbVertex
100
AcDb2dVertex
 10
-13.27530773071687
 20
-32.25257553808913
 30
0.0
  0
VERTEX
  5
148
330
146
100
AcDbEntity
  8
Marcacao
100
AcDbVertex
100
AcDb2dVertex
 10
-12.90828550849465
 20
-32.60937553808914
 30
0.0
  0
VERTEX
  5
149
330
146
100
AcDbEntity
  8
Marcacao
100
AcDbVertex
100
AcDb2dVertex
 10
-12.60864106405021
 20
-32.27319776031136
 30
0.0
  0
VERTEX
  5
14A
330
146
100
AcDbEntity
  8
Marcacao
100
AcDbVertex
100
AcDb2dVertex
 10
-12.83948550849465
 20
-32.08768664920025
 30
0.0
  0
VERTEX
  5
14B
330
146
100
AcDbEntity
  8
Marcacao
100
AcDbVertex
100
AcDb2dVertex
 10
-13.07601884182798
 20
-31.91470887142247
 30
0.0
 42
0.1430950922973528
  0
SEQEND
  5
14C
330
146
100
AcDbEntity
  8
Marcacao
  0
POLYLINE
  5
14D
330
1F
100
AcDbEntity
  8
Marcacao
100
AcDb2dPolyline
 66
     1
 10
0.0
 20
0.0
 30
0.0
 70
     1
  0
VERTEX
  5
14E
330
14D
100
AcDbEntity
  8
Marcacao
100
AcDbVertex
100
AcDb2dVertex
 10
-12.72286328627243
 20
-32.55888664920025
 30
0.0
  0
VERTEX
  5
14F
330
14D
100
AcDbEntity
  8
Marcacao
100
AcDbVertex
100
AcDb2dVertex
 10
-12.72277439738354
 20
-32.55888664920025
 30
0.0
  0
VERTEX
  5
150
330
14D
100
AcDbEntity
  8
Marcacao
100
AcDbVertex
100
AcDb2dVertex
 10
-12.84917439738354
 20
-32.68981998253358
 30
0.0
  0
VERTEX
  5
151
330
14D
100
AcDbEntity
  8
Marcacao
100
AcDbVertex
100
AcDb2dVertex
 10
-12.62739661960576
 20
-33.01168664920024
 30
0.0
  0
VERTEX
  5
152
330
14D
100
AcDbEntity
  8
Marcacao
100
AcDbVertex
100
AcDb2dVertex
 10
-12.2647299529391
 20
-32.7208422047558
 30
0.0
  0
VERTEX
  5
153
330
14D
100
AcDbEntity
  8
Marcacao
100
AcDbVertex
100
AcDb2dVertex
 10
-12.54997439738354
 20
-32.35550887142247
 30
0.0
  0
SEQEND
  5
154
330
14D
100
AcDbEntity
  8
Marcacao
  0
POLYLINE
  5
155
330
1F
100
AcDbEntity
  8
Marcacao
100
AcDb2dPolyline
 66
     1
 10
0.0
 20
0.0
 30
0.0
 70
     1
  0
VERTEX
  5
156
330
155
100
AcDbEntity
  8
Marcacao
100
AcDbVertex
100
AcDb2dVertex
 10
-12.57432995293909
 20
-33.10155331586692
 30
0.0
  0
VERTEX
  5
157
330
155
100
AcDbEntity
  8
Marcacao
100
AcDbVertex
100
AcDb2dVertex
 10
-12.41441884182798
 20
-33.42919776031135
 30
0.0
  0
VERTEX
  5
158
330
155
100
AcDbEntity
  8
Marcacao
100
AcDbVertex
100
AcDb2dVertex
 10
-11.99130773071687
 20
-33.20679776031136
 30
0.0
  0
VERTEX
  5
159
330
155
100
AcDbEntity
  8
Marcacao
100
AcDbVertex
100
AcDb2dVertex
 10
-12.21877439738354
 20
-32.79515331586691
 30
0.0
  0
SEQEND
  5
15A
330
155
100
AcDbEntity
  8
Marcacao
  0
POLYLINE
  5
15B
330
1F
100
AcDbEntity
  8
Marcacao
100
AcDb2dPolyline
 66
     1
 10
0.0
 20
0.0
 30
0.0
 70
     1
  0
VERTEX
  5
15C
330
15B
100
AcDbEntity
  8
Marcacao
100
AcDbVertex
100
AcDb2dVertex
 10
-12.36659661960576
 20
-33.5448422047558
 30
0.0
  0
VERTEX
  5
15D
330
15B
100
AcDbEntity
  8
Marcacao
100
AcDbVertex
100
AcDb2dVertex
 10
-12.27388550849465
 20
-34.02857553808914
 30
0.0
  0
VERTEX
  5
15E
330
15B
100
AcDbEntity
  8
Marcacao
100
AcDbVertex
100
AcDb2dVertex
 10
-11.81584106405021
 20
-33.92866442697802
 30
0.0
 42
0.1117034357452807
  0
VERTEX
  5
15F
330
15B
100
AcDbEntity
  8
Marcacao
100
AcDbVertex
100
AcDb2dVertex
 10
-11.95255217516132
 20
-33.30919776031136
 30
0.0
  0
SEQEND
  5
160
330
15B
100
AcDbEntity
  8
Marcacao
  0
POLYLINE
  5
161
330
1F
100
AcDbEntity
  8
Marcacao
100
AcDb2dPolyline
 66
     1
 10
0.0
 20
0.0
 30
0.0
 70
     1
  0
VERTEX
  5
162
330
161
100
AcDbEntity
  8
Marcacao
100
AcDbVertex
100
AcDb2dVertex
 10
-12.2711299529391
 20
-34.13097553808913
 30
0.0
  0
VERTEX
  5
163
330
161
100
AcDbEntity
  8
Marcacao
100
AcDbVertex
100
AcDb2dVertex
 10
-12.3542410640502
 20
-34.61195331586691
 30
0.0
  0
VERTEX
  5
164
330
161
100
AcDbEntity
  8
Marcacao
100
AcDbVertex
100
AcDb2dVertex
 10
-11.87708550849465
 20
-34.65835331586691
 30
0.0
  0
VERTEX
  5
165
330
161
100
AcDbEntity
  8
Marcacao
100
AcDbVertex
100
AcDb2dVertex
 10
-11.79699661960576
 20
-34.02901998253358
 30
0.0
  0
SEQEND
  5
166
330
161
100
AcDbEntity
  8
Marcacao
  0
POLYLINE
  5
167
330
1F
100
AcDbEntity
  8
Marcacao
100
AcDb2dPolyline
 66
     1
 10
0.0
 20
0.0
 30
0.0
 70
     1
  0
VERTEX
  5
168
330
167
100
AcDbEntity
  8
Marcacao
100
AcDbVertex
100
AcDb2dVertex
 10
-12.38001884182798
 20
-34.70190887142247
 30
0.0
  0
VERTEX
  5
169
330
167
100
AcDbEntity
  8
Marcacao
100
AcDbVertex
100
AcDb2dVertex
 10
-12.56597439738354
 20
-35.21959776031136
 30
0.0
  0
VERTEX
  5
16A
330
167
100
AcDbEntity
  8
Marcacao
100
AcDbVertex
100
AcDb2dVertex
 10
-12.10881884182798
 20
-35.34733109364469
 30
0.0
  0
VERTEX
  5
16B
330
167
100
AcDbEntity
  8
Marcacao
100
AcDbVertex
100
AcDb2dVertex
 10
-11.90170773071688
 20
-34.76590887142247
 30
0.0
 42
0.1131400376363237
  0
SEQEND
  5
16C
330
167
100
AcDbEntity
  8
Marcacao
  0
POLYLINE
  5
16D
330
1F
100
AcDbEntity
  8
Marcacao
100
AcDb2dPolyline
 66
     1
 10
0.0
 20
0.0
 30
0.0
 70
     1
  0
VERTEX
  5
16E
330
16D
100
AcDbEntity
  8
Marcacao
100
AcDbVertex
100
AcDb2dVertex
 10
-12.62979661960576
 20
-35.33924220475581
 30
0.0
  0
VERTEX
  5
16F
330
16D
100
AcDbEntity
  8
Marcacao
100
AcDbVertex
100
AcDb2dVertex
 10
-12.72881884182798
 20
-35.56475331586691
 30
0.0
  0
VERTEX
  5
170
330
16D
100
AcDbEntity
  8
Marcacao
100
AcDbVertex
100
AcDb2dVertex
 10
-12.86810773071687
 20
-35.77737553808913
 30
0.0
  0
VERTEX
  5
171
330
16D
100
AcDbEntity
  8
Marcacao
100
AcDbVertex
100
AcDb2dVertex
 10
-12.4862410640502
 20
-35.92777553808914
 30
0.0
  0
VERTEX
  5
172
330
16D
100
AcDbEntity
  8
Marcacao
100
AcDbVertex
100
AcDb2dVertex
 10
-12.15201884182798
 20
-35.44270887142247
 30
0.0
  0
SEQEND
  5
173
330
16D
100
AcDbEntity
  8
Marcacao
  0
POLYLINE
  5
174
330
1F
100
AcDbEntity
  8
Marcacao
100
AcDb2dPolyline
 66
     1
 10
0.0
 20
0.0
 30
0.0
 70
     1
  0
VERTEX
  5
175
330
174
100
AcDbEntity
  8
Marcacao
100
AcDbVertex
100
AcDb2dVertex
 10
-13.47059661960576
 20
-36.66866442697803
 30
0.0
  0
VERTEX
  5
176
330
174
100
AcDbEntity
  8
Marcacao
100
AcDbVertex
100
AcDb2dVertex
 10
-13.83450773071687
 20
-37.0872422047558
 30
0.0
  0
VERTEX
  5
177
330
174
100
AcDbEntity
  8
Marcacao
100
AcDbVertex
100
AcDb2dVertex
 10
-13.82117439738354
 20
-37.10235331586691
 30
0.0
  0
VERTEX
  5
178
330
174
100
AcDbEntity
  8
Marcacao
100
AcDbVertex
100
AcDb2dVertex
 10
-13.3670410640502
 20
-36.72048664920025
 30
0.0
  0
SEQEND
  5
179
330
174
100
AcDbEntity
  8
Marcacao
  0
POLYLINE
  5
17A
330
1F
100
AcDbEntity
  8
Marcacao
100
AcDb2dPolyline
 66
     1
 10
0.0
 20
0.0
 30
0.0
 70
     1
  0
VERTEX
  5
17B
330
17A
100
AcDbEntity
  8
Marcacao
100
AcDbVertex
100
AcDb2dVertex
 10
-14.45086328627243
 20
-44.99497553808914
 30
0.0
  0
VERTEX
  5
17C
330
17A
100
AcDbEntity
  8
Marcacao
100
AcDbVertex
100
AcDb2dVertex
 10
-14.29406328627243
 20
-44.99301998253358
 30
0.0
  0
VERTEX
  5
17D
330
17A
100
AcDbEntity
  8
Marcacao
100
AcDbVertex
100
AcDb2dVertex
 10
-14.30135217516132
 20
-44.75479776031136
 30
0.0
  0
VERTEX
  5
17E
330
17A
100
AcDbEntity
  8
Marcacao
100
AcDbVertex
100
AcDb2dVertex
 10
-14.44695217516132
 20
-44.76546442697803
 30
0.0
  0
VERTEX
  5
17F
330
17A
100
AcDbEntity
  8
Marcacao
100
AcDbVertex
100
AcDb2dVertex
 10
-14.44695217516132
 20
-44.76608664920025
 30
0.0
  0
VERTEX
  5
180
330
17A
100
AcDbEntity
  8
Marcacao
100
AcDbVertex
100
AcDb2dVertex
 10
-14.45086328627243
 20
-44.76573109364469
 30
0.0
  0
VERTEX
  5
181
330
17A
100
AcDbEntity
  8
Marcacao
100
AcDbVertex
100
AcDb2dVertex
 10
-14.45495217516132
 20
-44.76608664920025
 30
0.0
  0
VERTEX
  5
182
330
17A
100
AcDbEntity
  8
Marcacao
100
AcDbVertex
100
AcDb2dVertex
 10
-14.45495217516132
 20
-44.76546442697803
 30
0.0
  0
VERTEX
  5
183
330
17A
100
AcDbEntity
  8
Marcacao
100
AcDbVertex
100
AcDb2dVertex
 10
-14.60037439738354
 20
-44.75479776031136
 30
0.0
  0
VERTEX
  5
184
330
17A
100
AcDbEntity
  8
Marcacao
100
AcDbVertex
100
AcDb2dVertex
 10
-14.60721884182798
 20
-44.99301998253358
 30
0.0
  0
SEQEND
  5
185
330
17A
100
AcDbEntity
  8
Marcacao
  0
POLYLINE
  5
186
330
1F
100
AcDbEntity
  8
Marcacao
100
AcDb2dPolyline
 66
     1
 10
0.0
 20
0.0
 30
0.0
 70
     1
  0
VERTEX
  5
187
330
186
100
AcDbEntity
  8
Marcacao
100
AcDbVertex
100
AcDb2dVertex
 10
-14.45086328627243
 20
-43.73541998253358
 30
0.0
  0
VERTEX
  5
188
330
186
100
AcDbEntity
  8
Marcacao
100
AcDbVertex
100
AcDb2dVertex
 10
-14.45495217516132
 20
-43.73595331586692
 30
0.0
  0
VERTEX
  5
189
330
186
100
AcDbEntity
  8
Marcacao
100
AcDbVertex
100
AcDb2dVertex
 10
-14.45495217516132
 20
-43.73488664920025
 30
0.0
  0
VERTEX
  5
18A
330
186
100
AcDbEntity
  8
Marcacao
100
AcDbVertex
100
AcDb2dVertex
 10
-14.57584106405021
 20
-43.73470887142247
 30
0.0
  0
VERTEX
  5
18B
330
186
100
AcDbEntity
  8
Marcacao
100
AcDbVertex
100
AcDb2dVertex
 10
-14.60659661960576
 20
-43.76297553808914
 30
0.0
  0
VERTEX
  5
18C
330
186
100
AcDbEntity
  8
Marcacao
100
AcDbVertex
100
AcDb2dVertex
 10
-14.57601884182798
 20
-43.79177553808913
 30
0.0
  0
VERTEX
  5
18D
330
186
100
AcDbEntity
  8
Marcacao
100
AcDbVertex
100
AcDb2dVertex
 10
-14.45086328627243
 20
-43.80066442697802
 30
0.0
  0
VERTEX
  5
18E
330
186
100
AcDbEntity
  8
Marcacao
100
AcDbVertex
100
AcDb2dVertex
 10
-14.32517439738354
 20
-43.79177553808913
 30
0.0
  0
VERTEX
  5
18F
330
186
100
AcDbEntity
  8
Marcacao
100
AcDbVertex
100
AcDb2dVertex
 10
-14.29468550849465
 20
-43.76297553808914
 30
0.0
  0
VERTEX
  5
190
330
186
100
AcDbEntity
  8
Marcacao
100
AcDbVertex
100
AcDb2dVertex
 10
-14.32535217516132
 20
-43.73470887142247
 30
0.0
  0
VERTEX
  5
191
330
186
100
AcDbEntity
  8
Marcacao
100
AcDbVertex
100
AcDb2dVertex
 10
-14.44695217516132
 20
-43.73488664920025
 30
0.0
  0
VERTEX
  5
192
330
186
100
AcDbEntity
  8
Marcacao
100
AcDbVertex
100
AcDb2dVertex
 10
-14.44695217516132
 20
-43.73595331586692
 30
0.0
  0
SEQEND
  5
193
330
186
100
AcDbEntity
  8
Marcacao
  0
POLYLINE
  5
194
330
1F
100
AcDbEntity
  8
Marcacao
100
AcDb2dPolyline
 66
     1
 10
0.0
 20
0.0
 30
0.0
 70
     1
  0
VERTEX
  5
195
330
194
100
AcDbEntity
  8
Marcacao
100
AcDbVertex
100
AcDb2dVertex
 10
-14.45086328627243
 20
-44.30341998253358
 30
0.0
  0
VERTEX
  5
196
330
194
100
AcDbEntity
  8
Marcacao
100
AcDbVertex
100
AcDb2dVertex
 10
-14.5927299529391
 20
-44.31088664920025
 30
0.0
  0
VERTEX
  5
197
330
194
100
AcDbEntity
  8
Marcacao
100
AcDbVertex
100
AcDb2dVertex
 10
-14.59130773071687
 20
-44.49737553808914
 30
0.0
  0
VERTEX
  5
198
330
194
100
AcDbEntity
  8
Marcacao
100
AcDbVertex
100
AcDb2dVertex
 10
-14.45086328627243
 20
-44.50413109364469
 30
0.0
  0
VERTEX
  5
199
330
194
100
AcDbEntity
  8
Marcacao
100
AcDbVertex
100
AcDb2dVertex
 10
-14.30988550849465
 20
-44.49737553808914
 30
0.0
  0
VERTEX
  5
19A
330
194
100
AcDbEntity
  8
Marcacao
100
AcDbVertex
100
AcDb2dVertex
 10
-14.30855217516132
 20
-44.31088664920025
 30
0.0
  0
SEQEND
  5
19B
330
194
100
AcDbEntity
  8
Marcacao
  0
POLYLINE
  5
19C
330
1F
100
AcDbEntity
  8
Marcacao
100
AcDb2dPolyline
 66
     1
 10
0.0
 20
0.0
 30
0.0
 70
     1
  0
VERTEX
  5
19D
330
19C
100
AcDbEntity
  8
Marcacao
100
AcDbVertex
100
AcDb2dVertex
 10
-14.45086328627243
 20
-44.04821998253358
 30
0.0
  0
VERTEX
  5
19E
330
19C
100
AcDbEntity
  8
Marcacao
100
AcDbVertex
100
AcDb2dVertex
 10
-14.30606328627243
 20
-44.03453109364469
 30
0.0
  0
VERTEX
  5
19F
330
19C
100
AcDbEntity
  8
Marcacao
100
AcDbVertex
100
AcDb2dVertex
 10
-14.30490773071688
 20
-43.8729310936447
 30
0.0
  0
VERTEX
  5
1A0
330
19C
100
AcDbEntity
  8
Marcacao
100
AcDbVertex
100
AcDb2dVertex
 10
-14.43388550849465
 20
-43.8824422047558
 30
0.0
  0
VERTEX
  5
1A1
330
19C
100
AcDbEntity
  8
Marcacao
100
AcDbVertex
100
AcDb2dVertex
 10
-14.4383299529391
 20
-43.88137553808914
 30
0.0
  0
VERTEX
  5
1A2
330
19C
100
AcDbEntity
  8
Marcacao
100
AcDbVertex
100
AcDb2dVertex
 10
-14.46428550849465
 20
-43.88315331586691
 30
0.0
  0
VERTEX
  5
1A3
330
19C
100
AcDbEntity
  8
Marcacao
100
AcDbVertex
100
AcDb2dVertex
 10
-14.59708550849465
 20
-43.8729310936447
 30
0.0
  0
VERTEX
  5
1A4
330
19C
100
AcDbEntity
  8
Marcacao
100
AcDbVertex
100
AcDb2dVertex
 10
-14.5959299529391
 20
-44.03453109364469
 30
0.0
  0
SEQEND
  5
1A5
330
19C
100
AcDbEntity
  8
Marcacao
  0
POLYLINE
  5
1A6
330
1F
100
AcDbEntity
  8
Marcacao
100
AcDb2dPolyline
 66
     1
 10
0.0
 20
0.0
 30
0.0
 70
     1
  0
VERTEX
  5
1A7
330
1A6
100
AcDbEntity
  8
Marcacao
100
AcDbVertex
100
AcDb2dVertex
 10
-14.6078410640502
 20
-43.64981998253358
 30
0.0
  0
VERTEX
  5
1A8
330
1A6
100
AcDbEntity
  8
Marcacao
100
AcDbVertex
100
AcDb2dVertex
 10
-14.45086328627243
 20
-43.65221998253358
 30
0.0
  0
VERTEX
  5
1A9
330
1A6
100
AcDbEntity
  8
Marcacao
100
AcDbVertex
100
AcDb2dVertex
 10
-14.29335217516132
 20
-43.64981998253358
 30
0.0
  0
VERTEX
  5
1AA
330
1A6
100
AcDbEntity
  8
Marcacao
100
AcDbVertex
100
AcDb2dVertex
 10
-14.28286328627243
 20
-43.41248664920025
 30
0.0
  0
VERTEX
  5
1AB
330
1A6
100
AcDbEntity
  8
Marcacao
100
AcDbVertex
100
AcDb2dVertex
 10
-14.44695217516132
 20
-43.42146442697803
 30
0.0
  0
VERTEX
  5
1AC
330
1A6
100
AcDbEntity
  8
Marcacao
100
AcDbVertex
100
AcDb2dVertex
 10
-14.44695217516132
 20
-43.42199776031136
 30
0.0
  0
VERTEX
  5
1AD
330
1A6
100
AcDbEntity
  8
Marcacao
100
AcDbVertex
100
AcDb2dVertex
 10
-14.45086328627243
 20
-43.42164220475581
 30
0.0
  0
VERTEX
  5
1AE
330
1A6
100
AcDbEntity
  8
Marcacao
100
AcDbVertex
100
AcDb2dVertex
 10
-14.45495217516132
 20
-43.42199776031136
 30
0.0
  0
VERTEX
  5
1AF
330
1A6
100
AcDbEntity
  8
Marcacao
100
AcDbVertex
100
AcDb2dVertex
 10
-14.45495217516132
 20
-43.42146442697803
 30
0.0
  0
VERTEX
  5
1B0
330
1A6
100
AcDbEntity
  8
Marcacao
100
AcDbVertex
100
AcDb2dVertex
 10
-14.61841884182799
 20
-43.41248664920025
 30
0.0
  0
SEQEND
  5
1B1
330
1A6
100
AcDbEntity
  8
Marcacao
  0
POLYLINE
  5
1B2
330
1F
100
AcDbEntity
  8
Marcacao
100
AcDb2dPolyline
 66
     1
 10
0.0
 20
0.0
 30
0.0
 70
     1
  0
VERTEX
  5
1B3
330
1B2
100
AcDbEntity
  8
Marcacao
100
AcDbVertex
100
AcDb2dVertex
 10
-14.6271299529391
 20
-43.33257553808914
 30
0.0
  0
VERTEX
  5
1B4
330
1B2
100
AcDbEntity
  8
Marcacao
100
AcDbVertex
100
AcDb2dVertex
 10
-14.45086328627243
 20
-43.34128664920025
 30
0.0
  0
VERTEX
  5
1B5
330
1B2
100
AcDbEntity
  8
Marcacao
100
AcDbVertex
100
AcDb2dVertex
 10
-14.27424106405021
 20
-43.33257553808914
 30
0.0
  0
VERTEX
  5
1B6
330
1B2
100
AcDbEntity
  8
Marcacao
100
AcDbVertex
100
AcDb2dVertex
 10
-14.27050773071688
 20
-43.2624422047558
 30
0.0
  0
VERTEX
  5
1B7
330
1B2
100
AcDbEntity
  8
Marcacao
100
AcDbVertex
100
AcDb2dVertex
 10
-14.44695217516132
 20
-43.27186442697803
 30
0.0
  0
VERTEX
  5
1B8
330
1B2
100
AcDbEntity
  8
Marcacao
100
AcDbVertex
100
AcDb2dVertex
 10
-14.44695217516132
 20
-43.27239776031136
 30
0.0
  0
VERTEX
  5
1B9
330
1B2
100
AcDbEntity
  8
Marcacao
100
AcDbVertex
100
AcDb2dVertex
 10
-14.45086328627243
 20
-43.27204220475581
 30
0.0
  0
VERTEX
  5
1BA
330
1B2
100
AcDbEntity
  8
Marcacao
100
AcDbVertex
100
AcDb2dVertex
 10
-14.45495217516132
 20
-43.27239776031136
 30
0.0
  0
VERTEX
  5
1BB
330
1B2
100
AcDbEntity
  8
Marcacao
100
AcDbVertex
100
AcDb2dVertex
 10
-14.45495217516132
 20
-43.27186442697803
 30
0.0
  0
VERTEX
  5
1BC
330
1B2
100
AcDbEntity
  8
Marcacao
100
AcDbVertex
100
AcDb2dVertex
 10
-14.63077439738354
 20
-43.2624422047558
 30
0.0
  0
SEQEND
  5
1BD
330
1B2
100
AcDbEntity
  8
Marcacao
  0
POLYLINE
  5
1BE
330
1F
100
AcDbEntity
  8
Marcacao
100
AcDb2dPolyline
 66
     1
 10
0.0
 20
0.0
 30
0.0
 70
     1
  0
VERTEX
  5
1BF
330
1BE
100
AcDbEntity
  8
Marcacao
100
AcDbVertex
100
AcDb2dVertex
 10
-14.63184106405021
 20
-43.18386442697803
 30
0.0
  0
VERTEX
  5
1C0
330
1BE
100
AcDbEntity
  8
Marcacao
100
AcDbVertex
100
AcDb2dVertex
 10
-14.45086328627243
 20
-43.18750887142247
 30
0.0
  0
VERTEX
  5
1C1
330
1BE
100
AcDbEntity
  8
Marcacao
100
AcDbVertex
100
AcDb2dVertex
 10
-14.26979661960576
 20
-43.18386442697803
 30
0.0
  0
VERTEX
  5
1C2
330
1BE
100
AcDbEntity
  8
Marcacao
100
AcDbVertex
100
AcDb2dVertex
 10
-14.2575299529391
 20
-42.9624422047558
 30
0.0
  0
VERTEX
  5
1C3
330
1BE
100
AcDbEntity
  8
Marcacao
100
AcDbVertex
100
AcDb2dVertex
 10
-14.44695217516132
 20
-42.96857553808913
 30
0.0
  0
VERTEX
  5
1C4
330
1BE
100
AcDbEntity
  8
Marcacao
100
AcDbVertex
100
AcDb2dVertex
 10
-14.44695217516132
 20
-42.96875331586691
 30
0.0
  0
VERTEX
  5
1C5
330
1BE
100
AcDbEntity
  8
Marcacao
100
AcDbVertex
100
AcDb2dVertex
 10
-14.45495217516132
 20
-42.96875331586691
 30
0.0
  0
VERTEX
  5
1C6
330
1BE
100
AcDbEntity
  8
Marcacao
100
AcDbVertex
100
AcDb2dVertex
 10
-14.45495217516132
 20
-42.96857553808913
 30
0.0
  0
VERTEX
  5
1C7
330
1BE
100
AcDbEntity
  8
Marcacao
100
AcDbVertex
100
AcDb2dVertex
 10
-14.64375217516132
 20
-42.9624422047558
 30
0.0
  0
SEQEND
  5
1C8
330
1BE
100
AcDbEntity
  8
Marcacao
  0
POLYLINE
  5
1C9
330
1F
100
AcDbEntity
  8
Marcacao
100
AcDb2dPolyline
 66
     1
 10
0.0
 20
0.0
 30
0.0
 70
     1
  0
VERTEX
  5
1CA
330
1C9
100
AcDbEntity
  8
Marcacao
100
AcDbVertex
100
AcDb2dVertex
 10
-14.45086328627243
 20
-40.57941998253358
 30
0.0
  0
VERTEX
  5
1CB
330
1C9
100
AcDbEntity
  8
Marcacao
100
AcDbVertex
100
AcDb2dVertex
 10
-14.45495217516132
 20
-40.57959776031136
 30
0.0
  0
VERTEX
  5
1CC
330
1C9
100
AcDbEntity
  8
Marcacao
100
AcDbVertex
100
AcDb2dVertex
 10
-14.45495217516132
 20
-40.57933109364469
 30
0.0
  0
VERTEX
  5
1CD
330
1C9
100
AcDbEntity
  8
Marcacao
100
AcDbVertex
100
AcDb2dVertex
 10
-14.61237439738354
 20
-40.57621998253358
 30
0.0
  0
VERTEX
  5
1CE
330
1C9
100
AcDbEntity
  8
Marcacao
100
AcDbVertex
100
AcDb2dVertex
 10
-14.61619661960576
 20
-40.81186442697803
 30
0.0
  0
VERTEX
  5
1CF
330
1C9
100
AcDbEntity
  8
Marcacao
100
AcDbVertex
100
AcDb2dVertex
 10
-14.45086328627243
 20
-40.81328664920025
 30
0.0
  0
VERTEX
  5
1D0
330
1C9
100
AcDbEntity
  8
Marcacao
100
AcDbVertex
100
AcDb2dVertex
 10
-14.28490773071687
 20
-40.81186442697803
 30
0.0
  0
VERTEX
  5
1D1
330
1C9
100
AcDbEntity
  8
Marcacao
100
AcDbVertex
100
AcDb2dVertex
 10
-14.28899661960576
 20
-40.57621998253358
 30
0.0
  0
VERTEX
  5
1D2
330
1C9
100
AcDbEntity
  8
Marcacao
100
AcDbVertex
100
AcDb2dVertex
 10
-14.44695217516132
 20
-40.57933109364469
 30
0.0
  0
VERTEX
  5
1D3
330
1C9
100
AcDbEntity
  8
Marcacao
100
AcDbVertex
100
AcDb2dVertex
 10
-14.44695217516132
 20
-40.57959776031136
 30
0.0
  0
SEQEND
  5
1D4
330
1C9
100
AcDbEntity
  8
Marcacao
  0
POLYLINE
  5
1D5
330
1F
100
AcDbEntity
  8
Marcacao
100
AcDb2dPolyline
 66
     1
 10
0.0
 20
0.0
 30
0.0
 70
     1
  0
VERTEX
  5
1D6
330
1D5
100
AcDbEntity
  8
Marcacao
100
AcDbVertex
100
AcDb2dVertex
 10
-14.45086328627243
 20
-40.93986442697803
 30
0.0
  0
VERTEX
  5
1D7
330
1D5
100
AcDbEntity
  8
Marcacao
100
AcDbVertex
100
AcDb2dVertex
 10
-14.44695217516132
 20
-40.93968664920025
 30
0.0
  0
VERTEX
  5
1D8
330
1D5
100
AcDbEntity
  8
Marcacao
100
AcDbVertex
100
AcDb2dVertex
 10
-14.44695217516132
 20
-40.94004220475581
 30
0.0
  0
VERTEX
  5
1D9
330
1D5
100
AcDbEntity
  8
Marcacao
100
AcDbVertex
100
AcDb2dVertex
 10
-14.29450773071687
 20
-40.94830887142247
 30
0.0
  0
VERTEX
  5
1DA
330
1D5
100
AcDbEntity
  8
Marcacao
100
AcDbVertex
100
AcDb2dVertex
 10
-14.28899661960576
 20
-40.89977553808914
 30
0.0
  0
VERTEX
  5
1DB
330
1D5
100
AcDbEntity
  8
Marcacao
100
AcDbVertex
100
AcDb2dVertex
 10
-14.44695217516132
 20
-40.89399776031136
 30
0.0
  0
VERTEX
  5
1DC
330
1D5
100
AcDbEntity
  8
Marcacao
100
AcDbVertex
100
AcDb2dVertex
 10
-14.44695217516132
 20
-40.89479776031136
 30
0.0
  0
VERTEX
  5
1DD
330
1D5
100
AcDbEntity
  8
Marcacao
100
AcDbVertex
100
AcDb2dVertex
 10
-14.45495217516132
 20
-40.89399776031136
 30
0.0
  0
VERTEX
  5
1DE
330
1D5
100
AcDbEntity
  8
Marcacao
100
AcDbVertex
100
AcDb2dVertex
 10
-14.61237439738354
 20
-40.89977553808914
 30
0.0
  0
VERTEX
  5
1DF
330
1D5
100
AcDbEntity
  8
Marcacao
100
AcDbVertex
100
AcDb2dVertex
 10
-14.60686328627243
 20
-40.94830887142247
 30
0.0
  0
VERTEX
  5
1E0
330
1D5
100
AcDbEntity
  8
Marcacao
100
AcDbVertex
100
AcDb2dVertex
 10
-14.45495217516132
 20
-40.94004220475581
 30
0.0
  0
VERTEX
  5
1E1
330
1D5
100
AcDbEntity
  8
Marcacao
100
AcDbVertex
100
AcDb2dVertex
 10
-14.45495217516132
 20
-40.93968664920025
 30
0.0
  0
SEQEND
  5
1E2
330
1D5
100
AcDbEntity
  8
Marcacao
  0
POLYLINE
  5
1E3
330
1F
100
AcDbEntity
  8
Marcacao
100
AcDb2dPolyline
 66
     1
 10
0.0
 20
0.0
 30
0.0
 70
     1
  0
VERTEX
  5
1E4
330
1E3
100
AcDbEntity
  8
Marcacao
100
AcDbVertex
100
AcDb2dVertex
 10
-14.45086328627243
 20
-41.02368664920025
 30
0.0
  0
VERTEX
  5
1E5
330
1E3
100
AcDbEntity
  8
Marcacao
100
AcDbVertex
100
AcDb2dVertex
 10
-14.61770773071687
 20
-41.03239776031135
 30
0.0
  0
VERTEX
  5
1E6
330
1E3
100
AcDbEntity
  8
Marcacao
100
AcDbVertex
100
AcDb2dVertex
 10
-14.61930773071687
 20
-41.16741998253358
 30
0.0
  0
VERTEX
  5
1E7
330
1E3
100
AcDbEntity
  8
Marcacao
100
AcDbVertex
100
AcDb2dVertex
 10
-14.45495217516132
 20
-41.1584422047558
 30
0.0
  0
VERTEX
  5
1E8
330
1E3
100
AcDbEntity
  8
Marcacao
100
AcDbVertex
100
AcDb2dVertex
 10
-14.45495217516132
 20
-41.15808664920025
 30
0.0
  0
VERTEX
  5
1E9
330
1E3
100
AcDbEntity
  8
Marcacao
100
AcDbVertex
100
AcDb2dVertex
 10
-14.45086328627243
 20
-41.15826442697803
 30
0.0
  0
VERTEX
  5
1EA
330
1E3
100
AcDbEntity
  8
Marcacao
100
AcDbVertex
100
AcDb2dVertex
 10
-14.44695217516132
 20
-41.15808664920025
 30
0.0
  0
VERTEX
  5
1EB
330
1E3
100
AcDbEntity
  8
Marcacao
100
AcDbVertex
100
AcDb2dVertex
 10
-14.44695217516132
 20
-41.1584422047558
 30
0.0
  0
VERTEX
  5
1EC
330
1E3
100
AcDbEntity
  8
Marcacao
100
AcDbVertex
100
AcDb2dVertex
 10
-14.28197439738354
 20
-41.16741998253358
 30
0.0
  0
VERTEX
  5
1ED
330
1E3
100
AcDbEntity
  8
Marcacao
100
AcDbVertex
100
AcDb2dVertex
 10
-14.28357439738354
 20
-41.03239776031135
 30
0.0
  0
SEQEND
  5
1EE
330
1E3
100
AcDbEntity
  8
Marcacao
  0
POLYLINE
  5
1EF
330
1F
100
AcDbEntity
  8
Marcacao
100
AcDb2dPolyline
 66
     1
 10
0.0
 20
0.0
 30
0.0
 70
     1
  0
VERTEX
  5
1F0
330
1EF
100
AcDbEntity
  8
Marcacao
100
AcDbVertex
100
AcDb2dVertex
 10
-14.45086328627243
 20
-41.36937553808914
 30
0.0
  0
VERTEX
  5
1F1
330
1EF
100
AcDbEntity
  8
Marcacao
100
AcDbVertex
100
AcDb2dVertex
 10
-14.61904106405021
 20
-41.37853109364469
 30
0.0
  0
VERTEX
  5
1F2
330
1EF
100
AcDbEntity
  8
Marcacao
100
AcDbVertex
100
AcDb2dVertex
 10
-14.61326328627243
 20
-41.48937553808913
 30
0.0
  0
VERTEX
  5
1F3
330
1EF
100
AcDbEntity
  8
Marcacao
100
AcDbVertex
100
AcDb2dVertex
 10
-14.45086328627243
 20
-41.50848664920025
 30
0.0
  0
VERTEX
  5
1F4
330
1EF
100
AcDbEntity
  8
Marcacao
100
AcDbVertex
100
AcDb2dVertex
 10
-14.28801884182799
 20
-41.48937553808913
 30
0.0
  0
VERTEX
  5
1F5
330
1EF
100
AcDbEntity
  8
Marcacao
100
AcDbVertex
100
AcDb2dVertex
 10
-14.28215217516132
 20
-41.37853109364469
 30
0.0
  0
SEQEND
  5
1F6
330
1EF
100
AcDbEntity
  8
Marcacao
  0
POLYLINE
  5
1F7
330
1F
100
AcDbEntity
  8
Marcacao
100
AcDb2dPolyline
 66
     1
 10
0.0
 20
0.0
 30
0.0
 70
     1
  0
VERTEX
  5
1F8
330
1F7
100
AcDbEntity
  8
Marcacao
100
AcDbVertex
100
AcDb2dVertex
 10
-14.28988550849465
 20
-41.56946442697802
 30
0.0
  0
VERTEX
  5
1F9
330
1F7
100
AcDbEntity
  8
Marcacao
100
AcDbVertex
100
AcDb2dVertex
 10
-14.44695217516132
 20
-41.59319776031136
 30
0.0
  0
VERTEX
  5
1FA
330
1F7
100
AcDbEntity
  8
Marcacao
100
AcDbVertex
100
AcDb2dVertex
 10
-14.44695217516132
 20
-41.5944422047558
 30
0.0
  0
VERTEX
  5
1FB
330
1F7
100
AcDbEntity
  8
Marcacao
100
AcDbVertex
100
AcDb2dVertex
 10
-14.45086328627243
 20
-41.59381998253358
 30
0.0
  0
VERTEX
  5
1FC
330
1F7
100
AcDbEntity
  8
Marcacao
100
AcDbVertex
100
AcDb2dVertex
 10
-14.45495217516132
 20
-41.5944422047558
 30
0.0
  0
VERTEX
  5
1FD
330
1F7
100
AcDbEntity
  8
Marcacao
100
AcDbVertex
100
AcDb2dVertex
 10
-14.45495217516132
 20
-41.59319776031136
 30
0.0
  0
VERTEX
  5
1FE
330
1F7
100
AcDbEntity
  8
Marcacao
100
AcDbVertex
100
AcDb2dVertex
 10
-14.61148550849465
 20
-41.56946442697802
 30
0.0
  0
VERTEX
  5
1FF
330
1F7
100
AcDbEntity
  8
Marcacao
100
AcDbVertex
100
AcDb2dVertex
 10
-14.62055217516132
 20
-41.63053109364469
 30
0.0
  0
VERTEX
  5
200
330
1F7
100
AcDbEntity
  8
Marcacao
100
AcDbVertex
100
AcDb2dVertex
 10
-14.45495217516132
 20
-41.6064422047558
 30
0.0
  0
VERTEX
  5
201
330
1F7
100
AcDbEntity
  8
Marcacao
100
AcDbVertex
100
AcDb2dVertex
 10
-14.45495217516132
 20
-41.60510887142247
 30
0.0
  0
VERTEX
  5
202
330
1F7
100
AcDbEntity
  8
Marcacao
100
AcDbVertex
100
AcDb2dVertex
 10
-14.45086328627243
 20
-41.60573109364469
 30
0.0
  0
VERTEX
  5
203
330
1F7
100
AcDbEntity
  8
Marcacao
100
AcDbVertex
100
AcDb2dVertex
 10
-14.44695217516132
 20
-41.60510887142247
 30
0.0
  0
VERTEX
  5
204
330
1F7
100
AcDbEntity
  8
Marcacao
100
AcDbVertex
100
AcDb2dVertex
 10
-14.44695217516132
 20
-41.6064422047558
 30
0.0
  0
VERTEX
  5
205
330
1F7
100
AcDbEntity
  8
Marcacao
100
AcDbVertex
100
AcDb2dVertex
 10
-14.28064106405021
 20
-41.63053109364469
 30
0.0
  0
SEQEND
  5
206
330
1F7
100
AcDbEntity
  8
Marcacao
  0
POLYLINE
  5
207
330
1F
100
AcDbEntity
  8
Marcacao
100
AcDb2dPolyline
 66
     1
 10
0.0
 20
0.0
 30
0.0
 70
     1
  0
VERTEX
  5
208
330
207
100
AcDbEntity
  8
Marcacao
100
AcDbVertex
100
AcDb2dVertex
 10
-14.28366328627243
 20
-41.71106442697803
 30
0.0
  0
VERTEX
  5
209
330
207
100
AcDbEntity
  8
Marcacao
100
AcDbVertex
100
AcDb2dVertex
 10
-14.45086328627243
 20
-41.68821998253358
 30
0.0
  0
VERTEX
  5
20A
330
207
100
AcDbEntity
  8
Marcacao
100
AcDbVertex
100
AcDb2dVertex
 10
-14.61761884182798
 20
-41.71106442697803
 30
0.0
  0
VERTEX
  5
20B
330
207
100
AcDbEntity
  8
Marcacao
100
AcDbVertex
100
AcDb2dVertex
 10
-14.62286328627243
 20
-41.91488664920025
 30
0.0
  0
VERTEX
  5
20C
330
207
100
AcDbEntity
  8
Marcacao
100
AcDbVertex
100
AcDb2dVertex
 10
-14.45086328627243
 20
-41.92493109364469
 30
0.0
  0
VERTEX
  5
20D
330
207
100
AcDbEntity
  8
Marcacao
100
AcDbVertex
100
AcDb2dVertex
 10
-14.27832995293909
 20
-41.91488664920025
 30
0.0
  0
SEQEND
  5
20E
330
207
100
AcDbEntity
  8
Marcacao
  0
POLYLINE
  5
20F
330
1F
100
AcDbEntity
  8
Marcacao
100
AcDb2dPolyline
 66
     1
 10
0.0
 20
0.0
 30
0.0
 70
     1
  0
VERTEX
  5
210
330
20F
100
AcDbEntity
  8
Marcacao
100
AcDbVertex
100
AcDb2dVertex
 10
-14.27841884182799
 20
-41.98813109364469
 30
0.0
  0
VERTEX
  5
211
330
20F
100
AcDbEntity
  8
Marcacao
100
AcDbVertex
100
AcDb2dVertex
 10
-14.44695217516132
 20
-42.00199776031136
 30
0.0
  0
VERTEX
  5
212
330
20F
100
AcDbEntity
  8
Marcacao
100
AcDbVertex
100
AcDb2dVertex
 10
-14.44695217516132
 20
-42.00261998253358
 30
0.0
  0
VERTEX
  5
213
330
20F
100
AcDbEntity
  8
Marcacao
100
AcDbVertex
100
AcDb2dVertex
 10
-14.45086328627243
 20
-42.00226442697802
 30
0.0
  0
VERTEX
  5
214
330
20F
100
AcDbEntity
  8
Marcacao
100
AcDbVertex
100
AcDb2dVertex
 10
-14.45495217516132
 20
-42.00261998253358
 30
0.0
  0
VERTEX
  5
215
330
20F
100
AcDbEntity
  8
Marcacao
100
AcDbVertex
100
AcDb2dVertex
 10
-14.45495217516132
 20
-42.00199776031136
 30
0.0
  0
VERTEX
  5
216
330
20F
100
AcDbEntity
  8
Marcacao
100
AcDbVertex
100
AcDb2dVertex
 10
-14.62277439738354
 20
-41.98813109364469
 30
0.0
  0
VERTEX
  5
217
330
20F
100
AcDbEntity
  8
Marcacao
100
AcDbVertex
100
AcDb2dVertex
 10
-14.62321884182798
 20
-42.07097553808914
 30
0.0
  0
VERTEX
  5
218
330
20F
100
AcDbEntity
  8
Marcacao
100
AcDbVertex
100
AcDb2dVertex
 10
-14.45086328627243
 20
-42.08039776031136
 30
0.0
  0
VERTEX
  5
219
330
20F
100
AcDbEntity
  8
Marcacao
100
AcDbVertex
100
AcDb2dVertex
 10
-14.27797439738354
 20
-42.07097553808914
 30
0.0
  0
SEQEND
  5
21A
330
20F
100
AcDbEntity
  8
Marcacao
  0
POLYLINE
  5
21B
330
1F
100
AcDbEntity
  8
Marcacao
100
AcDb2dPolyline
 66
     1
 10
0.0
 20
0.0
 30
0.0
 70
     1
  0
VERTEX
  5
21C
330
21B
100
AcDbEntity
  8
Marcacao
100
AcDbVertex
100
AcDb2dVertex
 10
-14.45086328627243
 20
-39.62590887142247
 30
0.0
  0
VERTEX
  5
21D
330
21B
100
AcDbEntity
  8
Marcacao
100
AcDbVertex
100
AcDb2dVertex
 10
-14.45495217516132
 20
-39.62626442697803
 30
0.0
  0
VERTEX
  5
21E
330
21B
100
AcDbEntity
  8
Marcacao
100
AcDbVertex
100
AcDb2dVertex
 10
-14.45495217516132
 20
-39.62546442697803
 30
0.0
  0
VERTEX
  5
21F
330
21B
100
AcDbEntity
  8
Marcacao
100
AcDbVertex
100
AcDb2dVertex
 10
-14.60961884182799
 20
-39.61017553808914
 30
0.0
  0
VERTEX
  5
220
330
21B
100
AcDbEntity
  8
Marcacao
100
AcDbVertex
100
AcDb2dVertex
 10
-14.61779661960576
 20
-39.67310887142247
 30
0.0
  0
VERTEX
  5
221
330
21B
100
AcDbEntity
  8
Marcacao
100
AcDbVertex
100
AcDb2dVertex
 10
-14.45495217516132
 20
-39.64226442697802
 30
0.0
  0
VERTEX
  5
222
330
21B
100
AcDbEntity
  8
Marcacao
100
AcDbVertex
100
AcDb2dVertex
 10
-14.45495217516132
 20
-39.63719776031136
 30
0.0
  0
VERTEX
  5
223
330
21B
100
AcDbEntity
  8
Marcacao
100
AcDbVertex
100
AcDb2dVertex
 10
-14.45086328627243
 20
-39.63977553808914
 30
0.0
  0
VERTEX
  5
224
330
21B
100
AcDbEntity
  8
Marcacao
100
AcDbVertex
100
AcDb2dVertex
 10
-14.44695217516132
 20
-39.63719776031136
 30
0.0
  0
VERTEX
  5
225
330
21B
100
AcDbEntity
  8
Marcacao
100
AcDbVertex
100
AcDb2dVertex
 10
-14.44695217516132
 20
-39.64226442697802
 30
0.0
  0
VERTEX
  5
226
330
21B
100
AcDbEntity
  8
Marcacao
100
AcDbVertex
100
AcDb2dVertex
 10
-14.28339661960576
 20
-39.67310887142247
 30
0.0
  0
VERTEX
  5
227
330
21B
100
AcDbEntity
  8
Marcacao
100
AcDbVertex
100
AcDb2dVertex
 10
-14.29166328627243
 20
-39.61017553808914
 30
0.0
  0
VERTEX
  5
228
330
21B
100
AcDbEntity
  8
Marcacao
100
AcDbVertex
100
AcDb2dVertex
 10
-14.44695217516132
 20
-39.62546442697803
 30
0.0
  0
VERTEX
  5
229
330
21B
100
AcDbEntity
  8
Marcacao
100
AcDbVertex
100
AcDb2dVertex
 10
-14.44695217516132
 20
-39.62626442697803
 30
0.0
  0
SEQEND
  5
22A
330
21B
100
AcDbEntity
  8
Marcacao
  0
POLYLINE
  5
22B
330
1F
100
AcDbEntity
  8
Marcacao
100
AcDb2dPolyline
 66
     1
 10
0.0
 20
0.0
 30
0.0
 70
     1
  0
VERTEX
  5
22C
330
22B
100
AcDbEntity
  8
Marcacao
100
AcDbVertex
100
AcDb2dVertex
 10
-14.45086328627243
 20
-39.90901998253358
 30
0.0
  0
VERTEX
  5
22D
330
22B
100
AcDbEntity
  8
Marcacao
100
AcDbVertex
100
AcDb2dVertex
 10
-14.44695217516132
 20
-39.90893109364469
 30
0.0
  0
VERTEX
  5
22E
330
22B
100
AcDbEntity
  8
Marcacao
100
AcDbVertex
100
AcDb2dVertex
 10
-14.44695217516132
 20
-39.90901998253358
 30
0.0
  0
VERTEX
  5
22F
330
22B
100
AcDbEntity
  8
Marcacao
100
AcDbVertex
100
AcDb2dVertex
 10
-14.28366328627243
 20
-39.90955331586692
 30
0.0
  0
VERTEX
  5
230
330
22B
100
AcDbEntity
  8
Marcacao
100
AcDbVertex
100
AcDb2dVertex
 10
-14.28890773071687
 20
-39.77746442697802
 30
0.0
  0
VERTEX
  5
231
330
22B
100
AcDbEntity
  8
Marcacao
100
AcDbVertex
100
AcDb2dVertex
 10
-14.44695217516132
 20
-39.74635331586691
 30
0.0
  0
VERTEX
  5
232
330
22B
100
AcDbEntity
  8
Marcacao
100
AcDbVertex
100
AcDb2dVertex
 10
-14.44695217516132
 20
-39.74706442697803
 30
0.0
  0
VERTEX
  5
233
330
22B
100
AcDbEntity
  8
Marcacao
100
AcDbVertex
100
AcDb2dVertex
 10
-14.44819661960576
 20
-39.7464422047558
 30
0.0
  0
VERTEX
  5
234
330
22B
100
AcDbEntity
  8
Marcacao
100
AcDbVertex
100
AcDb2dVertex
 10
-14.44837439738354
 20
-39.7464422047558
 30
0.0
  0
VERTEX
  5
235
330
22B
100
AcDbEntity
  8
Marcacao
100
AcDbVertex
100
AcDb2dVertex
 10
-14.44837439738354
 20
-39.74608664920025
 30
0.0
  0
VERTEX
  5
236
330
22B
100
AcDbEntity
  8
Marcacao
100
AcDbVertex
100
AcDb2dVertex
 10
-14.45086328627243
 20
-39.74555331586691
 30
0.0
  0
VERTEX
  5
237
330
22B
100
AcDbEntity
  8
Marcacao
100
AcDbVertex
100
AcDb2dVertex
 10
-14.45361884182799
 20
-39.74608664920025
 30
0.0
  0
VERTEX
  5
238
330
22B
100
AcDbEntity
  8
Marcacao
100
AcDbVertex
100
AcDb2dVertex
 10
-14.45361884182799
 20
-39.74617553808913
 30
0.0
  0
VERTEX
  5
239
330
22B
100
AcDbEntity
  8
Marcacao
100
AcDbVertex
100
AcDb2dVertex
 10
-14.45495217516132
 20
-39.74635331586691
 30
0.0
  0
VERTEX
  5
23A
330
22B
100
AcDbEntity
  8
Marcacao
100
AcDbVertex
100
AcDb2dVertex
 10
-14.61246328627243
 20
-39.77746442697802
 30
0.0
  0
VERTEX
  5
23B
330
22B
100
AcDbEntity
  8
Marcacao
100
AcDbVertex
100
AcDb2dVertex
 10
-14.61761884182798
 20
-39.90955331586692
 30
0.0
  0
VERTEX
  5
23C
330
22B
100
AcDbEntity
  8
Marcacao
100
AcDbVertex
100
AcDb2dVertex
 10
-14.45495217516132
 20
-39.90901998253358
 30
0.0
  0
VERTEX
  5
23D
330
22B
100
AcDbEntity
  8
Marcacao
100
AcDbVertex
100
AcDb2dVertex
 10
-14.45495217516132
 20
-39.90893109364469
 30
0.0
  0
SEQEND
  5
23E
330
22B
100
AcDbEntity
  8
Marcacao
  0
POLYLINE
  5
23F
330
1F
100
AcDbEntity
  8
Marcacao
100
AcDb2dPolyline
 66
     1
 10
0.0
 20
0.0
 30
0.0
 70
     1
  0
VERTEX
  5
240
330
23F
100
AcDbEntity
  8
Marcacao
100
AcDbVertex
100
AcDb2dVertex
 10
-14.29886328627243
 20
-39.99773109364469
 30
0.0
  0
VERTEX
  5
241
330
23F
100
AcDbEntity
  8
Marcacao
100
AcDbVertex
100
AcDb2dVertex
 10
-14.44695217516132
 20
-40.01666442697802
 30
0.0
  0
VERTEX
  5
242
330
23F
100
AcDbEntity
  8
Marcacao
100
AcDbVertex
100
AcDb2dVertex
 10
-14.44695217516132
 20
-40.02119776031136
 30
0.0
  0
VERTEX
  5
243
330
23F
100
AcDbEntity
  8
Marcacao
100
AcDbVertex
100
AcDb2dVertex
 10
-14.45086328627243
 20
-40.01888664920025
 30
0.0
  0
VERTEX
  5
244
330
23F
100
AcDbEntity
  8
Marcacao
100
AcDbVertex
100
AcDb2dVertex
 10
-14.45495217516132
 20
-40.02119776031136
 30
0.0
  0
VERTEX
  5
245
330
23F
100
AcDbEntity
  8
Marcacao
100
AcDbVertex
100
AcDb2dVertex
 10
-14.45495217516132
 20
-40.01666442697802
 30
0.0
  0
VERTEX
  5
246
330
23F
100
AcDbEntity
  8
Marcacao
100
AcDbVertex
100
AcDb2dVertex
 10
-14.60312995293909
 20
-39.99773109364469
 30
0.0
  0
VERTEX
  5
247
330
23F
100
AcDbEntity
  8
Marcacao
100
AcDbVertex
100
AcDb2dVertex
 10
-14.61797439738354
 20
-40.06261998253358
 30
0.0
  0
VERTEX
  5
248
330
23F
100
AcDbEntity
  8
Marcacao
100
AcDbVertex
100
AcDb2dVertex
 10
-14.45495217516132
 20
-40.03399776031136
 30
0.0
  0
VERTEX
  5
249
330
23F
100
AcDbEntity
  8
Marcacao
100
AcDbVertex
100
AcDb2dVertex
 10
-14.45495217516132
 20
-40.03266442697802
 30
0.0
  0
VERTEX
  5
24A
330
23F
100
AcDbEntity
  8
Marcacao
100
AcDbVertex
100
AcDb2dVertex
 10
-14.45086328627243
 20
-40.03337553808914
 30
0.0
  0
VERTEX
  5
24B
330
23F
100
AcDbEntity
  8
Marcacao
100
AcDbVertex
100
AcDb2dVertex
 10
-14.44695217516132
 20
-40.03266442697802
 30
0.0
  0
VERTEX
  5
24C
330
23F
100
AcDbEntity
  8
Marcacao
100
AcDbVertex
100
AcDb2dVertex
 10
-14.44695217516132
 20
-40.03399776031136
 30
0.0
  0
VERTEX
  5
24D
330
23F
100
AcDbEntity
  8
Marcacao
100
AcDbVertex
100
AcDb2dVertex
 10
-14.28330773071688
 20
-40.06261998253358
 30
0.0
  0
SEQEND
  5
24E
330
23F
100
AcDbEntity
  8
Marcacao
  0
POLYLINE
  5
24F
330
1F
100
AcDbEntity
  8
Marcacao
100
AcDb2dPolyline
 66
     1
 10
0.0
 20
0.0
 30
0.0
 70
     1
  0
VERTEX
  5
250
330
24F
100
AcDbEntity
  8
Marcacao
100
AcDbVertex
100
AcDb2dVertex
 10
-14.28899661960576
 20
-40.14253109364469
 30
0.0
  0
VERTEX
  5
251
330
24F
100
AcDbEntity
  8
Marcacao
100
AcDbVertex
100
AcDb2dVertex
 10
-14.45086328627243
 20
-40.13381998253358
 30
0.0
  0
VERTEX
  5
252
330
24F
100
AcDbEntity
  8
Marcacao
100
AcDbVertex
100
AcDb2dVertex
 10
-14.61237439738354
 20
-40.14253109364469
 30
0.0
  0
VERTEX
  5
253
330
24F
100
AcDbEntity
  8
Marcacao
100
AcDbVertex
100
AcDb2dVertex
 10
-14.61877439738354
 20
-40.35595331586691
 30
0.0
  0
VERTEX
  5
254
330
24F
100
AcDbEntity
  8
Marcacao
100
AcDbVertex
100
AcDb2dVertex
 10
-14.45086328627243
 20
-40.35968664920025
 30
0.0
  0
VERTEX
  5
255
330
24F
100
AcDbEntity
  8
Marcacao
100
AcDbVertex
100
AcDb2dVertex
 10
-14.28259661960576
 20
-40.35595331586691
 30
0.0
  0
SEQEND
  5
256
330
24F
100
AcDbEntity
  8
Marcacao
  0
POLYLINE
  5
257
330
1F
100
AcDbEntity
  8
Marcacao
100
AcDb2dPolyline
 66
     1
 10
0.0
 20
0.0
 30
0.0
 70
     1
  0
VERTEX
  5
258
330
257
100
AcDbEntity
  8
Marcacao
100
AcDbVertex
100
AcDb2dVertex
 10
-14.61930773071687
 20
-39.37213109364469
 30
0.0
  0
VERTEX
  5
259
330
257
100
AcDbEntity
  8
Marcacao
100
AcDbVertex
100
AcDb2dVertex
 10
-14.62499661960576
 20
-39.52910887142247
 30
0.0
  0
VERTEX
  5
25A
330
257
100
AcDbEntity
  8
Marcacao
100
AcDbVertex
100
AcDb2dVertex
 10
-14.45086328627243
 20
-39.54226442697802
 30
0.0
  0
VERTEX
  5
25B
330
257
100
AcDbEntity
  8
Marcacao
100
AcDbVertex
100
AcDb2dVertex
 10
-14.27637439738354
 20
-39.52910887142247
 30
0.0
  0
VERTEX
  5
25C
330
257
100
AcDbEntity
  8
Marcacao
100
AcDbVertex
100
AcDb2dVertex
 10
-14.28197439738354
 20
-39.37213109364469
 30
0.0
  0
VERTEX
  5
25D
330
257
100
AcDbEntity
  8
Marcacao
100
AcDbVertex
100
AcDb2dVertex
 10
-14.44695217516132
 20
-39.37586442697803
 30
0.0
  0
VERTEX
  5
25E
330
257
100
AcDbEntity
  8
Marcacao
100
AcDbVertex
100
AcDb2dVertex
 10
-14.45344106405021
 20
-39.37550887142247
 30
0.0
  0
VERTEX
  5
25F
330
257
100
AcDbEntity
  8
Marcacao
100
AcDbVertex
100
AcDb2dVertex
 10
-14.45539661960576
 20
-39.37559776031136
 30
0.0
  0
SEQEND
  5
260
330
257
100
AcDbEntity
  8
Marcacao
  0
POLYLINE
  5
261
330
1F
100
AcDbEntity
  8
Marcacao
100
AcDb3dPolyline
 66
     1
 10
0.0
 20
0.0
 30
0.0
 70
     9
  0
VERTEX
  5
262
330
261
100
AcDbEntity
  8
Marcacao
100
AcDbVertex
100
AcDb3dPolylineVertex
 10
-14.45610773071687
 20
-39.27808664920025
 30
0.0
 70
    32
  0
VERTEX
  5
263
330
261
100
AcDbEntity
  8
Marcacao
100
AcDbVertex
100
AcDb3dPolylineVertex
 10
-14.63379661960576
 20
-39.28768664920025
 30
0.0
 70
    32
  0
SEQEND
  5
264
330
261
100
AcDbEntity
  8
Marcacao
  0
POLYLINE
  5
265
330
1F
100
AcDbEntity
  8
Marcacao
100
AcDb3dPolyline
 66
     1
 10
0.0
 20
0.0
 30
0.0
 70
     9
  0
VERTEX
  5
266
330
265
100
AcDbEntity
  8
Marcacao
100
AcDbVertex
100
AcDb3dPolylineVertex
 10
-14.26819661960576
 20
-39.28768664920025
 30
0.0
 70
    32
  0
VERTEX
  5
267
330
265
100
AcDbEntity
  8
Marcacao
100
AcDbVertex
100
AcDb3dPolylineVertex
 10
-14.44588550849465
 20
-39.27808664920025
 30
0.0
 70
    32
  0
SEQEND
  5
268
330
265
100
AcDbEntity
  8
Marcacao
  0
POLYLINE
  5
269
330
1F
100
AcDbEntity
  8
Marcacao
100
AcDb2dPolyline
 66
     1
 10
0.0
 20
0.0
 30
0.0
 70
     1
  0
VERTEX
  5
26A
330
269
100
AcDbEntity
  8
Marcacao
100
AcDbVertex
100
AcDb2dVertex
 10
-14.26899661960576
 20
-42.14706442697803
 30
0.0
  0
VERTEX
  5
26B
330
269
100
AcDbEntity
  8
Marcacao
100
AcDbVertex
100
AcDb2dVertex
 10
-14.44695217516132
 20
-42.16030887142247
 30
0.0
  0
VERTEX
  5
26C
330
269
100
AcDbEntity
  8
Marcacao
100
AcDbVertex
100
AcDb2dVertex
 10
-14.44695217516132
 20
-42.16093109364469
 30
0.0
  0
VERTEX
  5
26D
330
269
100
AcDbEntity
  8
Marcacao
100
AcDbVertex
100
AcDb2dVertex
 10
-14.45086328627243
 20
-42.16066442697802
 30
0.0
  0
VERTEX
  5
26E
330
269
100
AcDbEntity
  8
Marcacao
100
AcDbVertex
100
AcDb2dVertex
 10
-14.45495217516132
 20
-42.16093109364469
 30
0.0
  0
VERTEX
  5
26F
330
269
100
AcDbEntity
  8
Marcacao
100
AcDbVertex
100
AcDb2dVertex
 10
-14.45495217516132
 20
-42.16030887142247
 30
0.0
  0
VERTEX
  5
270
330
269
100
AcDbEntity
  8
Marcacao
100
AcDbVertex
100
AcDb2dVertex
 10
-14.63290773071687
 20
-42.14706442697803
 30
0.0
  0
VERTEX
  5
271
330
269
100
AcDbEntity
  8
Marcacao
100
AcDbVertex
100
AcDb2dVertex
 10
-14.63815217516132
 20
-42.34101998253358
 30
0.0
  0
VERTEX
  5
272
330
269
100
AcDbEntity
  8
Marcacao
100
AcDbVertex
100
AcDb2dVertex
 10
-14.45086328627243
 20
-42.34350887142246
 30
0.0
  0
VERTEX
  5
273
330
269
100
AcDbEntity
  8
Marcacao
100
AcDbVertex
100
AcDb2dVertex
 10
-14.26357439738354
 20
-42.34101998253358
 30
0.0
  0
SEQEND
  5
274
330
269
100
AcDbEntity
  8
Marcacao
  0
POLYLINE
  5
275
330
1F
100
AcDbEntity
  8
Marcacao
100
AcDb2dPolyline
 66
     1
 10
0.0
 20
0.0
 30
0.0
 70
     1
  0
VERTEX
  5
276
330
275
100
AcDbEntity
  8
Marcacao
100
AcDbVertex
100
AcDb2dVertex
 10
-14.62677439738354
 20
-39.16715331586691
 30
0.0
  0
VERTEX
  5
277
330
275
100
AcDbEntity
  8
Marcacao
100
AcDbVertex
100
AcDb2dVertex
 10
-14.47690773071688
 20
-39.16839776031136
 30
0.0
  0
VERTEX
  5
278
330
275
100
AcDbEntity
  8
Marcacao
100
AcDbVertex
100
AcDb2dVertex
 10
-14.43139661960576
 20
-39.16857553808914
 30
0.0
  0
VERTEX
  5
279
330
275
100
AcDbEntity
  8
Marcacao
100
AcDbVertex
100
AcDb2dVertex
 10
-14.27459661960576
 20
-39.16715331586691
 30
0.0
  0
VERTEX
  5
27A
330
275
100
AcDbEntity
  8
Marcacao
100
AcDbVertex
100
AcDb2dVertex
 10
-14.26241884182799
 20
-38.93595331586691
 30
0.0
  0
VERTEX
  5
27B
330
275
100
AcDbEntity
  8
Marcacao
100
AcDbVertex
100
AcDb2dVertex
 10
-14.45086328627243
 20
-38.92599776031136
 30
0.0
  0
VERTEX
  5
27C
330
275
100
AcDbEntity
  8
Marcacao
100
AcDbVertex
100
AcDb2dVertex
 10
-14.63957439738354
 20
-38.93595331586691
 30
0.0
  0
SEQEND
  5
27D
330
275
100
AcDbEntity
  8
Marcacao
  0
POLYLINE
  5
27E
330
1F
100
AcDbEntity
  8
Marcacao
100
AcDb2dPolyline
 66
     1
 10
0.0
 20
0.0
 30
0.0
 70
     1
  0
VERTEX
  5
27F
330
27E
100
AcDbEntity
  8
Marcacao
100
AcDbVertex
100
AcDb2dVertex
 10
-14.44695217516132
 20
-42.53870887142247
 30
0.0
  0
VERTEX
  5
280
330
27E
100
AcDbEntity
  8
Marcacao
100
AcDbVertex
100
AcDb2dVertex
 10
-14.44695217516132
 20
-42.53941998253358
 30
0.0
  0
VERTEX
  5
281
330
27E
100
AcDbEntity
  8
Marcacao
100
AcDbVertex
100
AcDb2dVertex
 10
-14.45086328627243
 20
-42.53915331586691
 30
0.0
  0
VERTEX
  5
282
330
27E
100
AcDbEntity
  8
Marcacao
100
AcDbVertex
100
AcDb2dVertex
 10
-14.45495217516132
 20
-42.53941998253358
 30
0.0
  0
VERTEX
  5
283
330
27E
100
AcDbEntity
  8
Marcacao
100
AcDbVertex
100
AcDb2dVertex
 10
-14.45495217516132
 20
-42.53870887142247
 30
0.0
  0
VERTEX
  5
284
330
27E
100
AcDbEntity
  8
Marcacao
100
AcDbVertex
100
AcDb2dVertex
 10
-14.65237439738354
 20
-42.54439776031136
 30
0.0
  0
VERTEX
  5
285
330
27E
100
AcDbEntity
  8
Marcacao
100
AcDbVertex
100
AcDb2dVertex
 10
-14.65264106405021
 20
-42.74875331586691
 30
0.0
  0
VERTEX
  5
286
330
27E
100
AcDbEntity
  8
Marcacao
100
AcDbVertex
100
AcDb2dVertex
 10
-14.45086328627243
 20
-42.7624422047558
 30
0.0
  0
VERTEX
  5
287
330
27E
100
AcDbEntity
  8
Marcacao
100
AcDbVertex
100
AcDb2dVertex
 10
-14.24846328627243
 20
-42.74875331586691
 30
0.0
  0
VERTEX
  5
288
330
27E
100
AcDbEntity
  8
Marcacao
100
AcDbVertex
100
AcDb2dVertex
 10
-14.2487299529391
 20
-42.54439776031136
 30
0.0
  0
SEQEND
  5
289
330
27E
100
AcDbEntity
  8
Marcacao
  0
POLYLINE
  5
28A
330
1F
100
AcDbEntity
  8
Marcacao
100
AcDb2dPolyline
 66
     1
 10
0.0
 20
0.0
 30
0.0
 70
     1
  0
VERTEX
  5
28B
330
28A
100
AcDbEntity
  8
Marcacao
100
AcDbVertex
100
AcDb2dVertex
 10
-14.44908550849465
 20
-38.58013109364469
 30
0.0
  0
VERTEX
  5
28C
330
28A
100
AcDbEntity
  8
Marcacao
100
AcDbVertex
100
AcDb2dVertex
 10
-14.44908550849465
 20
-38.57959776031136
 30
0.0
  0
VERTEX
  5
28D
330
28A
100
AcDbEntity
  8
Marcacao
100
AcDbVertex
100
AcDb2dVertex
 10
-14.45086328627243
 20
-38.57950887142247
 30
0.0
  0
VERTEX
  5
28E
330
28A
100
AcDbEntity
  8
Marcacao
100
AcDbVertex
100
AcDb2dVertex
 10
-14.45281884182799
 20
-38.57959776031136
 30
0.0
  0
VERTEX
  5
28F
330
28A
100
AcDbEntity
  8
Marcacao
100
AcDbVertex
100
AcDb2dVertex
 10
-14.45281884182799
 20
-38.57995331586692
 30
0.0
  0
VERTEX
  5
290
330
28A
100
AcDbEntity
  8
Marcacao
100
AcDbVertex
100
AcDb2dVertex
 10
-14.45344106405021
 20
-38.57986442697803
 30
0.0
  0
VERTEX
  5
291
330
28A
100
AcDbEntity
  8
Marcacao
100
AcDbVertex
100
AcDb2dVertex
 10
-14.45495217516132
 20
-38.57995331586692
 30
0.0
  0
VERTEX
  5
292
330
28A
100
AcDbEntity
  8
Marcacao
100
AcDbVertex
100
AcDb2dVertex
 10
-14.45495217516132
 20
-38.57977553808914
 30
0.0
  0
VERTEX
  5
293
330
28A
100
AcDbEntity
  8
Marcacao
100
AcDbVertex
100
AcDb2dVertex
 10
-14.6390410640502
 20
-38.58928664920025
 30
0.0
  0
VERTEX
  5
294
330
28A
100
AcDbEntity
  8
Marcacao
100
AcDbVertex
100
AcDb2dVertex
 10
-14.65281884182798
 20
-38.70101998253358
 30
0.0
  0
VERTEX
  5
295
330
28A
100
AcDbEntity
  8
Marcacao
100
AcDbVertex
100
AcDb2dVertex
 10
-14.45086328627243
 20
-38.71070887142247
 30
0.0
  0
VERTEX
  5
296
330
28A
100
AcDbEntity
  8
Marcacao
100
AcDbVertex
100
AcDb2dVertex
 10
-14.24828550849465
 20
-38.70101998253358
 30
0.0
  0
VERTEX
  5
297
330
28A
100
AcDbEntity
  8
Marcacao
100
AcDbVertex
100
AcDb2dVertex
 10
-14.26277439738354
 20
-38.58928664920025
 30
0.0
  0
VERTEX
  5
298
330
28A
100
AcDbEntity
  8
Marcacao
100
AcDbVertex
100
AcDb2dVertex
 10
-14.44695217516132
 20
-38.57977553808914
 30
0.0
  0
VERTEX
  5
299
330
28A
100
AcDbEntity
  8
Marcacao
100
AcDbVertex
100
AcDb2dVertex
 10
-14.44695217516132
 20
-38.58039776031136
 30
0.0
  0
SEQEND
  5
29A
330
28A
100
AcDbEntity
  8
Marcacao
  0
POLYLINE
  5
29B
330
1F
100
AcDbEntity
  8
Marcacao
100
AcDb2dPolyline
 66
     1
 10
0.0
 20
0.0
 30
0.0
 70
     1
  0
VERTEX
  5
29C
330
29B
100
AcDbEntity
  8
Marcacao
100
AcDbVertex
100
AcDb2dVertex
 10
-15.32490773071687
 20
-38.38546442697803
 30
0.0
  0
VERTEX
  5
29D
330
29B
100
AcDbEntity
  8
Marcacao
100
AcDbVertex
100
AcDb2dVertex
 10
-14.45495217516132
 20
-38.37088664920024
 30
0.0
  0
VERTEX
  5
29E
330
29B
100
AcDbEntity
  8
Marcacao
100
AcDbVertex
100
AcDb2dVertex
 10
-14.45495217516132
 20
-38.37079776031136
 30
0.0
  0
VERTEX
  5
29F
330
29B
100
AcDbEntity
  8
Marcacao
100
AcDbVertex
100
AcDb2dVertex
 10
-14.45086328627243
 20
-38.37088664920024
 30
0.0
  0
VERTEX
  5
2A0
330
29B
100
AcDbEntity
  8
Marcacao
100
AcDbVertex
100
AcDb2dVertex
 10
-14.44695217516132
 20
-38.37079776031136
 30
0.0
  0
VERTEX
  5
2A1
330
29B
100
AcDbEntity
  8
Marcacao
100
AcDbVertex
100
AcDb2dVertex
 10
-14.44695217516132
 20
-38.37088664920024
 30
0.0
  0
VERTEX
  5
2A2
330
29B
100
AcDbEntity
  8
Marcacao
100
AcDbVertex
100
AcDb2dVertex
 10
-13.57619661960576
 20
-38.38546442697803
 30
0.0
  0
VERTEX
  5
2A3
330
29B
100
AcDbEntity
  8
Marcacao
100
AcDbVertex
100
AcDb2dVertex
 10
-13.57255217516132
 20
-38.37533109364469
 30
0.0
  0
VERTEX
  5
2A4
330
29B
100
AcDbEntity
  8
Marcacao
100
AcDbVertex
100
AcDb2dVertex
 10
-13.61388550849465
 20
-38.35568664920024
 30
0.0
  0
VERTEX
  5
2A5
330
29B
100
AcDbEntity
  8
Marcacao
100
AcDbVertex
100
AcDb2dVertex
 10
-13.99868550849465
 20
-38.31257553808913
 30
0.0
  0
VERTEX
  5
2A6
330
29B
100
AcDbEntity
  8
Marcacao
100
AcDbVertex
100
AcDb2dVertex
 10
-14.23317439738354
 20
-38.29159776031136
 30
0.0
  0
VERTEX
  5
2A7
330
29B
100
AcDbEntity
  8
Marcacao
100
AcDbVertex
100
AcDb2dVertex
 10
-14.44695217516132
 20
-38.29693109364469
 30
0.0
  0
VERTEX
  5
2A8
330
29B
100
AcDbEntity
  8
Marcacao
100
AcDbVertex
100
AcDb2dVertex
 10
-14.44695217516132
 20
-38.29728664920025
 30
0.0
  0
VERTEX
  5
2A9
330
29B
100
AcDbEntity
  8
Marcacao
100
AcDbVertex
100
AcDb2dVertex
 10
-14.45086328627243
 20
-38.29710887142247
 30
0.0
  0
VERTEX
  5
2AA
330
29B
100
AcDbEntity
  8
Marcacao
100
AcDbVertex
100
AcDb2dVertex
 10
-14.45495217516132
 20
-38.29728664920025
 30
0.0
  0
VERTEX
  5
2AB
330
29B
100
AcDbEntity
  8
Marcacao
100
AcDbVertex
100
AcDb2dVertex
 10
-14.45495217516132
 20
-38.29693109364469
 30
0.0
  0
VERTEX
  5
2AC
330
29B
100
AcDbEntity
  8
Marcacao
100
AcDbVertex
100
AcDb2dVertex
 10
-14.66828550849465
 20
-38.29159776031136
 30
0.0
  0
VERTEX
  5
2AD
330
29B
100
AcDbEntity
  8
Marcacao
100
AcDbVertex
100
AcDb2dVertex
 10
-14.90321884182799
 20
-38.31257553808913
 30
0.0
  0
VERTEX
  5
2AE
330
29B
100
AcDbEntity
  8
Marcacao
100
AcDbVertex
100
AcDb2dVertex
 10
-15.28712995293909
 20
-38.35568664920024
 30
0.0
  0
VERTEX
  5
2AF
330
29B
100
AcDbEntity
  8
Marcacao
100
AcDbVertex
100
AcDb2dVertex
 10
-15.3287299529391
 20
-38.37533109364469
 30
0.0
  0
SEQEND
  5
2B0
330
29B
100
AcDbEntity
  8
Marcacao
  0
POLYLINE
  5
2B1
330
1F
100
AcDbEntity
  8
Marcacao
100
AcDb2dPolyline
 66
     1
 10
0.0
 20
0.0
 30
0.0
 70
     1
  0
VERTEX
  5
2B2
330
2B1
100
AcDbEntity
  8
Marcacao
100
AcDbVertex
100
AcDb2dVertex
 10
-16.06126328627243
 20
-38.17941998253358
 30
0.0
  0
VERTEX
  5
2B3
330
2B1
100
AcDbEntity
  8
Marcacao
100
AcDbVertex
100
AcDb2dVertex
 10
-17.08455217516131
 20
-38.21639776031136
 30
0.0
  0
VERTEX
  5
2B4
330
2B1
100
AcDbEntity
  8
Marcacao
100
AcDbVertex
100
AcDb2dVertex
 10
-17.09486328627243
 20
-38.56066442697802
 30
0.0
  0
SEQEND
  5
2B5
330
2B1
100
AcDbEntity
  8
Marcacao
  0
POLYLINE
  5
2B6
330
1F
100
AcDbEntity
  8
Marcacao
100
AcDb2dPolyline
 66
     1
 10
0.0
 20
0.0
 30
0.0
 70
     1
  0
VERTEX
  5
2B7
330
2B6
100
AcDbEntity
  8
Marcacao
100
AcDbVertex
100
AcDb2dVertex
 10
-17.08677439738354
 20
-38.11773109364469
 30
0.0
  0
VERTEX
  5
2B8
330
2B6
100
AcDbEntity
  8
Marcacao
100
AcDbVertex
100
AcDb2dVertex
 10
-15.61681884182798
 20
-38.06466442697803
 30
0.0
  0
VERTEX
  5
2B9
330
2B6
100
AcDbEntity
  8
Marcacao
100
AcDbVertex
100
AcDb2dVertex
 10
-15.61681884182798
 20
-37.99399776031136
 30
0.0
  0
VERTEX
  5
2BA
330
2B6
100
AcDbEntity
  8
Marcacao
100
AcDbVertex
100
AcDb2dVertex
 10
-17.09681884182799
 20
-37.94066442697802
 30
0.0
  0
SEQEND
  5
2BB
330
2B6
100
AcDbEntity
  8
Marcacao
  0
POLYLINE
  5
2BC
330
1F
100
AcDbEntity
  8
Marcacao
100
AcDb2dPolyline
 66
     1
 10
0.0
 20
0.0
 30
0.0
 70
     1
  0
VERTEX
  5
2BD
330
2BC
100
AcDbEntity
  8
Marcacao
100
AcDbVertex
100
AcDb2dVertex
 10
-17.16739661960576
 20
-37.57870887142247
 30
0.0
 42
0.0428670980449894
  0
VERTEX
  5
2BE
330
2BC
100
AcDbEntity
  8
Marcacao
100
AcDbVertex
100
AcDb2dVertex
 10
-15.86837439738354
 20
-37.7056422047558
 30
0.0
  0
VERTEX
  5
2BF
330
2BC
100
AcDbEntity
  8
Marcacao
100
AcDbVertex
100
AcDb2dVertex
 10
-17.1918410640502
 20
-37.39266442697803
 30
0.0
  0
SEQEND
  5
2C0
330
2BC
100
AcDbEntity
  8
Marcacao
  0
POLYLINE
  5
2C1
330
1F
100
AcDbEntity
  8
Marcacao
100
AcDb2dPolyline
 66
     1
 10
0.0
 20
0.0
 30
0.0
 70
     1
  0
VERTEX
  5
2C2
330
2C1
100
AcDbEntity
  8
Marcacao
100
AcDbVertex
100
AcDb2dVertex
 10
-17.35246328627243
 20
-38.09293109364469
 30
0.0
  0
VERTEX
  5
2C3
330
2C1
100
AcDbEntity
  8
Marcacao
100
AcDbVertex
100
AcDb2dVertex
 10
-17.72277439738354
 20
-38.05088664920025
 30
0.0
  0
VERTEX
  5
2C4
330
2C1
100
AcDbEntity
  8
Marcacao
100
AcDbVertex
100
AcDb2dVertex
 10
-17.73957439738354
 20
-38.23835331586692
 30
0.0
  0
VERTEX
  5
2C5
330
2C1
100
AcDbEntity
  8
Marcacao
100
AcDbVertex
100
AcDb2dVertex
 10
-17.35281884182798
 20
-38.17168664920025
 30
0.0
  0
SEQEND
  5
2C6
330
2C1
100
AcDbEntity
  8
Marcacao
  0
POLYLINE
  5
2C7
330
1F
100
AcDbEntity
  8
Marcacao
100
AcDb2dPolyline
 66
     1
 10
0.0
 20
0.0
 30
0.0
 70
     1
  0
VERTEX
  5
2C8
330
2C7
100
AcDbEntity
  8
Marcacao
100
AcDbVertex
100
AcDb2dVertex
 10
-17.74935217516132
 20
-37.93168664920024
 30
0.0
  0
VERTEX
  5
2C9
330
2C7
100
AcDbEntity
  8
Marcacao
100
AcDbVertex
100
AcDb2dVertex
 10
-17.36446328627243
 20
-37.96048664920025
 30
0.0
  0
VERTEX
  5
2CA
330
2C7
100
AcDbEntity
  8
Marcacao
100
AcDbVertex
100
AcDb2dVertex
 10
-17.40197439738354
 20
-37.86395331586692
 30
0.0
  0
VERTEX
  5
2CB
330
2C7
100
AcDbEntity
  8
Marcacao
100
AcDbVertex
100
AcDb2dVertex
 10
-17.7175299529391
 20
-37.74501998253358
 30
0.0
  0
VERTEX
  5
2CC
330
2C7
100
AcDbEntity
  8
Marcacao
100
AcDbVertex
100
AcDb2dVertex
 10
-17.75984106405021
 20
-37.73301998253358
 30
0.0
  0
SEQEND
  5
2CD
330
2C7
100
AcDbEntity
  8
Marcacao
  0
POLYLINE
  5
2CE
330
1F
100
AcDbEntity
  8
Marcacao
100
AcDb2dPolyline
 66
     1
 10
0.0
 20
0.0
 30
0.0
 70
     1
  0
VERTEX
  5
2CF
330
2CE
100
AcDbEntity
  8
Marcacao
100
AcDbVertex
100
AcDb2dVertex
 10
-17.76055217516132
 20
-37.59355331586691
 30
0.0
  0
VERTEX
  5
2D0
330
2CE
100
AcDbEntity
  8
Marcacao
100
AcDbVertex
100
AcDb2dVertex
 10
-17.39299661960576
 20
-37.72830887142247
 30
0.0
  0
VERTEX
  5
2D1
330
2CE
100
AcDbEntity
  8
Marcacao
100
AcDbVertex
100
AcDb2dVertex
 10
-17.41717439738354
 20
-37.67355331586691
 30
0.0
  0
VERTEX
  5
2D2
330
2CE
100
AcDbEntity
  8
Marcacao
100
AcDbVertex
100
AcDb2dVertex
 10
-17.76997439738354
 20
-37.36306442697803
 30
0.0
  0
SEQEND
  5
2D3
330
2CE
100
AcDbEntity
  8
Marcacao
  0
POLYLINE
  5
2D5
330
1F
100
AcDbEntity
  8
Corte Externo
100
AcDb2dPolyline
 66
     1
 10
0.0
 20
0.0
 30
0.0
 70
     1
  0
VERTEX
  5
2D6
330
2D5
100
AcDbEntity
  8
Corte Externo
100
AcDbVertex
100
AcDb2dVertex
 10
-18.03619661960576
 20
-37.61328664920025
 30
0.0
 42
-0.2329409153503452
  0
VERTEX
  5
2D7
330
2D5
100
AcDbEntity
  8
Corte Externo
100
AcDbVertex
100
AcDb2dVertex
 10
-17.9111299529391
 20
-37.20457553808914
 30
0.0
 42
-0.1697626906353943
  0
VERTEX
  5
2D8
330
2D5
100
AcDbEntity
  8
Corte Externo
100
AcDbVertex
100
AcDb2dVertex
 10
-17.44330773071686
 20
-37.32981998253358
 30
0.0
 42
-0.494974568865789
  0
VERTEX
  5
2D9
330
2D5
100
AcDbEntity
  8
Corte Externo
100
AcDbVertex
100
AcDb2dVertex
 10
-17.23921884182798
 20
-37.07275331586691
 30
0.0
  0
VERTEX
  5
2DA
330
2D5
100
AcDbEntity
  8
Corte Externo
100
AcDbVertex
100
AcDb2dVertex
 10
-16.93041884182799
 20
-37.18199776031136
 30
0.0
  0
VERTEX
  5
2DB
330
2D5
100
AcDbEntity
  8
Corte Externo
100
AcDbVertex
100
AcDb2dVertex
 10
-15.62268550849465
 20
-37.46475331586691
 30
0.0
  0
VERTEX
  5
2DC
330
2D5
100
AcDbEntity
  8
Corte Externo
100
AcDbVertex
100
AcDb2dVertex
 10
-15.56010773071687
 20
-37.46190887142247
 30
0.0
  0
VERTEX
  5
2DD
330
2D5
100
AcDbEntity
  8
Corte Externo
100
AcDbVertex
100
AcDb2dVertex
 10
-15.51415217516132
 20
-37.25088664920025
 30
0.0
  0
VERTEX
  5
2DE
330
2D5
100
AcDbEntity
  8
Corte Externo
100
AcDbVertex
100
AcDb2dVertex
 10
-15.79939661960576
 20
-37.06359776031136
 30
0.0
 42
-0.0667097256283539
  0
VERTEX
  5
2DF
330
2D5
100
AcDbEntity
  8
Corte Externo
100
AcDbVertex
100
AcDb2dVertex
 10
-16.61699661960576
 20
-36.38279776031136
 30
0.0
 42
-0.4343767672616113
  0
VERTEX
  5
2E0
330
2D5
100
AcDbEntity
  8
Corte Externo
100
AcDbVertex
100
AcDb2dVertex
 10
-16.61841884182799
 20
-32.00093109364469
 30
0.0
 42
-0.387823232102443
  0
VERTEX
  5
2E1
330
2D5
100
AcDbEntity
  8
Corte Externo
100
AcDbVertex
100
AcDb2dVertex
 10
-12.28357439738354
 20
-32.0009310936447
 30
0.0
 42
-0.4346053649303934
  0
VERTEX
  5
2E2
330
2D5
100
AcDbEntity
  8
Corte Externo
100
AcDbVertex
100
AcDb2dVertex
 10
-12.28481884182799
 20
-36.38279776031136
 30
0.0
 42
-0.066865785836723
  0
VERTEX
  5
2E3
330
2D5
100
AcDbEntity
  8
Corte Externo
100
AcDbVertex
100
AcDb2dVertex
 10
-13.10250773071687
 20
-37.06359776031136
 30
0.0
  0
VERTEX
  5
2E4
330
2D5
100
AcDbEntity
  8
Corte Externo
100
AcDbVertex
100
AcDb2dVertex
 10
-13.38712995293909
 20
-37.25088664920025
 30
0.0
  0
VERTEX
  5
2E5
330
2D5
100
AcDbEntity
  8
Corte Externo
100
AcDbVertex
100
AcDb2dVertex
 10
-13.34126328627243
 20
-37.46190887142247
 30
0.0
  0
VERTEX
  5
2E6
330
2D5
100
AcDbEntity
  8
Corte Externo
100
AcDbVertex
100
AcDb2dVertex
 10
-13.27859661960576
 20
-37.46475331586691
 30
0.0
  0
VERTEX
  5
2E7
330
2D5
100
AcDbEntity
  8
Corte Externo
100
AcDbVertex
100
AcDb2dVertex
 10
-11.97068550849465
 20
-37.18199776031136
 30
0.0
  0
VERTEX
  5
2E8
330
2D5
100
AcDbEntity
  8
Corte Externo
100
AcDbVertex
100
AcDb2dVertex
 10
-11.66215217516132
 20
-37.07275331586691
 30
0.0
 42
-0.4940708734255793
  0
VERTEX
  5
2E9
330
2D5
100
AcDbEntity
  8
Corte Externo
100
AcDbVertex
100
AcDb2dVertex
 10
-11.45806328627243
 20
-37.32981998253358
 30
0.0
 42
-0.1699511620107839
  0
VERTEX
  5
2EA
330
2D5
100
AcDbEntity
  8
Corte Externo
100
AcDbVertex
100
AcDb2dVertex
 10
-10.99024106405021
 20
-37.20457553808914
 30
0.0
 42
-0.232846195780521
  0
VERTEX
  5
2EB
330
2D5
100
AcDbEntity
  8
Corte Externo
100
AcDbVertex
100
AcDb2dVertex
 10
-10.86570773071688
 20
-37.61328664920025
 30
0.0
 42
-0.0922216645834198
  0
VERTEX
  5
2EC
330
2D5
100
AcDbEntity
  8
Corte Externo
100
AcDbVertex
100
AcDb2dVertex
 10
-10.92730773071687
 20
-38.60359776031136
 30
0.0
 42
-0.5651611363518722
  0
VERTEX
  5
2ED
330
2D5
100
AcDbEntity
  8
Corte Externo
100
AcDbVertex
100
AcDb2dVertex
 10
-11.29877439738354
 20
-38.68226442697802
 30
0.0
  0
VERTEX
  5
2EE
330
2D5
100
AcDbEntity
  8
Corte Externo
100
AcDbVertex
100
AcDb2dVertex
 10
-11.53486328627243
 20
-38.66777553808914
 30
0.0
 42
-0.3224214171252404
  0
VERTEX
  5
2EF
330
2D5
100
AcDbEntity
  8
Corte Externo
100
AcDbVertex
100
AcDb2dVertex
 10
-11.8078410640502
 20
-38.86715331586691
 30
0.0
  0
VERTEX
  5
2F0
330
2D5
100
AcDbEntity
  8
Corte Externo
100
AcDbVertex
100
AcDb2dVertex
 10
-13.27255217516132
 20
-38.48999776031136
 30
0.0
  0
VERTEX
  5
2F1
330
2D5
100
AcDbEntity
  8
Corte Externo
100
AcDbVertex
100
AcDb2dVertex
 10
-13.5863299529391
 20
-38.54777553808913
 30
0.0
  0
VERTEX
  5
2F2
330
2D5
100
AcDbEntity
  8
Corte Externo
100
AcDbVertex
100
AcDb2dVertex
 10
-13.65859661960576
 20
-38.59248664920025
 30
0.0
  0
VERTEX
  5
2F3
330
2D5
100
AcDbEntity
  8
Corte Externo
100
AcDbVertex
100
AcDb2dVertex
 10
-13.71575217516131
 20
-38.70057553808914
 30
0.0
  0
VERTEX
  5
2F4
330
2D5
100
AcDbEntity
  8
Corte Externo
100
AcDbVertex
100
AcDb2dVertex
 10
-13.72686328627243
 20
-39.26377553808913
 30
0.0
  0
VERTEX
  5
2F5
330
2D5
100
AcDbEntity
  8
Corte Externo
100
AcDbVertex
100
AcDb2dVertex
 10
-13.73859661960576
 20
-42.57888664920025
 30
0.0
  0
VERTEX
  5
2F6
330
2D5
100
AcDbEntity
  8
Corte Externo
100
AcDbVertex
100
AcDb2dVertex
 10
-13.66606328627243
 20
-44.48786442697803
 30
0.0
 42
-0.1210319820352903
  0
VERTEX
  5
2F7
330
2D5
100
AcDbEntity
  8
Corte Externo
100
AcDbVertex
100
AcDb2dVertex
 10
-13.71201884182799
 20
-45.28715331586692
 30
0.0
 42
-0.0707404651236334
  0
VERTEX
  5
2F8
330
2D5
100
AcDbEntity
  8
Corte Externo
100
AcDbVertex
100
AcDb2dVertex
 10
-14.45086328627243
 20
-45.27479776031136
 30
0.0
 42
-0.0707830622803025
  0
VERTEX
  5
2F9
330
2D5
100
AcDbEntity
  8
Corte Externo
100
AcDbVertex
100
AcDb2dVertex
 10
-15.18926328627243
 20
-45.28715331586692
 30
0.0
 42
-0.1210589062675478
  0
VERTEX
  5
2FA
330
2D5
100
AcDbEntity
  8
Corte Externo
100
AcDbVertex
100
AcDb2dVertex
 10
-15.23575217516132
 20
-44.48786442697803
 30
0.0
  0
VERTEX
  5
2FB
330
2D5
100
AcDbEntity
  8
Corte Externo
100
AcDbVertex
100
AcDb2dVertex
 10
-15.16348550849465
 20
-42.57888664920025
 30
0.0
  0
VERTEX
  5
2FC
330
2D5
100
AcDbEntity
  8
Corte Externo
100
AcDbVertex
100
AcDb2dVertex
 10
-15.17432995293909
 20
-39.26377553808913
 30
0.0
  0
VERTEX
  5
2FD
330
2D5
100
AcDbEntity
  8
Corte Externo
100
AcDbVertex
100
AcDb2dVertex
 10
-15.18561884182798
 20
-38.70057553808914
 30
0.0
  0
VERTEX
  5
2FE
330
2D5
100
AcDbEntity
  8
Corte Externo
100
AcDbVertex
100
AcDb2dVertex
 10
-15.24268550849465
 20
-38.59248664920025
 30
0.0
  0
VERTEX
  5
2FF
330
2D5
100
AcDbEntity
  8
Corte Externo
100
AcDbVertex
100
AcDb2dVertex
 10
-15.31521884182798
 20
-38.54777553808913
 30
0.0
  0
VERTEX
  5
300
330
2D5
100
AcDbEntity
  8
Corte Externo
100
AcDbVertex
100
AcDb2dVertex
 10
-15.62855217516132
 20
-38.48999776031136
 30
0.0
  0
VERTEX
  5
301
330
2D5
100
AcDbEntity
  8
Corte Externo
100
AcDbVertex
100
AcDb2dVertex
 10
-17.09335217516132
 20
-38.86715331586691
 30
0.0
 42
-0.3213848166341153
  0
VERTEX
  5
302
330
2D5
100
AcDbEntity
  8
Corte Externo
100
AcDbVertex
100
AcDb2dVertex
 10
-17.3670410640502
 20
-38.66777553808914
 30
0.0
  0
VERTEX
  5
303
330
2D5
100
AcDbEntity
  8
Corte Externo
100
AcDbVertex
100
AcDb2dVertex
 10
-17.6023299529391
 20
-38.68226442697802
 30
0.0
 42
-0.5655565310461015
  0
VERTEX
  5
304
330
2D5
100
AcDbEntity
  8
Corte Externo
100
AcDbVertex
100
AcDb2dVertex
 10
-17.97388550849465
 20
-38.60359776031136
 30
0.0
 42
-0.0917541080147229
  0
SEQEND
  5
305
330
2D5
100
AcDbEntity
  8
Corte Externo
  0
POLYLINE
  5
306
330
1F
100
AcDbEntity
  8
Marcacao
100
AcDb2dPolyline
 66
     1
 10
0.0
 20
0.0
 30
0.0
 70
     1
  0
VERTEX
  5
307
330
306
100
AcDbEntity
  8
Marcacao
100
AcDbVertex
100
AcDb2dVertex
 10
-11.18375217516132
 20
-37.74501998253358
 30
0.0
  0
VERTEX
  5
308
330
306
100
AcDbEntity
  8
Marcacao
100
AcDbVertex
100
AcDb2dVertex
 10
-11.50001884182799
 20
-37.86395331586692
 30
0.0
  0
VERTEX
  5
309
330
306
100
AcDbEntity
  8
Marcacao
100
AcDbVertex
100
AcDb2dVertex
 10
-11.53752995293909
 20
-37.96048664920025
 30
0.0
  0
VERTEX
  5
30A
330
306
100
AcDbEntity
  8
Marcacao
100
AcDbVertex
100
AcDb2dVertex
 10
-11.1518410640502
 20
-37.93168664920024
 30
0.0
  0
VERTEX
  5
30B
330
306
100
AcDbEntity
  8
Marcacao
100
AcDbVertex
100
AcDb2dVertex
 10
-11.14144106405021
 20
-37.73301998253358
 30
0.0
  0
SEQEND
  5
30C
330
306
100
AcDbEntity
  8
Marcacao
  0
POLYLINE
  5
30D
330
1F
100
AcDbEntity
  8
Marcacao
100
AcDb2dPolyline
 66
     1
 10
0.0
 20
0.0
 30
0.0
 70
     1
  0
VERTEX
  5
30E
330
30D
100
AcDbEntity
  8
Marcacao
100
AcDbVertex
100
AcDb2dVertex
 10
-11.14526328627243
 20
-38.58777553808913
 30
0.0
  0
VERTEX
  5
30F
330
30D
100
AcDbEntity
  8
Marcacao
100
AcDbVertex
100
AcDb2dVertex
 10
-11.14384106405021
 20
-38.41408664920024
 30
0.0
  0
VERTEX
  5
310
330
30D
100
AcDbEntity
  8
Marcacao
100
AcDbVertex
100
AcDb2dVertex
 10
-11.17930773071687
 20
-38.3560422047558
 30
0.0
  0
VERTEX
  5
311
330
30D
100
AcDbEntity
  8
Marcacao
100
AcDbVertex
100
AcDb2dVertex
 10
-11.55921884182798
 20
-38.29355331586692
 30
0.0
  0
VERTEX
  5
312
330
30D
100
AcDbEntity
  8
Marcacao
100
AcDbVertex
100
AcDb2dVertex
 10
-11.56624106405021
 20
-38.42866442697802
 30
0.0
  0
SEQEND
  5
313
330
30D
100
AcDbEntity
  8
Marcacao
  0
POLYLINE
  5
314
330
1F
100
AcDbEntity
  8
Marcacao
100
AcDb2dPolyline
 66
     1
 10
0.0
 20
0.0
 30
0.0
 70
     1
  0
VERTEX
  5
315
330
314
100
AcDbEntity
  8
Marcacao
100
AcDbVertex
100
AcDb2dVertex
 10
-11.74979661960576
 20
-37.65275331586692
 30
0.0
  0
VERTEX
  5
316
330
314
100
AcDbEntity
  8
Marcacao
100
AcDbVertex
100
AcDb2dVertex
 10
-12.00099661960576
 20
-37.69408664920024
 30
0.0
  0
VERTEX
  5
317
330
314
100
AcDbEntity
  8
Marcacao
100
AcDbVertex
100
AcDb2dVertex
 10
-12.89059661960576
 20
-37.79106442697802
 30
0.0
  0
VERTEX
  5
318
330
314
100
AcDbEntity
  8
Marcacao
100
AcDbVertex
100
AcDb2dVertex
 10
-13.21975217516132
 20
-37.81781998253358
 30
0.0
 42
0.730877421199755
  0
VERTEX
  5
319
330
314
100
AcDbEntity
  8
Marcacao
100
AcDbVertex
100
AcDb2dVertex
 10
-13.26606328627242
 20
-37.90270887142246
 30
0.0
  0
VERTEX
  5
31A
330
314
100
AcDbEntity
  8
Marcacao
100
AcDbVertex
100
AcDb2dVertex
 10
-11.78019661960576
 20
-37.85053109364469
 30
0.0
  0
SEQEND
  5
31B
330
314
100
AcDbEntity
  8
Marcacao
  0
POLYLINE
  5
31C
330
1F
100
AcDbEntity
  8
Marcacao
100
AcDb2dPolyline
 66
     1
 10
0.0
 20
0.0
 30
0.0
 70
     1
  0
VERTEX
  5
31D
330
31C
100
AcDbEntity
  8
Marcacao
100
AcDbVertex
100
AcDb2dVertex
 10
-13.1511299529391
 20
-36.81453109364469
 30
0.0
  0
VERTEX
  5
31E
330
31C
100
AcDbEntity
  8
Marcacao
100
AcDbVertex
100
AcDb2dVertex
 10
-13.03644317451027
 20
-36.72602443403098
 30
0.0
  0
VERTEX
  5
31F
330
31C
100
AcDbEntity
  8
Marcacao
100
AcDbVertex
100
AcDb2dVertex
 10
-12.92272322550854
 20
-36.63298615006831
 30
0.0
  0
VERTEX
  5
320
330
31C
100
AcDbEntity
  8
Marcacao
100
AcDbVertex
100
AcDb2dVertex
 10
-12.81035568536097
 20
-36.53561378407438
 30
0.0
  0
VERTEX
  5
321
330
31C
100
AcDbEntity
  8
Marcacao
100
AcDbVertex
100
AcDb2dVertex
 10
-12.69972613349465
 20
-36.43410487836692
 30
0.0
  0
VERTEX
  5
322
330
31C
100
AcDbEntity
  8
Marcacao
100
AcDbVertex
100
AcDb2dVertex
 10
-12.59122014933666
 20
-36.32865697526362
 30
0.0
  0
VERTEX
  5
323
330
31C
100
AcDbEntity
  8
Marcacao
100
AcDbVertex
100
AcDb2dVertex
 10
-12.4852233123141
 20
-36.2194676170822
 30
0.0
  0
VERTEX
  5
324
330
31C
100
AcDbEntity
  8
Marcacao
100
AcDbVertex
100
AcDb2dVertex
 10
-12.38212120185403
 20
-36.10673434614036
 30
0.0
  0
VERTEX
  5
325
330
31C
100
AcDbEntity
  8
Marcacao
100
AcDbVertex
100
AcDb2dVertex
 10
-12.28229939738354
 20
-35.9906547047558
 30
0.0
  0
VERTEX
  5
326
330
31C
100
AcDbEntity
  8
Marcacao
100
AcDbVertex
100
AcDb2dVertex
 10
-12.18614347832972
 20
-35.87142623524625
 30
0.0
  0
VERTEX
  5
327
330
31C
100
AcDbEntity
  8
Marcacao
100
AcDbVertex
100
AcDb2dVertex
 10
-12.09403902411965
 20
-35.74924647992942
 30
0.0
  0
VERTEX
  5
328
330
31C
100
AcDbEntity
  8
Marcacao
100
AcDbVertex
100
AcDb2dVertex
 10
-12.00637161418041
 20
-35.624312981123
 30
0.0
  0
VERTEX
  5
329
330
31C
100
AcDbEntity
  8
Marcacao
100
AcDbVertex
100
AcDb2dVertex
 10
-11.96432229438332
 20
-35.56087530988547
 30
0.0
  0
VERTEX
  5
32A
330
31C
100
AcDbEntity
  8
Marcacao
100
AcDbVertex
100
AcDb2dVertex
 10
-11.9235268279391
 20
-35.4968232811447
 30
0.0
  0
VERTEX
  5
32B
330
31C
100
AcDbEntity
  8
Marcacao
100
AcDbVertex
100
AcDb2dVertex
 10
-11.88403341227612
 20
-35.43218158769038
 30
0.0
  0
VERTEX
  5
32C
330
31C
100
AcDbEntity
  8
Marcacao
100
AcDbVertex
100
AcDb2dVertex
 10
-11.84589024482278
 20
-35.36697492231222
 30
0.0
  0
VERTEX
  5
32D
330
31C
100
AcDbEntity
  8
Marcacao
100
AcDbVertex
100
AcDb2dVertex
 10
-11.80914552300746
 20
-35.30122797779997
 30
0.0
  0
VERTEX
  5
32E
330
31C
100
AcDbEntity
  8
Marcacao
100
AcDbVertex
100
AcDb2dVertex
 10
-11.77384744425854
 20
-35.23496544694331
 30
0.0
  0
VERTEX
  5
32F
330
31C
100
AcDbEntity
  8
Marcacao
100
AcDbVertex
100
AcDb2dVertex
 10
-11.74004420600442
 20
-35.16821202253195
 30
0.0
  0
VERTEX
  5
330
330
31C
100
AcDbEntity
  8
Marcacao
100
AcDbVertex
100
AcDb2dVertex
 10
-11.70778400567347
 20
-35.10099239735563
 30
0.0
  0
VERTEX
  5
331
330
31C
100
AcDbEntity
  8
Marcacao
100
AcDbVertex
100
AcDb2dVertex
 10
-11.67711504069409
 20
-35.03333126420405
 30
0.0
  0
VERTEX
  5
332
330
31C
100
AcDbEntity
  8
Marcacao
100
AcDbVertex
100
AcDb2dVertex
 10
-11.64808550849465
 20
-34.96525331586692
 30
0.0
  0
VERTEX
  5
333
330
31C
100
AcDbEntity
  8
Marcacao
100
AcDbVertex
100
AcDb2dVertex
 10
-11.62074360650355
 20
-34.89678324513395
 30
0.0
  0
VERTEX
  5
334
330
31C
100
AcDbEntity
  8
Marcacao
100
AcDbVertex
100
AcDb2dVertex
 10
-11.59513753214916
 20
-34.82794574479487
 30
0.0
  0
VERTEX
  5
335
330
31C
100
AcDbEntity
  8
Marcacao
100
AcDbVertex
100
AcDb2dVertex
 10
-11.57131548285989
 20
-34.75876550763938
 30
0.0
  0
VERTEX
  5
336
330
31C
100
AcDbEntity
  8
Marcacao
100
AcDbVertex
100
AcDb2dVertex
 10
-11.5493256560641
 20
-34.6892672264572
 30
0.0
  0
VERTEX
  5
337
330
31C
100
AcDbEntity
  8
Marcacao
100
AcDbVertex
100
AcDb2dVertex
 10
-11.52921624919018
 20
-34.61947559403804
 30
0.0
  0
VERTEX
  5
338
330
31C
100
AcDbEntity
  8
Marcacao
100
AcDbVertex
100
AcDb2dVertex
 10
-11.51103545966652
 20
-34.54941530317161
 30
0.0
  0
VERTEX
  5
339
330
31C
100
AcDbEntity
  8
Marcacao
100
AcDbVertex
100
AcDb2dVertex
 10
-11.49483148492152
 20
-34.47911104664763
 30
0.0
  0
VERTEX
  5
33A
330
31C
100
AcDbEntity
  8
Marcacao
100
AcDbVertex
100
AcDb2dVertex
 10
-11.48065252238354
 20
-34.40858751725581
 30
0.0
  0
VERTEX
  5
33B
330
31C
100
AcDbEntity
  8
Marcacao
100
AcDbVertex
100
AcDb2dVertex
 10
-11.46854676948098
 20
-34.33786940778587
 30
0.0
  0
VERTEX
  5
33C
330
31C
100
AcDbEntity
  8
Marcacao
100
AcDbVertex
100
AcDb2dVertex
 10
-11.45856242364222
 20
-34.26698141102751
 30
0.0
  0
VERTEX
  5
33D
330
31C
100
AcDbEntity
  8
Marcacao
100
AcDbVertex
100
AcDb2dVertex
 10
-11.45074768229565
 20
-34.19594821977046
 30
0.0
  0
VERTEX
  5
33E
330
31C
100
AcDbEntity
  8
Marcacao
100
AcDbVertex
100
AcDb2dVertex
 10
-11.44515074286965
 20
-34.12479452680441
 30
0.0
  0
VERTEX
  5
33F
330
31C
100
AcDbEntity
  8
Marcacao
100
AcDbVertex
100
AcDb2dVertex
 10
-11.44181980279261
 20
-34.0535450249191
 30
0.0
  0
VERTEX
  5
340
330
31C
100
AcDbEntity
  8
Marcacao
100
AcDbVertex
100
AcDb2dVertex
 10
-11.44080305949291
 20
-33.98222440690424
 30
0.0
  0
VERTEX
  5
341
330
31C
100
AcDbEntity
  8
Marcacao
100
AcDbVertex
100
AcDb2dVertex
 10
-11.44214871039895
 20
-33.91085736554953
 30
0.0
  0
VERTEX
  5
342
330
31C
100
AcDbEntity
  8
Marcacao
100
AcDbVertex
100
AcDb2dVertex
 10
-11.4459049529391
 20
-33.83946859364469
 30
0.0
  0
VERTEX
  5
343
330
31C
100
AcDbEntity
  8
Marcacao
100
AcDbVertex
100
AcDb2dVertex
 10
-11.45211998454174
 20
-33.76808278397944
 30
0.0
  0
VERTEX
  5
344
330
31C
100
AcDbEntity
  8
Marcacao
100
AcDbVertex
100
AcDb2dVertex
 10
-11.45616460793788
 20
-33.73239870648344
 30
0.0
  0
VERTEX
  5
345
330
31C
100
AcDbEntity
  8
Marcacao
100
AcDbVertex
100
AcDb2dVertex
 10
-11.46084200263527
 20
-33.69672462934347
 30
0.0
  0
VERTEX
  5
346
330
31C
100
AcDbEntity
  8
Marcacao
100
AcDbVertex
100
AcDb2dVertex
 10
-11.46615819331249
 20
-33.66106363915826
 30
0.0
  0
VERTEX
  5
347
330
31C
100
AcDbEntity
  8
Marcacao
100
AcDbVertex
100
AcDb2dVertex
 10
-11.47211920464808
 20
-33.62541882252652
 30
0.0
  0
VERTEX
  5
348
330
31C
100
AcDbEntity
  8
Marcacao
100
AcDbVertex
100
AcDb2dVertex
 10
-11.47873106132058
 20
-33.58979326604697
 30
0.0
  0
VERTEX
  5
349
330
31C
100
AcDbEntity
  8
Marcacao
100
AcDbVertex
100
AcDb2dVertex
 10
-11.48599978800854
 20
-33.5541900563183
 30
0.0
  0
VERTEX
  5
34A
330
31C
100
AcDbEntity
  8
Marcacao
100
AcDbVertex
100
AcDb2dVertex
 10
-11.49393140939051
 20
-33.51861227993923
 30
0.0
  0
VERTEX
  5
34B
330
31C
100
AcDbEntity
  8
Marcacao
100
AcDbVertex
100
AcDb2dVertex
 10
-11.50253195014504
 20
-33.48306302350851
 30
0.0
  0
VERTEX
  5
34C
330
31C
100
AcDbEntity
  8
Marcacao
100
AcDbVertex
100
AcDb2dVertex
 10
-11.51180743495068
 20
-33.44754537362482
 30
0.0
  0
VERTEX
  5
34D
330
31C
100
AcDbEntity
  8
Marcacao
100
AcDbVertex
100
AcDb2dVertex
 10
-11.52176388848597
 20
-33.41206241688688
 30
0.0
  0
VERTEX
  5
34E
330
31C
100
AcDbEntity
  8
Marcacao
100
AcDbVertex
100
AcDb2dVertex
 10
-11.53240733542947
 20
-33.3766172398934
 30
0.0
  0
VERTEX
  5
34F
330
31C
100
AcDbEntity
  8
Marcacao
100
AcDbVertex
100
AcDb2dVertex
 10
-11.54374380045971
 20
-33.3412129292431
 30
0.0
  0
VERTEX
  5
350
330
31C
100
AcDbEntity
  8
Marcacao
100
AcDbVertex
100
AcDb2dVertex
 10
-11.55577930825526
 20
-33.3058525715347
 30
0.0
  0
VERTEX
  5
351
330
31C
100
AcDbEntity
  8
Marcacao
100
AcDbVertex
100
AcDb2dVertex
 10
-11.56851988349465
 20
-33.27053925336691
 30
0.0
  0
VERTEX
  5
352
330
31C
100
AcDbEntity
  8
Marcacao
100
AcDbVertex
100
AcDb2dVertex
 10
-11.58197155085644
 20
-33.23527606133843
 30
0.0
  0
VERTEX
  5
353
330
31C
100
AcDbEntity
  8
Marcacao
100
AcDbVertex
100
AcDb2dVertex
 10
-11.59614033501917
 20
-33.200066082048
 30
0.0
  0
VERTEX
  5
354
330
31C
100
AcDbEntity
  8
Marcacao
100
AcDbVertex
100
AcDb2dVertex
 10
-11.6110322606614
 20
-33.16491240209432
 30
0.0
  0
VERTEX
  5
355
330
31C
100
AcDbEntity
  8
Marcacao
100
AcDbVertex
100
AcDb2dVertex
 10
-11.62665335246166
 20
-33.12981810807611
 30
0.0
  0
VERTEX
  5
356
330
31C
100
AcDbEntity
  8
Marcacao
100
AcDbVertex
100
AcDb2dVertex
 10
-11.64300963509852
 20
-33.09478628659207
 30
0.0
  0
VERTEX
  5
357
330
31C
100
AcDbEntity
  8
Marcacao
100
AcDbVertex
100
AcDb2dVertex
 10
-11.66010713325051
 20
-33.05982002424093
 30
0.0
  0
VERTEX
  5
358
330
31C
100
AcDbEntity
  8
Marcacao
100
AcDbVertex
100
AcDb2dVertex
 10
-11.67795187159619
 20
-33.0249224076214
 30
0.0
  0
VERTEX
  5
359
330
31C
100
AcDbEntity
  8
Marcacao
100
AcDbVertex
100
AcDb2dVertex
 10
-11.6965498748141
 20
-32.99009652333218
 30
0.0
  0
VERTEX
  5
35A
330
31C
100
AcDbEntity
  8
Marcacao
100
AcDbVertex
100
AcDb2dVertex
 10
-11.71590716758279
 20
-32.95534545797202
 30
0.0
  0
VERTEX
  5
35B
330
31C
100
AcDbEntity
  8
Marcacao
100
AcDbVertex
100
AcDb2dVertex
 10
-11.73602977458081
 20
-32.92067229813959
 30
0.0
  0
VERTEX
  5
35C
330
31C
100
AcDbEntity
  8
Marcacao
100
AcDbVertex
100
AcDb2dVertex
 10
-11.77859502997903
 20
-32.85157204145284
 30
0.0
  0
VERTEX
  5
35D
330
31C
100
AcDbEntity
  8
Marcacao
100
AcDbVertex
100
AcDb2dVertex
 10
-11.82429383843714
 20
-32.78282044606168
 30
0.0
  0
VERTEX
  5
35E
330
31C
100
AcDbEntity
  8
Marcacao
100
AcDbVertex
100
AcDb2dVertex
 10
-11.87317439738354
 20
-32.7144422047558
 30
0.0
 42
0.0793508775459137
  0
VERTEX
  5
35F
330
31C
100
AcDbEntity
  8
Marcacao
100
AcDbVertex
100
AcDb2dVertex
 10
-12.90384106405021
 20
-31.7496422047558
 30
0.0
  0
VERTEX
  5
360
330
31C
100
AcDbEntity
  8
Marcacao
100
AcDbVertex
100
AcDb2dVertex
 10
-13.5615299529391
 20
-31.44585553808913
 30
0.0
  0
VERTEX
  5
361
330
31C
100
AcDbEntity
  8
Marcacao
100
AcDbVertex
100
AcDb2dVertex
 10
-13.94890773071688
 20
-31.33560664920025
 30
0.0
 42
0.1988294216832514
  0
VERTEX
  5
362
330
31C
100
AcDbEntity
  8
Marcacao
100
AcDbVertex
100
AcDb2dVertex
 10
-15.99717439738354
 20
-31.7495533158669
 30
0.0
 42
0.4207231135199588
  0
VERTEX
  5
363
330
31C
100
AcDbEntity
  8
Marcacao
100
AcDbVertex
100
AcDb2dVertex
 10
-17.04668550849465
 20
-35.43364220475581
 30
0.0
 42
0.0987221259596877
  0
VERTEX
  5
364
330
31C
100
AcDbEntity
  8
Marcacao
100
AcDbVertex
100
AcDb2dVertex
 10
-15.75006328627243
 20
-36.81453109364469
 30
0.0
  0
VERTEX
  5
365
330
31C
100
AcDbEntity
  8
Marcacao
100
AcDbVertex
100
AcDb2dVertex
 10
-15.15086328627243
 20
-37.17755331586692
 30
0.0
  0
VERTEX
  5
366
330
31C
100
AcDbEntity
  8
Marcacao
100
AcDbVertex
100
AcDb2dVertex
 10
-15.21761884182798
 20
-37.12733109364469
 30
0.0
  0
VERTEX
  5
367
330
31C
100
AcDbEntity
  8
Marcacao
100
AcDbVertex
100
AcDb2dVertex
 10
-15.74499661960576
 20
-36.76288664920025
 30
0.0
  0
VERTEX
  5
368
330
31C
100
AcDbEntity
  8
Marcacao
100
AcDbVertex
100
AcDb2dVertex
 10
-15.95966328627243
 20
-36.55088664920025
 30
0.0
  0
VERTEX
  5
369
330
31C
100
AcDbEntity
  8
Marcacao
100
AcDbVertex
100
AcDb2dVertex
 10
-16.60250773071687
 20
-35.88626442697802
 30
0.0
  0
VERTEX
  5
36A
330
31C
100
AcDbEntity
  8
Marcacao
100
AcDbVertex
100
AcDb2dVertex
 10
-16.91797439738354
 20
-35.36270887142247
 30
0.0
 42
-0.2916753749420183
  0
VERTEX
  5
36B
330
31C
100
AcDbEntity
  8
Marcacao
100
AcDbVertex
100
AcDb2dVertex
 10
-16.55219661960576
 20
-32.37746442697802
 30
0.0
 42
-0.1257801741435142
  0
VERTEX
  5
36C
330
31C
100
AcDbEntity
  8
Marcacao
100
AcDbVertex
100
AcDb2dVertex
 10
-15.64855217516132
 20
-31.69666442697803
 30
0.0
  0
VERTEX
  5
36D
330
31C
100
AcDbEntity
  8
Marcacao
100
AcDbVertex
100
AcDb2dVertex
 10
-15.17806328627243
 20
-31.50865553808914
 30
0.0
 42
-0.19878545069526
  0
VERTEX
  5
36E
330
31C
100
AcDbEntity
  8
Marcacao
100
AcDbVertex
100
AcDb2dVertex
 10
-13.53192995293909
 20
-31.58270887142247
 30
0.0
  0
VERTEX
  5
36F
330
31C
100
AcDbEntity
  8
Marcacao
100
AcDbVertex
100
AcDb2dVertex
 10
-13.2535299529391
 20
-31.69666442697802
 30
0.0
 42
-0.1260791850343277
  0
VERTEX
  5
370
330
31C
100
AcDbEntity
  8
Marcacao
100
AcDbVertex
100
AcDb2dVertex
 10
-12.34926328627242
 20
-32.37746442697802
 30
0.0
 42
-0.3506400935316577
  0
VERTEX
  5
371
330
31C
100
AcDbEntity
  8
Marcacao
100
AcDbVertex
100
AcDb2dVertex
 10
-12.36375217516132
 20
-35.96928664920025
 30
0.0
 42
-0.0708588912438684
  0
VERTEX
  5
372
330
31C
100
AcDbEntity
  8
Marcacao
100
AcDbVertex
100
AcDb2dVertex
 10
-13.68357439738354
 20
-37.12733109364469
 30
0.0
  0
VERTEX
  5
373
330
31C
100
AcDbEntity
  8
Marcacao
100
AcDbVertex
100
AcDb2dVertex
 10
-13.75032995293909
 20
-37.17755331586692
 30
0.0
  0
VERTEX
  5
374
330
31C
100
AcDbEntity
  8
Marcacao
100
AcDbVertex
100
AcDb2dVertex
 10
-13.52988550849465
 20
-37.07959776031136
 30
0.0
  0
SEQEND
  5
375
330
31C
100
AcDbEntity
  8
Marcacao
  0
POLYLINE
  5
376
330
1F
100
AcDbEntity
  8
Marcacao
100
AcDb2dPolyline
 66
     1
 10
0.0
 20
0.0
 30
0.0
 70
     1
  0
VERTEX
  5
377
330
376
100
AcDbEntity
  8
Marcacao
100
AcDbVertex
100
AcDb2dVertex
 10
-12.84961884182798
 20
-36.25159776031136
 30
0.0
  0
VERTEX
  5
378
330
376
100
AcDbEntity
  8
Marcacao
100
AcDbVertex
100
AcDb2dVertex
 10
-12.54517439738354
 20
-35.96839776031135
 30
0.0
  0
VERTEX
  5
379
330
376
100
AcDbEntity
  8
Marcacao
100
AcDbVertex
100
AcDb2dVertex
 10
-12.91584106405021
 20
-35.87150887142247
 30
0.0
  0
VERTEX
  5
37A
330
376
100
AcDbEntity
  8
Marcacao
100
AcDbVertex
100
AcDb2dVertex
 10
-12.94668550849465
 20
-35.91853109364469
 30
0.0
  0
VERTEX
  5
37B
330
376
100
AcDbEntity
  8
Marcacao
100
AcDbVertex
100
AcDb2dVertex
 10
-12.96481884182798
 20
-35.96030887142247
 30
0.0
 42
-0.40400807539401
  0
VERTEX
  5
37C
330
376
100
AcDbEntity
  8
Marcacao
100
AcDbVertex
100
AcDb2dVertex
 10
-12.78961884182798
 20
-36.04395331586691
 30
0.0
 42
-0.1643385590669054
  0
SEQEND
  5
37D
330
376
100
AcDbEntity
  8
Marcacao
  0
POLYLINE
  5
37E
330
1F
100
AcDbEntity
  8
Marcacao
100
AcDb2dPolyline
 66
     1
 10
0.0
 20
0.0
 30
0.0
 70
     1
  0
VERTEX
  5
37F
330
37E
100
AcDbEntity
  8
Marcacao
100
AcDbVertex
100
AcDb2dVertex
 10
-13.9575299529391
 20
-31.7584422047558
 30
0.0
 42
-1.904320108855519
  0
VERTEX
  5
380
330
37E
100
AcDbEntity
  8
Marcacao
100
AcDbVertex
100
AcDb2dVertex
 10
-14.18268550849465
 20
-31.56359776031136
 30
0.0
  0
VERTEX
  5
381
330
37E
100
AcDbEntity
  8
Marcacao
100
AcDbVertex
100
AcDb2dVertex
 10
-14.17584106405021
 20
-31.54279776031136
 30
0.0
  0
VERTEX
  5
382
330
37E
100
AcDbEntity
  8
Marcacao
100
AcDbVertex
100
AcDb2dVertex
 10
-14.31370773071687
 20
-31.52093109364469
 30
0.0
  0
VERTEX
  5
383
330
37E
100
AcDbEntity
  8
Marcacao
100
AcDbVertex
100
AcDb2dVertex
 10
-14.41770773071687
 20
-31.92253109364469
 30
0.0
  0
VERTEX
  5
384
330
37E
100
AcDbEntity
  8
Marcacao
100
AcDbVertex
100
AcDb2dVertex
 10
-13.8982410640502
 20
-31.98439776031136
 30
0.0
  0
VERTEX
  5
385
330
37E
100
AcDbEntity
  8
Marcacao
100
AcDbVertex
100
AcDb2dVertex
 10
-13.75761884182798
 20
-31.63657553808913
 30
0.0
  0
VERTEX
  5
386
330
37E
100
AcDbEntity
  8
Marcacao
100
AcDbVertex
100
AcDb2dVertex
 10
-14.04446328627243
 20
-31.56350887142247
 30
0.0
  0
VERTEX
  5
387
330
37E
100
AcDbEntity
  8
Marcacao
100
AcDbVertex
100
AcDb2dVertex
 10
-14.05317439738354
 20
-31.58181998253358
 30
0.0
 42
-0.3821222986925162
  0
SEQEND
  5
388
330
37E
100
AcDbEntity
  8
Marcacao
  0
POLYLINE
  5
389
330
1F
100
AcDbEntity
  8
Marcacao
100
AcDb2dPolyline
 66
     1
 10
0.0
 20
0.0
 30
0.0
 70
     1
  0
VERTEX
  5
38A
330
389
100
AcDbEntity
  8
Marcacao
100
AcDbVertex
100
AcDb2dVertex
 10
-14.12250773071687
 20
-31.64546442697802
 30
0.0
  0
VERTEX
  5
38B
330
389
100
AcDbEntity
  8
Marcacao
100
AcDbVertex
100
AcDb2dVertex
 10
-14.21201884182799
 20
-31.70955331586691
 30
0.0
  0
VERTEX
  5
38C
330
389
100
AcDbEntity
  8
Marcacao
100
AcDbVertex
100
AcDb2dVertex
 10
-14.11344106405021
 20
-31.81826442697803
 30
0.0
  0
VERTEX
  5
38D
330
389
100
AcDbEntity
  8
Marcacao
100
AcDbVertex
100
AcDb2dVertex
 10
-14.02979661960576
 20
-31.74768664920025
 30
0.0
  0
SEQEND
  5
38E
330
389
100
AcDbEntity
  8
Marcacao
  0
POLYLINE
  5
38F
330
1F
100
AcDbEntity
  8
Marcacao
100
AcDb2dPolyline
 66
     1
 10
0.0
 20
0.0
 30
0.0
 70
     1
  0
VERTEX
  5
390
330
38F
100
AcDbEntity
  8
Marcacao
100
AcDbVertex
100
AcDb2dVertex
 10
-14.71868550849465
 20
-31.56359776031136
 30
0.0
 42
-1.504157102208353
  0
VERTEX
  5
391
330
38F
100
AcDbEntity
  8
Marcacao
100
AcDbVertex
100
AcDb2dVertex
 10
-14.94366328627242
 20
-31.7584422047558
 30
0.0
 42
-0.3842731477160727
  0
VERTEX
  5
392
330
38F
100
AcDbEntity
  8
Marcacao
100
AcDbVertex
100
AcDb2dVertex
 10
-14.84810773071687
 20
-31.58181998253358
 30
0.0
  0
VERTEX
  5
393
330
38F
100
AcDbEntity
  8
Marcacao
100
AcDbVertex
100
AcDb2dVertex
 10
-14.85761884182798
 20
-31.56350887142247
 30
0.0
  0
VERTEX
  5
394
330
38F
100
AcDbEntity
  8
Marcacao
100
AcDbVertex
100
AcDb2dVertex
 10
-15.14348550849465
 20
-31.63657553808913
 30
0.0
  0
VERTEX
  5
395
330
38F
100
AcDbEntity
  8
Marcacao
100
AcDbVertex
100
AcDb2dVertex
 10
-15.00304106405021
 20
-31.98439776031136
 30
0.0
  0
VERTEX
  5
396
330
38F
100
AcDbEntity
  8
Marcacao
100
AcDbVertex
100
AcDb2dVertex
 10
-14.48437439738354
 20
-31.92253109364469
 30
0.0
  0
VERTEX
  5
397
330
38F
100
AcDbEntity
  8
Marcacao
100
AcDbVertex
100
AcDb2dVertex
 10
-14.58766328627243
 20
-31.52093109364469
 30
0.0
  0
VERTEX
  5
398
330
38F
100
AcDbEntity
  8
Marcacao
100
AcDbVertex
100
AcDb2dVertex
 10
-14.72535217516132
 20
-31.54279776031136
 30
0.0
  0
SEQEND
  5
399
330
38F
100
AcDbEntity
  8
Marcacao
  0
POLYLINE
  5
39A
330
1F
100
AcDbEntity
  8
Marcacao
100
AcDb2dPolyline
 66
     1
 10
0.0
 20
0.0
 30
0.0
 70
     1
  0
VERTEX
  5
39B
330
39A
100
AcDbEntity
  8
Marcacao
100
AcDbVertex
100
AcDb2dVertex
 10
-14.77868550849465
 20
-31.64546442697802
 30
0.0
  0
VERTEX
  5
39C
330
39A
100
AcDbEntity
  8
Marcacao
100
AcDbVertex
100
AcDb2dVertex
 10
-14.87157439738354
 20
-31.74768664920025
 30
0.0
  0
VERTEX
  5
39D
330
39A
100
AcDbEntity
  8
Marcacao
100
AcDbVertex
100
AcDb2dVertex
 10
-14.78837439738354
 20
-31.81826442697803
 30
0.0
  0
VERTEX
  5
39E
330
39A
100
AcDbEntity
  8
Marcacao
100
AcDbVertex
100
AcDb2dVertex
 10
-14.68917439738354
 20
-31.70955331586691
 30
0.0
  0
SEQEND
  5
39F
330
39A
100
AcDbEntity
  8
Marcacao
  0
POLYLINE
  5
3A0
330
1F
100
AcDbEntity
  8
Marcacao
100
AcDb2dPolyline
 66
     1
 10
0.0
 20
0.0
 30
0.0
 70
     1
  0
VERTEX
  5
3A1
330
3A0
100
AcDbEntity
  8
Marcacao
100
AcDbVertex
100
AcDb2dVertex
 10
-16.11166328627243
 20
-36.04395331586691
 30
0.0
 42
-0.4041730659218745
  0
VERTEX
  5
3A2
330
3A0
100
AcDbEntity
  8
Marcacao
100
AcDbVertex
100
AcDb2dVertex
 10
-15.93637439738354
 20
-35.96030887142246
 30
0.0
  0
VERTEX
  5
3A3
330
3A0
100
AcDbEntity
  8
Marcacao
100
AcDbVertex
100
AcDb2dVertex
 10
-15.95468550849465
 20
-35.91853109364469
 30
0.0
  0
VERTEX
  5
3A4
330
3A0
100
AcDbEntity
  8
Marcacao
100
AcDbVertex
100
AcDb2dVertex
 10
-15.98588550849465
 20
-35.87150887142247
 30
0.0
  0
VERTEX
  5
3A5
330
3A0
100
AcDbEntity
  8
Marcacao
100
AcDbVertex
100
AcDb2dVertex
 10
-16.35672995293909
 20
-35.96839776031135
 30
0.0
  0
VERTEX
  5
3A6
330
3A0
100
AcDbEntity
  8
Marcacao
100
AcDbVertex
100
AcDb2dVertex
 10
-16.05237439738354
 20
-36.25159776031136
 30
0.0
 42
-0.1617153648988632
  0
SEQEND
  5
3A7
330
3A0
100
AcDbEntity
  8
Marcacao
  0
POLYLINE
  5
3A8
330
1F
100
AcDbEntity
  8
Marcacao
100
AcDb2dPolyline
 66
     1
 10
0.0
 20
0.0
 30
0.0
 70
     1
  0
VERTEX
  5
3A9
330
3A8
100
AcDbEntity
  8
Marcacao
100
AcDbVertex
100
AcDb2dVertex
 10
-15.51637439738354
 20
-36.55790887142247
 30
0.0
  0
VERTEX
  5
3AA
330
3A8
100
AcDbEntity
  8
Marcacao
100
AcDbVertex
100
AcDb2dVertex
 10
-15.65850773071687
 20
-36.35879776031136
 30
0.0
  0
VERTEX
  5
3AB
330
3A8
100
AcDbEntity
  8
Marcacao
100
AcDbVertex
100
AcDb2dVertex
 10
-15.88401884182798
 20
-36.38990887142247
 30
0.0
  0
VERTEX
  5
3AC
330
3A8
100
AcDbEntity
  8
Marcacao
100
AcDbVertex
100
AcDb2dVertex
 10
-15.67610773071687
 20
-36.57995331586692
 30
0.0
  0
SEQEND
  5
3AD
330
3A8
100
AcDbEntity
  8
Marcacao
  0
POLYLINE
  5
3AE
330
1F
100
AcDbEntity
  8
Marcacao
100
AcDb2dPolyline
 66
     1
 10
0.0
 20
0.0
 30
0.0
 70
     1
  0
VERTEX
  5
3AF
330
3AE
100
AcDbEntity
  8
Marcacao
100
AcDbVertex
100
AcDb2dVertex
 10
-15.72979661960576
 20
-36.25470887142247
 30
0.0
  0
VERTEX
  5
3B0
330
3AE
100
AcDbEntity
  8
Marcacao
100
AcDbVertex
100
AcDb2dVertex
 10
-15.80215217516132
 20
-36.15266442697802
 30
0.0
  0
VERTEX
  5
3B1
330
3AE
100
AcDbEntity
  8
Marcacao
100
AcDbVertex
100
AcDb2dVertex
 10
-15.90597439738354
 20
-36.24217553808914
 30
0.0
  0
VERTEX
  5
3B2
330
3AE
100
AcDbEntity
  8
Marcacao
100
AcDbVertex
100
AcDb2dVertex
 10
-16.02961884182798
 20
-36.27213109364469
 30
0.0
  0
VERTEX
  5
3B3
330
3AE
100
AcDbEntity
  8
Marcacao
100
AcDbVertex
100
AcDb2dVertex
 10
-15.94037439738354
 20
-36.34697553808913
 30
0.0
  0
SEQEND
  5
3B4
330
3AE
100
AcDbEntity
  8
Marcacao
  0
POLYLINE
  5
3B5
330
1F
100
AcDbEntity
  8
Marcacao
100
AcDb2dPolyline
 66
     1
 10
0.0
 20
0.0
 30
0.0
 70
     1
  0
VERTEX
  5
3B6
330
3B5
100
AcDbEntity
  8
Marcacao
100
AcDbVertex
100
AcDb2dVertex
 10
-15.92721884182798
 20
-36.15568664920025
 30
0.0
  0
VERTEX
  5
3B7
330
3B5
100
AcDbEntity
  8
Marcacao
100
AcDbVertex
100
AcDb2dVertex
 10
-15.89024106405021
 20
-36.11995331586692
 30
0.0
  0
VERTEX
  5
3B8
330
3B5
100
AcDbEntity
  8
Marcacao
100
AcDbVertex
100
AcDb2dVertex
 10
-15.90748550849465
 20
-36.08030887142247
 30
0.0
  0
VERTEX
  5
3B9
330
3B5
100
AcDbEntity
  8
Marcacao
100
AcDbVertex
100
AcDb2dVertex
 10
-16.04152995293909
 20
-36.06128664920025
 30
0.0
 42
0.55117185037781
  0
SEQEND
  5
3BA
330
3B5
100
AcDbEntity
  8
Marcacao
  0
POLYLINE
  5
3BB
330
1F
100
AcDbEntity
  8
Marcacao
100
AcDb2dPolyline
 66
     1
 10
0.0
 20
0.0
 30
0.0
 70
     1
  0
VERTEX
  5
3BC
330
3BB
100
AcDbEntity
  8
Marcacao
100
AcDbVertex
100
AcDb2dVertex
 10
-15.13681884182798
 20
-32.27097553808913
 30
0.0
 42
0.1383179787510168
  0
VERTEX
  5
3BD
330
3BB
100
AcDbEntity
  8
Marcacao
100
AcDbVertex
100
AcDb2dVertex
 10
-15.74837439738354
 20
-32.60937553808914
 30
0.0
 42
0.0883584975936479
  0
VERTEX
  5
3BE
330
3BB
100
AcDbEntity
  8
Marcacao
100
AcDbVertex
100
AcDb2dVertex
 10
-16.25299661960576
 20
-33.31061998253358
 30
0.0
 42
0.1318306173849281
  0
VERTEX
  5
3BF
330
3BB
100
AcDbEntity
  8
Marcacao
100
AcDbVertex
100
AcDb2dVertex
 10
-16.48001884182798
 20
-34.26146442697802
 30
0.0
  0
VERTEX
  5
3C0
330
3BB
100
AcDbEntity
  8
Marcacao
100
AcDbVertex
100
AcDb2dVertex
 10
-16.38215217516132
 20
-34.79790887142247
 30
0.0
 42
0.0727034138002899
  0
VERTEX
  5
3C1
330
3BB
100
AcDbEntity
  8
Marcacao
100
AcDbVertex
100
AcDb2dVertex
 10
-15.77601884182798
 20
-35.96777553808914
 30
0.0
  0
VERTEX
  5
3C2
330
3BB
100
AcDbEntity
  8
Marcacao
100
AcDbVertex
100
AcDb2dVertex
 10
-15.15717439738354
 20
-36.80199776031136
 30
0.0
  0
VERTEX
  5
3C3
330
3BB
100
AcDbEntity
  8
Marcacao
100
AcDbVertex
100
AcDb2dVertex
 10
-15.00704106405021
 20
-36.94306442697803
 30
0.0
  0
VERTEX
  5
3C4
330
3BB
100
AcDbEntity
  8
Marcacao
100
AcDbVertex
100
AcDb2dVertex
 10
-14.76481884182799
 20
-37.10661998253358
 30
0.0
  0
VERTEX
  5
3C5
330
3BB
100
AcDbEntity
  8
Marcacao
100
AcDbVertex
100
AcDb2dVertex
 10
-14.53459661960576
 20
-37.16573109364469
 30
0.0
  0
VERTEX
  5
3C6
330
3BB
100
AcDbEntity
  8
Marcacao
100
AcDbVertex
100
AcDb2dVertex
 10
-14.55121884182798
 20
-37.13159776031136
 30
0.0
  0
VERTEX
  5
3C7
330
3BB
100
AcDbEntity
  8
Marcacao
100
AcDbVertex
100
AcDb2dVertex
 10
-14.86348550849465
 20
-36.79044220475581
 30
0.0
  0
VERTEX
  5
3C8
330
3BB
100
AcDbEntity
  8
Marcacao
100
AcDbVertex
100
AcDb2dVertex
 10
-15.4367299529391
 20
-36.15141998253358
 30
0.0
  0
VERTEX
  5
3C9
330
3BB
100
AcDbEntity
  8
Marcacao
100
AcDbVertex
100
AcDb2dVertex
 10
-15.79344106405021
 20
-35.65390887142247
 30
0.0
  0
VERTEX
  5
3CA
330
3BB
100
AcDbEntity
  8
Marcacao
100
AcDbVertex
100
AcDb2dVertex
 10
-16.11930773071687
 20
-35.00626442697803
 30
0.0
 42
-0.1234128928979141
  0
VERTEX
  5
3CB
330
3BB
100
AcDbEntity
  8
Marcacao
100
AcDbVertex
100
AcDb2dVertex
 10
-16.29139661960576
 20
-34.13737553808913
 30
0.0
  0
VERTEX
  5
3CC
330
3BB
100
AcDbEntity
  8
Marcacao
100
AcDbVertex
100
AcDb2dVertex
 10
-16.17210773071687
 20
-33.59613109364469
 30
0.0
  0
VERTEX
  5
3CD
330
3BB
100
AcDbEntity
  8
Marcacao
100
AcDbVertex
100
AcDb2dVertex
 10
-15.85850773071687
 20
-33.08226442697802
 30
0.0
 42
-0.1282816682556851
  0
VERTEX
  5
3CE
330
3BB
100
AcDbEntity
  8
Marcacao
100
AcDbVertex
100
AcDb2dVertex
 10
-15.29281884182798
 20
-32.6544422047558
 30
0.0
  0
VERTEX
  5
3CF
330
3BB
100
AcDbEntity
  8
Marcacao
100
AcDbVertex
100
AcDb2dVertex
 10
-14.83246328627243
 20
-32.46190887142247
 30
0.0
  0
VERTEX
  5
3D0
330
3BB
100
AcDbEntity
  8
Marcacao
100
AcDbVertex
100
AcDb2dVertex
 10
-14.45495217516132
 20
-32.37879776031136
 30
0.0
  0
VERTEX
  5
3D1
330
3BB
100
AcDbEntity
  8
Marcacao
100
AcDbVertex
100
AcDb2dVertex
 10
-14.45495217516132
 20
-32.37853109364469
 30
0.0
  0
VERTEX
  5
3D2
330
3BB
100
AcDbEntity
  8
Marcacao
100
AcDbVertex
100
AcDb2dVertex
 10
-14.45086328627243
 20
-32.37870887142247
 30
0.0
  0
VERTEX
  5
3D3
330
3BB
100
AcDbEntity
  8
Marcacao
100
AcDbVertex
100
AcDb2dVertex
 10
-14.44695217516132
 20
-32.37853109364469
 30
0.0
  0
VERTEX
  5
3D4
330
3BB
100
AcDbEntity
  8
Marcacao
100
AcDbVertex
100
AcDb2dVertex
 10
-14.44695217516132
 20
-32.37879776031136
 30
0.0
  0
VERTEX
  5
3D5
330
3BB
100
AcDbEntity
  8
Marcacao
100
AcDbVertex
100
AcDb2dVertex
 10
-14.06872995293909
 20
-32.46190887142247
 30
0.0
  0
VERTEX
  5
3D6
330
3BB
100
AcDbEntity
  8
Marcacao
100
AcDbVertex
100
AcDb2dVertex
 10
-13.60828550849465
 20
-32.6544422047558
 30
0.0
 42
-0.1283765599944466
  0
VERTEX
  5
3D7
330
3BB
100
AcDbEntity
  8
Marcacao
100
AcDbVertex
100
AcDb2dVertex
 10
-13.04286328627242
 20
-33.08226442697802
 30
0.0
  0
VERTEX
  5
3D8
330
3BB
100
AcDbEntity
  8
Marcacao
100
AcDbVertex
100
AcDb2dVertex
 10
-12.72979661960576
 20
-33.59613109364469
 30
0.0
  0
VERTEX
  5
3D9
330
3BB
100
AcDbEntity
  8
Marcacao
100
AcDbVertex
100
AcDb2dVertex
 10
-12.60997439738354
 20
-34.13737553808913
 30
0.0
 42
-0.1229722864378289
  0
VERTEX
  5
3DA
330
3BB
100
AcDbEntity
  8
Marcacao
100
AcDbVertex
100
AcDb2dVertex
 10
-12.78197439738354
 20
-35.00626442697803
 30
0.0
  0
VERTEX
  5
3DB
330
3BB
100
AcDbEntity
  8
Marcacao
100
AcDbVertex
100
AcDb2dVertex
 10
-13.10828550849465
 20
-35.65390887142247
 30
0.0
  0
VERTEX
  5
3DC
330
3BB
100
AcDbEntity
  8
Marcacao
100
AcDbVertex
100
AcDb2dVertex
 10
-13.46437439738354
 20
-36.15141998253358
 30
0.0
  0
VERTEX
  5
3DD
330
3BB
100
AcDbEntity
  8
Marcacao
100
AcDbVertex
100
AcDb2dVertex
 10
-14.03841884182798
 20
-36.79044220475581
 30
0.0
  0
VERTEX
  5
3DE
330
3BB
100
AcDbEntity
  8
Marcacao
100
AcDbVertex
100
AcDb2dVertex
 10
-14.35015217516132
 20
-37.13159776031136
 30
0.0
  0
VERTEX
  5
3DF
330
3BB
100
AcDbEntity
  8
Marcacao
100
AcDbVertex
100
AcDb2dVertex
 10
-14.36668550849465
 20
-37.16573109364469
 30
0.0
  0
VERTEX
  5
3E0
330
3BB
100
AcDbEntity
  8
Marcacao
100
AcDbVertex
100
AcDb2dVertex
 10
-14.13628550849465
 20
-37.10661998253358
 30
0.0
  0
VERTEX
  5
3E1
330
3BB
100
AcDbEntity
  8
Marcacao
100
AcDbVertex
100
AcDb2dVertex
 10
-13.89486328627243
 20
-36.94306442697803
 30
0.0
  0
VERTEX
  5
3E2
330
3BB
100
AcDbEntity
  8
Marcacao
100
AcDbVertex
100
AcDb2dVertex
 10
-13.74490773071687
 20
-36.80199776031136
 30
0.0
  0
VERTEX
  5
3E3
330
3BB
100
AcDbEntity
  8
Marcacao
100
AcDbVertex
100
AcDb2dVertex
 10
-13.12526328627243
 20
-35.96777553808914
 30
0.0
 42
0.0720274207715721
  0
VERTEX
  5
3E4
330
3BB
100
AcDbEntity
  8
Marcacao
100
AcDbVertex
100
AcDb2dVertex
 10
-12.51904106405021
 20
-34.79790887142247
 30
0.0
  0
VERTEX
  5
3E5
330
3BB
100
AcDbEntity
  8
Marcacao
100
AcDbVertex
100
AcDb2dVertex
 10
-12.42117439738354
 20
-34.26146442697802
 30
0.0
 42
0.1313607783547293
  0
VERTEX
  5
3E6
330
3BB
100
AcDbEntity
  8
Marcacao
100
AcDbVertex
100
AcDb2dVertex
 10
-12.64837439738355
 20
-33.31061998253358
 30
0.0
 42
0.087805292761477
  0
VERTEX
  5
3E7
330
3BB
100
AcDbEntity
  8
Marcacao
100
AcDbVertex
100
AcDb2dVertex
 10
-13.15281884182798
 20
-32.60937553808914
 30
0.0
 42
0.1383641553014752
  0
VERTEX
  5
3E8
330
3BB
100
AcDbEntity
  8
Marcacao
100
AcDbVertex
100
AcDb2dVertex
 10
-13.76437439738354
 20
-32.27097553808913
 30
0.0
  0
VERTEX
  5
3E9
330
3BB
100
AcDbEntity
  8
Marcacao
100
AcDbVertex
100
AcDb2dVertex
 10
-14.45086328627243
 20
-32.14448664920025
 30
0.0
  0
SEQEND
  5
3EA
330
3BB
100
AcDbEntity
  8
Marcacao
  0
POLYLINE
  5
3EC
330
1F
100
AcDbEntity
  8
Corte Interno
100
AcDb2dPolyline
 66
     1
 10
0.0
 20
0.0
 30
0.0
 70
     1
  0
VERTEX
  5
3ED
330
3EC
100
AcDbEntity
  8
Corte Interno
100
AcDbVertex
100
AcDb2dVertex
 10
-14.45086328627243
 20
-36.75968664920025
 30
0.0
  0
VERTEX
  5
3EE
330
3EC
100
AcDbEntity
  8
Corte Interno
100
AcDbVertex
100
AcDb2dVertex
 10
-13.76961884182798
 20
-36.11950887142247
 30
0.0
 42
0.0939288332967687
  0
VERTEX
  5
3EF
330
3EC
100
AcDbEntity
  8
Corte Interno
100
AcDbVertex
100
AcDb2dVertex
 10
-12.95939661960576
 20
-34.79364220475581
 30
0.0
 42
0.2404691931948669
  0
VERTEX
  5
3F0
330
3EC
100
AcDbEntity
  8
Corte Interno
100
AcDbVertex
100
AcDb2dVertex
 10
-13.24917439738354
 20
-33.20484220475581
 30
0.0
 42
0.2211706490219717
  0
VERTEX
  5
3F1
330
3EC
100
AcDbEntity
  8
Corte Interno
100
AcDbVertex
100
AcDb2dVertex
 10
-14.45086328627243
 20
-32.60813109364469
 30
0.0
 42
0.2210693016467105
  0
VERTEX
  5
3F2
330
3EC
100
AcDbEntity
  8
Corte Interno
100
AcDbVertex
100
AcDb2dVertex
 10
-15.65219661960576
 20
-33.20484220475581
 30
0.0
 42
0.240456794939496
  0
VERTEX
  5
3F3
330
3EC
100
AcDbEntity
  8
Corte Interno
100
AcDbVertex
100
AcDb2dVertex
 10
-15.94241884182798
 20
-34.79364220475581
 30
0.0
 42
0.0939820823416792
  0
VERTEX
  5
3F4
330
3EC
100
AcDbEntity
  8
Corte Interno
100
AcDbVertex
100
AcDb2dVertex
 10
-15.13157439738354
 20
-36.11950887142247
 30
0.0
  0
SEQEND
  5
3F5
330
3EC
100
AcDbEntity
  8
Corte Interno
  0
POLYLINE
  5
3F6
330
1F
100
AcDbEntity
  8
Marcacao
100
AcDb2dPolyline
 66
     1
 10
0.0
 20
0.0
 30
0.0
 70
     1
  0
VERTEX
  5
3F7
330
3F6
100
AcDbEntity
  8
Marcacao
100
AcDbVertex
100
AcDb2dVertex
 10
-12.9943299529391
 20
-36.08030887142247
 30
0.0
  0
VERTEX
  5
3F8
330
3F6
100
AcDbEntity
  8
Marcacao
100
AcDbVertex
100
AcDb2dVertex
 10
-13.01086328627243
 20
-36.11995331586692
 30
0.0
  0
VERTEX
  5
3F9
330
3F6
100
AcDbEntity
  8
Marcacao
100
AcDbVertex
100
AcDb2dVertex
 10
-12.97388550849465
 20
-36.15568664920025
 30
0.0
 42
0.5477892647729271
  0
VERTEX
  5
3FA
330
3F6
100
AcDbEntity
  8
Marcacao
100
AcDbVertex
100
AcDb2dVertex
 10
-12.85966328627243
 20
-36.06128664920025
 30
0.0
  0
SEQEND
  5
3FB
330
3F6
100
AcDbEntity
  8
Marcacao
  0
POLYLINE
  5
3FC
330
1F
100
AcDbEntity
  8
Marcacao
100
AcDb2dPolyline
 66
     1
 10
0.0
 20
0.0
 30
0.0
 70
     1
  0
VERTEX
  5
3FD
330
3FC
100
AcDbEntity
  8
Marcacao
100
AcDbVertex
100
AcDb2dVertex
 10
-12.99584106405021
 20
-36.24217553808914
 30
0.0
  0
VERTEX
  5
3FE
330
3FC
100
AcDbEntity
  8
Marcacao
100
AcDbVertex
100
AcDb2dVertex
 10
-13.0991299529391
 20
-36.15266442697802
 30
0.0
  0
VERTEX
  5
3FF
330
3FC
100
AcDbEntity
  8
Marcacao
100
AcDbVertex
100
AcDb2dVertex
 10
-13.17157439738354
 20
-36.25470887142247
 30
0.0
  0
VERTEX
  5
400
330
3FC
100
AcDbEntity
  8
Marcacao
100
AcDbVertex
100
AcDb2dVertex
 10
-12.96161884182798
 20
-36.34697553808913
 30
0.0
  0
VERTEX
  5
401
330
3FC
100
AcDbEntity
  8
Marcacao
100
AcDbVertex
100
AcDb2dVertex
 10
-12.87184106405021
 20
-36.27213109364469
 30
0.0
  0
SEQEND
  5
402
330
3FC
100
AcDbEntity
  8
Marcacao
  0
POLYLINE
  5
403
330
1F
100
AcDbEntity
  8
Marcacao
100
AcDb2dPolyline
 66
     1
 10
0.0
 20
0.0
 30
0.0
 70
     1
  0
VERTEX
  5
404
330
403
100
AcDbEntity
  8
Marcacao
100
AcDbVertex
100
AcDb2dVertex
 10
-13.24268550849465
 20
-36.35879776031136
 30
0.0
  0
VERTEX
  5
405
330
403
100
AcDbEntity
  8
Marcacao
100
AcDbVertex
100
AcDb2dVertex
 10
-13.38481884182799
 20
-36.55790887142247
 30
0.0
  0
VERTEX
  5
406
330
403
100
AcDbEntity
  8
Marcacao
100
AcDbVertex
100
AcDb2dVertex
 10
-13.22526328627243
 20
-36.57995331586692
 30
0.0
  0
VERTEX
  5
407
330
403
100
AcDbEntity
  8
Marcacao
100
AcDbVertex
100
AcDb2dVertex
 10
-13.01726328627243
 20
-36.38990887142247
 30
0.0
  0
SEQEND
  5
408
330
403
100
AcDbEntity
  8
Marcacao
  0
POLYLINE
  5
409
330
1F
100
AcDbEntity
  8
Marcacao
100
AcDb2dPolyline
 66
     1
 10
0.0
 20
0.0
 30
0.0
 70
     1
  0
VERTEX
  5
40A
330
409
100
AcDbEntity
  8
Marcacao
100
AcDbVertex
100
AcDb2dVertex
 10
-14.06517439738354
 20
-37.39728664920025
 30
0.0
  0
VERTEX
  5
40B
330
409
100
AcDbEntity
  8
Marcacao
100
AcDbVertex
100
AcDb2dVertex
 10
-14.44695217516132
 20
-37.37310887142247
 30
0.0
  0
VERTEX
  5
40C
330
409
100
AcDbEntity
  8
Marcacao
100
AcDbVertex
100
AcDb2dVertex
 10
-14.44695217516132
 20
-37.37337553808914
 30
0.0
  0
VERTEX
  5
40D
330
409
100
AcDbEntity
  8
Marcacao
100
AcDbVertex
100
AcDb2dVertex
 10
-14.45086328627243
 20
-37.37319776031136
 30
0.0
  0
VERTEX
  5
40E
330
409
100
AcDbEntity
  8
Marcacao
100
AcDbVertex
100
AcDb2dVertex
 10
-14.45495217516132
 20
-37.37337553808914
 30
0.0
  0
VERTEX
  5
40F
330
409
100
AcDbEntity
  8
Marcacao
100
AcDbVertex
100
AcDb2dVertex
 10
-14.45495217516132
 20
-37.37310887142247
 30
0.0
  0
VERTEX
  5
410
330
409
100
AcDbEntity
  8
Marcacao
100
AcDbVertex
100
AcDb2dVertex
 10
-14.83619661960576
 20
-37.39728664920025
 30
0.0
  0
VERTEX
  5
411
330
409
100
AcDbEntity
  8
Marcacao
100
AcDbVertex
100
AcDb2dVertex
 10
-15.15317439738354
 20
-37.43613109364469
 30
0.0
  0
VERTEX
  5
412
330
409
100
AcDbEntity
  8
Marcacao
100
AcDbVertex
100
AcDb2dVertex
 10
-15.36615217516132
 20
-37.4480422047558
 30
0.0
  0
VERTEX
  5
413
330
409
100
AcDbEntity
  8
Marcacao
100
AcDbVertex
100
AcDb2dVertex
 10
-15.38019661960576
 20
-37.56030887142247
 30
0.0
  0
VERTEX
  5
414
330
409
100
AcDbEntity
  8
Marcacao
100
AcDbVertex
100
AcDb2dVertex
 10
-15.04090773071687
 20
-37.51328664920025
 30
0.0
  0
VERTEX
  5
415
330
409
100
AcDbEntity
  8
Marcacao
100
AcDbVertex
100
AcDb2dVertex
 10
-14.45086328627243
 20
-37.49906442697802
 30
0.0
  0
VERTEX
  5
416
330
409
100
AcDbEntity
  8
Marcacao
100
AcDbVertex
100
AcDb2dVertex
 10
-13.86037439738354
 20
-37.51328664920025
 30
0.0
  0
VERTEX
  5
417
330
409
100
AcDbEntity
  8
Marcacao
100
AcDbVertex
100
AcDb2dVertex
 10
-13.52188550849465
 20
-37.56030887142247
 30
0.0
  0
VERTEX
  5
418
330
409
100
AcDbEntity
  8
Marcacao
100
AcDbVertex
100
AcDb2dVertex
 10
-13.53512995293909
 20
-37.4480422047558
 30
0.0
  0
VERTEX
  5
419
330
409
100
AcDbEntity
  8
Marcacao
100
AcDbVertex
100
AcDb2dVertex
 10
-13.74810773071687
 20
-37.43613109364469
 30
0.0
  0
SEQEND
  5
41A
330
409
100
AcDbEntity
  8
Marcacao
  0
POLYLINE
  5
41B
330
1F
100
AcDbEntity
  8
Marcacao
100
AcDb2dPolyline
 66
     1
 10
0.0
 20
0.0
 30
0.0
 70
     1
  0
VERTEX
  5
41C
330
41B
100
AcDbEntity
  8
Marcacao
100
AcDbVertex
100
AcDb2dVertex
 10
-14.00544106405021
 20
-37.61684220475581
 30
0.0
  0
VERTEX
  5
41D
330
41B
100
AcDbEntity
  8
Marcacao
100
AcDbVertex
100
AcDb2dVertex
 10
-14.44695217516132
 20
-37.61230887142247
 30
0.0
  0
VERTEX
  5
41E
330
41B
100
AcDbEntity
  8
Marcacao
100
AcDbVertex
100
AcDb2dVertex
 10
-14.44695217516132
 20
-37.61239776031136
 30
0.0
  0
VERTEX
  5
41F
330
41B
100
AcDbEntity
  8
Marcacao
100
AcDbVertex
100
AcDb2dVertex
 10
-14.45495217516132
 20
-37.61239776031136
 30
0.0
  0
VERTEX
  5
420
330
41B
100
AcDbEntity
  8
Marcacao
100
AcDbVertex
100
AcDb2dVertex
 10
-14.45495217516132
 20
-37.61230887142247
 30
0.0
  0
VERTEX
  5
421
330
41B
100
AcDbEntity
  8
Marcacao
100
AcDbVertex
100
AcDb2dVertex
 10
-14.89655217516131
 20
-37.61684220475581
 30
0.0
  0
VERTEX
  5
422
330
41B
100
AcDbEntity
  8
Marcacao
100
AcDbVertex
100
AcDb2dVertex
 10
-15.38384106405021
 20
-37.69088664920024
 30
0.0
  0
VERTEX
  5
423
330
41B
100
AcDbEntity
  8
Marcacao
100
AcDbVertex
100
AcDb2dVertex
 10
-15.37806328627243
 20
-37.79701998253358
 30
0.0
  0
VERTEX
  5
424
330
41B
100
AcDbEntity
  8
Marcacao
100
AcDbVertex
100
AcDb2dVertex
 10
-15.16766328627243
 20
-37.76297553808914
 30
0.0
  0
VERTEX
  5
425
330
41B
100
AcDbEntity
  8
Marcacao
100
AcDbVertex
100
AcDb2dVertex
 10
-14.45086328627243
 20
-37.74688664920025
 30
0.0
  0
VERTEX
  5
426
330
41B
100
AcDbEntity
  8
Marcacao
100
AcDbVertex
100
AcDb2dVertex
 10
-13.73344106405021
 20
-37.76297553808914
 30
0.0
  0
VERTEX
  5
427
330
41B
100
AcDbEntity
  8
Marcacao
100
AcDbVertex
100
AcDb2dVertex
 10
-13.52348550849465
 20
-37.79701998253358
 30
0.0
  0
VERTEX
  5
428
330
41B
100
AcDbEntity
  8
Marcacao
100
AcDbVertex
100
AcDb2dVertex
 10
-13.51788550849465
 20
-37.69088664920024
 30
0.0
  0
SEQEND
  5
429
330
41B
100
AcDbEntity
  8
Marcacao
  0
POLYLINE
  5
42A
330
1F
100
AcDbEntity
  8
Marcacao
100
AcDb2dPolyline
 66
     1
 10
0.0
 20
0.0
 30
0.0
 70
     1
  0
VERTEX
  5
42B
330
42A
100
AcDbEntity
  8
Marcacao
100
AcDbVertex
100
AcDb2dVertex
 10
-14.16499661960576
 20
-44.70137553808914
 30
0.0
  0
VERTEX
  5
42C
330
42A
100
AcDbEntity
  8
Marcacao
100
AcDbVertex
100
AcDb2dVertex
 10
-14.15655217516132
 20
-44.99337553808913
 30
0.0
  0
VERTEX
  5
42D
330
42A
100
AcDbEntity
  8
Marcacao
100
AcDbVertex
100
AcDb2dVertex
 10
-13.97335217516132
 20
-44.99026442697802
 30
0.0
  0
VERTEX
  5
42E
330
42A
100
AcDbEntity
  8
Marcacao
100
AcDbVertex
100
AcDb2dVertex
 10
-13.96348550849465
 20
-44.79497553808913
 30
0.0
  0
VERTEX
  5
42F
330
42A
100
AcDbEntity
  8
Marcacao
100
AcDbVertex
100
AcDb2dVertex
 10
-13.95121884182798
 20
-44.24768664920025
 30
0.0
  0
VERTEX
  5
430
330
42A
100
AcDbEntity
  8
Marcacao
100
AcDbVertex
100
AcDb2dVertex
 10
-13.94819661960576
 20
-43.35186442697803
 30
0.0
  0
VERTEX
  5
431
330
42A
100
AcDbEntity
  8
Marcacao
100
AcDbVertex
100
AcDb2dVertex
 10
-13.94375217516131
 20
-42.66475331586691
 30
0.0
  0
VERTEX
  5
432
330
42A
100
AcDbEntity
  8
Marcacao
100
AcDbVertex
100
AcDb2dVertex
 10
-13.92348550849465
 20
-41.87266442697803
 30
0.0
  0
VERTEX
  5
433
330
42A
100
AcDbEntity
  8
Marcacao
100
AcDbVertex
100
AcDb2dVertex
 10
-13.91868550849465
 20
-41.68413109364469
 30
0.0
  0
VERTEX
  5
434
330
42A
100
AcDbEntity
  8
Marcacao
100
AcDbVertex
100
AcDb2dVertex
 10
-13.94277439738354
 20
-40.37417553808913
 30
0.0
  0
VERTEX
  5
435
330
42A
100
AcDbEntity
  8
Marcacao
100
AcDbVertex
100
AcDb2dVertex
 10
-13.95237439738354
 20
-39.66697553808913
 30
0.0
  0
VERTEX
  5
436
330
42A
100
AcDbEntity
  8
Marcacao
100
AcDbVertex
100
AcDb2dVertex
 10
-13.95841884182798
 20
-39.05381998253358
 30
0.0
  0
VERTEX
  5
437
330
42A
100
AcDbEntity
  8
Marcacao
100
AcDbVertex
100
AcDb2dVertex
 10
-13.95966328627243
 20
-38.60777553808914
 30
0.0
  0
VERTEX
  5
438
330
42A
100
AcDbEntity
  8
Marcacao
100
AcDbVertex
100
AcDb2dVertex
 10
-14.11477439738354
 20
-38.59959776031135
 30
0.0
  0
VERTEX
  5
439
330
42A
100
AcDbEntity
  8
Marcacao
100
AcDbVertex
100
AcDb2dVertex
 10
-14.1295299529391
 20
-39.05399776031136
 30
0.0
  0
VERTEX
  5
43A
330
42A
100
AcDbEntity
  8
Marcacao
100
AcDbVertex
100
AcDb2dVertex
 10
-14.15397439738354
 20
-39.97639776031136
 30
0.0
  0
VERTEX
  5
43B
330
42A
100
AcDbEntity
  8
Marcacao
100
AcDbVertex
100
AcDb2dVertex
 10
-14.14961884182799
 20
-40.84297553808914
 30
0.0
  0
VERTEX
  5
43C
330
42A
100
AcDbEntity
  8
Marcacao
100
AcDbVertex
100
AcDb2dVertex
 10
-14.14179661960576
 20
-41.5768422047558
 30
0.0
  0
VERTEX
  5
43D
330
42A
100
AcDbEntity
  8
Marcacao
100
AcDbVertex
100
AcDb2dVertex
 10
-14.12046328627243
 20
-42.51773109364469
 30
0.0
  0
VERTEX
  5
43E
330
42A
100
AcDbEntity
  8
Marcacao
100
AcDbVertex
100
AcDb2dVertex
 10
-14.13192995293909
 20
-43.45950887142247
 30
0.0
  0
VERTEX
  5
43F
330
42A
100
AcDbEntity
  8
Marcacao
100
AcDbVertex
100
AcDb2dVertex
 10
-14.16419661960576
 20
-43.92928664920024
 30
0.0
  0
SEQEND
  5
440
330
42A
100
AcDbEntity
  8
Marcacao
  0
POLYLINE
  5
441
330
1F
100
AcDbEntity
  8
Marcacao
100
AcDb2dPolyline
 66
     1
 10
0.0
 20
0.0
 30
0.0
 70
     1
  0
VERTEX
  5
442
330
441
100
AcDbEntity
  8
Marcacao
100
AcDbVertex
100
AcDb2dVertex
 10
-14.45086328627243
 20
-44.12910887142247
 30
0.0
  0
VERTEX
  5
443
330
441
100
AcDbEntity
  8
Marcacao
100
AcDbVertex
100
AcDb2dVertex
 10
-14.45495217516132
 20
-44.12928664920025
 30
0.0
  0
VERTEX
  5
444
330
441
100
AcDbEntity
  8
Marcacao
100
AcDbVertex
100
AcDb2dVertex
 10
-14.45495217516132
 20
-44.12875331586692
 30
0.0
  0
VERTEX
  5
445
330
441
100
AcDbEntity
  8
Marcacao
100
AcDbVertex
100
AcDb2dVertex
 10
-14.58819661960576
 20
-44.12013109364469
 30
0.0
  0
VERTEX
  5
446
330
441
100
AcDbEntity
  8
Marcacao
100
AcDbVertex
100
AcDb2dVertex
 10
-14.58277439738354
 20
-44.22048664920025
 30
0.0
  0
VERTEX
  5
447
330
441
100
AcDbEntity
  8
Marcacao
100
AcDbVertex
100
AcDb2dVertex
 10
-14.45495217516132
 20
-44.21319776031136
 30
0.0
  0
VERTEX
  5
448
330
441
100
AcDbEntity
  8
Marcacao
100
AcDbVertex
100
AcDb2dVertex
 10
-14.45495217516132
 20
-44.21266442697802
 30
0.0
  0
VERTEX
  5
449
330
441
100
AcDbEntity
  8
Marcacao
100
AcDbVertex
100
AcDb2dVertex
 10
-14.45086328627243
 20
-44.21301998253358
 30
0.0
  0
VERTEX
  5
44A
330
441
100
AcDbEntity
  8
Marcacao
100
AcDbVertex
100
AcDb2dVertex
 10
-14.44695217516132
 20
-44.21266442697802
 30
0.0
  0
VERTEX
  5
44B
330
441
100
AcDbEntity
  8
Marcacao
100
AcDbVertex
100
AcDb2dVertex
 10
-14.44695217516132
 20
-44.21319776031136
 30
0.0
  0
VERTEX
  5
44C
330
441
100
AcDbEntity
  8
Marcacao
100
AcDbVertex
100
AcDb2dVertex
 10
-14.31850773071687
 20
-44.22048664920025
 30
0.0
  0
VERTEX
  5
44D
330
441
100
AcDbEntity
  8
Marcacao
100
AcDbVertex
100
AcDb2dVertex
 10
-14.31317439738354
 20
-44.12013109364469
 30
0.0
  0
VERTEX
  5
44E
330
441
100
AcDbEntity
  8
Marcacao
100
AcDbVertex
100
AcDb2dVertex
 10
-14.44695217516132
 20
-44.12875331586692
 30
0.0
  0
VERTEX
  5
44F
330
441
100
AcDbEntity
  8
Marcacao
100
AcDbVertex
100
AcDb2dVertex
 10
-14.44695217516132
 20
-44.12928664920025
 30
0.0
  0
SEQEND
  5
450
330
441
100
AcDbEntity
  8
Marcacao
  0
POLYLINE
  5
451
330
1F
100
AcDbEntity
  8
Marcacao
100
AcDb2dPolyline
 66
     1
 10
0.0
 20
0.0
 30
0.0
 70
     1
  0
VERTEX
  5
452
330
451
100
AcDbEntity
  8
Marcacao
100
AcDbVertex
100
AcDb2dVertex
 10
-14.31015217516132
 20
-44.58315331586692
 30
0.0
  0
VERTEX
  5
453
330
451
100
AcDbEntity
  8
Marcacao
100
AcDbVertex
100
AcDb2dVertex
 10
-14.44695217516132
 20
-44.58430887142246
 30
0.0
  0
VERTEX
  5
454
330
451
100
AcDbEntity
  8
Marcacao
100
AcDbVertex
100
AcDb2dVertex
 10
-14.45495217516132
 20
-44.58430887142246
 30
0.0
  0
VERTEX
  5
455
330
451
100
AcDbEntity
  8
Marcacao
100
AcDbVertex
100
AcDb2dVertex
 10
-14.59104106405021
 20
-44.58315331586692
 30
0.0
  0
VERTEX
  5
456
330
451
100
AcDbEntity
  8
Marcacao
100
AcDbVertex
100
AcDb2dVertex
 10
-14.6014410640502
 20
-44.67790887142247
 30
0.0
  0
VERTEX
  5
457
330
451
100
AcDbEntity
  8
Marcacao
100
AcDbVertex
100
AcDb2dVertex
 10
-14.45086328627243
 20
-44.67879776031136
 30
0.0
  0
VERTEX
  5
458
330
451
100
AcDbEntity
  8
Marcacao
100
AcDbVertex
100
AcDb2dVertex
 10
-14.30037439738354
 20
-44.67790887142247
 30
0.0
  0
SEQEND
  5
459
330
451
100
AcDbEntity
  8
Marcacao
  0
POLYLINE
  5
45A
330
1F
100
AcDbEntity
  8
Marcacao
100
AcDb2dPolyline
 66
     1
 10
0.0
 20
0.0
 30
0.0
 70
     1
  0
VERTEX
  5
45B
330
45A
100
AcDbEntity
  8
Marcacao
100
AcDbVertex
100
AcDb2dVertex
 10
-14.64561884182798
 20
-42.87586442697803
 30
0.0
  0
VERTEX
  5
45C
330
45A
100
AcDbEntity
  8
Marcacao
100
AcDbVertex
100
AcDb2dVertex
 10
-14.45086328627243
 20
-42.88466442697803
 30
0.0
  0
VERTEX
  5
45D
330
45A
100
AcDbEntity
  8
Marcacao
100
AcDbVertex
100
AcDb2dVertex
 10
-14.25566328627243
 20
-42.87586442697803
 30
0.0
  0
VERTEX
  5
45E
330
45A
100
AcDbEntity
  8
Marcacao
100
AcDbVertex
100
AcDb2dVertex
 10
-14.24206328627243
 20
-42.82306442697802
 30
0.0
  0
VERTEX
  5
45F
330
45A
100
AcDbEntity
  8
Marcacao
100
AcDbVertex
100
AcDb2dVertex
 10
-14.44695217516132
 20
-42.84768664920025
 30
0.0
  0
VERTEX
  5
460
330
45A
100
AcDbEntity
  8
Marcacao
100
AcDbVertex
100
AcDb2dVertex
 10
-14.44695217516132
 20
-42.84857553808914
 30
0.0
  0
VERTEX
  5
461
330
45A
100
AcDbEntity
  8
Marcacao
100
AcDbVertex
100
AcDb2dVertex
 10
-14.45086328627243
 20
-42.8480422047558
 30
0.0
  0
VERTEX
  5
462
330
45A
100
AcDbEntity
  8
Marcacao
100
AcDbVertex
100
AcDb2dVertex
 10
-14.45495217516132
 20
-42.84857553808914
 30
0.0
  0
VERTEX
  5
463
330
45A
100
AcDbEntity
  8
Marcacao
100
AcDbVertex
100
AcDb2dVertex
 10
-14.45495217516132
 20
-42.84768664920025
 30
0.0
  0
VERTEX
  5
464
330
45A
100
AcDbEntity
  8
Marcacao
100
AcDbVertex
100
AcDb2dVertex
 10
-14.65904106405021
 20
-42.82306442697802
 30
0.0
  0
SEQEND
  5
465
330
45A
100
AcDbEntity
  8
Marcacao
  0
POLYLINE
  5
466
330
1F
100
AcDbEntity
  8
Marcacao
100
AcDb2dPolyline
 66
     1
 10
0.0
 20
0.0
 30
0.0
 70
     1
  0
VERTEX
  5
467
330
466
100
AcDbEntity
  8
Marcacao
100
AcDbVertex
100
AcDb2dVertex
 10
-14.45352995293909
 20
-41.27657553808913
 30
0.0
  0
VERTEX
  5
468
330
466
100
AcDbEntity
  8
Marcacao
100
AcDbVertex
100
AcDb2dVertex
 10
-14.45086328627243
 20
-41.27666442697802
 30
0.0
  0
VERTEX
  5
469
330
466
100
AcDbEntity
  8
Marcacao
100
AcDbVertex
100
AcDb2dVertex
 10
-14.44695217516132
 20
-41.27648664920024
 30
0.0
  0
VERTEX
  5
46A
330
466
100
AcDbEntity
  8
Marcacao
100
AcDbVertex
100
AcDb2dVertex
 10
-14.44695217516132
 20
-41.2768422047558
 30
0.0
  0
VERTEX
  5
46B
330
466
100
AcDbEntity
  8
Marcacao
100
AcDbVertex
100
AcDb2dVertex
 10
-14.28561884182798
 20
-41.2856422047558
 30
0.0
  0
VERTEX
  5
46C
330
466
100
AcDbEntity
  8
Marcacao
100
AcDbVertex
100
AcDb2dVertex
 10
-14.43859661960576
 20
-41.25097553808914
 30
0.0
  0
VERTEX
  5
46D
330
466
100
AcDbEntity
  8
Marcacao
100
AcDbVertex
100
AcDb2dVertex
 10
-14.45326328627243
 20
-41.24715331586692
 30
0.0
 42
0.0039295340838816
  0
VERTEX
  5
46E
330
466
100
AcDbEntity
  8
Marcacao
100
AcDbVertex
100
AcDb2dVertex
 10
-14.45575217516132
 20
-41.24750887142247
 30
0.0
  0
VERTEX
  5
46F
330
466
100
AcDbEntity
  8
Marcacao
100
AcDbVertex
100
AcDb2dVertex
 10
-14.45859661960576
 20
-41.24786442697803
 30
0.0
  0
VERTEX
  5
470
330
466
100
AcDbEntity
  8
Marcacao
100
AcDbVertex
100
AcDb2dVertex
 10
-14.46641884182798
 20
-41.24795331586692
 30
0.0
  0
VERTEX
  5
471
330
466
100
AcDbEntity
  8
Marcacao
100
AcDbVertex
100
AcDb2dVertex
 10
-14.47308550849465
 20
-41.2496422047558
 30
0.0
  0
VERTEX
  5
472
330
466
100
AcDbEntity
  8
Marcacao
100
AcDbVertex
100
AcDb2dVertex
 10
-14.61548550849465
 20
-41.2856422047558
 30
0.0
  0
VERTEX
  5
473
330
466
100
AcDbEntity
  8
Marcacao
100
AcDbVertex
100
AcDb2dVertex
 10
-14.45495217516132
 20
-41.2768422047558
 30
0.0
  0
VERTEX
  5
474
330
466
100
AcDbEntity
  8
Marcacao
100
AcDbVertex
100
AcDb2dVertex
 10
-14.45495217516132
 20
-41.27666442697802
 30
0.0
  0
SEQEND
  5
475
330
466
100
AcDbEntity
  8
Marcacao
  0
POLYLINE
  5
476
330
1F
100
AcDbEntity
  8
Marcacao
100
AcDb2dPolyline
 66
     1
 10
0.0
 20
0.0
 30
0.0
 70
     1
  0
VERTEX
  5
477
330
476
100
AcDbEntity
  8
Marcacao
100
AcDbVertex
100
AcDb2dVertex
 10
-14.58508550849465
 20
-40.49639776031136
 30
0.0
  0
VERTEX
  5
478
330
476
100
AcDbEntity
  8
Marcacao
100
AcDbVertex
100
AcDb2dVertex
 10
-14.46286328627243
 20
-40.48626442697802
 30
0.0
  0
VERTEX
  5
479
330
476
100
AcDbEntity
  8
Marcacao
100
AcDbVertex
100
AcDb2dVertex
 10
-14.4454410640502
 20
-40.48706442697802
 30
0.0
  0
VERTEX
  5
47A
330
476
100
AcDbEntity
  8
Marcacao
100
AcDbVertex
100
AcDb2dVertex
 10
-14.43921884182798
 20
-40.48590887142247
 30
0.0
  0
VERTEX
  5
47B
330
476
100
AcDbEntity
  8
Marcacao
100
AcDbVertex
100
AcDb2dVertex
 10
-14.31610773071687
 20
-40.49639776031136
 30
0.0
  0
VERTEX
  5
47C
330
476
100
AcDbEntity
  8
Marcacao
100
AcDbVertex
100
AcDb2dVertex
 10
-14.27424106405021
 20
-40.4496422047558
 30
0.0
  0
VERTEX
  5
47D
330
476
100
AcDbEntity
  8
Marcacao
100
AcDbVertex
100
AcDb2dVertex
 10
-14.44695217516132
 20
-40.44208664920025
 30
0.0
  0
VERTEX
  5
47E
330
476
100
AcDbEntity
  8
Marcacao
100
AcDbVertex
100
AcDb2dVertex
 10
-14.44695217516132
 20
-40.44377553808913
 30
0.0
  0
VERTEX
  5
47F
330
476
100
AcDbEntity
  8
Marcacao
100
AcDbVertex
100
AcDb2dVertex
 10
-14.45086328627243
 20
-40.44297553808914
 30
0.0
  0
VERTEX
  5
480
330
476
100
AcDbEntity
  8
Marcacao
100
AcDbVertex
100
AcDb2dVertex
 10
-14.45495217516132
 20
-40.44377553808913
 30
0.0
  0
VERTEX
  5
481
330
476
100
AcDbEntity
  8
Marcacao
100
AcDbVertex
100
AcDb2dVertex
 10
-14.45495217516132
 20
-40.44208664920025
 30
0.0
  0
VERTEX
  5
482
330
476
100
AcDbEntity
  8
Marcacao
100
AcDbVertex
100
AcDb2dVertex
 10
-14.6271299529391
 20
-40.4496422047558
 30
0.0
  0
SEQEND
  5
483
330
476
100
AcDbEntity
  8
Marcacao
  0
POLYLINE
  5
484
330
1F
100
AcDbEntity
  8
Marcacao
100
AcDb2dPolyline
 66
     1
 10
0.0
 20
0.0
 30
0.0
 70
     1
  0
VERTEX
  5
485
330
484
100
AcDbEntity
  8
Marcacao
100
AcDbVertex
100
AcDb2dVertex
 10
-14.26855217516131
 20
-42.41133109364469
 30
0.0
  0
VERTEX
  5
486
330
484
100
AcDbEntity
  8
Marcacao
100
AcDbVertex
100
AcDb2dVertex
 10
-14.44695217516132
 20
-42.42395331586691
 30
0.0
  0
VERTEX
  5
487
330
484
100
AcDbEntity
  8
Marcacao
100
AcDbVertex
100
AcDb2dVertex
 10
-14.44695217516132
 20
-42.42448664920025
 30
0.0
  0
VERTEX
  5
488
330
484
100
AcDbEntity
  8
Marcacao
100
AcDbVertex
100
AcDb2dVertex
 10
-14.45086328627243
 20
-42.42430887142247
 30
0.0
  0
VERTEX
  5
489
330
484
100
AcDbEntity
  8
Marcacao
100
AcDbVertex
100
AcDb2dVertex
 10
-14.45495217516132
 20
-42.42448664920025
 30
0.0
  0
VERTEX
  5
48A
330
484
100
AcDbEntity
  8
Marcacao
100
AcDbVertex
100
AcDb2dVertex
 10
-14.45495217516132
 20
-42.42395331586691
 30
0.0
  0
VERTEX
  5
48B
330
484
100
AcDbEntity
  8
Marcacao
100
AcDbVertex
100
AcDb2dVertex
 10
-14.63344106405021
 20
-42.41133109364469
 30
0.0
  0
VERTEX
  5
48C
330
484
100
AcDbEntity
  8
Marcacao
100
AcDbVertex
100
AcDb2dVertex
 10
-14.61575217516132
 20
-42.46119776031136
 30
0.0
  0
VERTEX
  5
48D
330
484
100
AcDbEntity
  8
Marcacao
100
AcDbVertex
100
AcDb2dVertex
 10
-14.45495217516132
 20
-42.45381998253358
 30
0.0
  0
VERTEX
  5
48E
330
484
100
AcDbEntity
  8
Marcacao
100
AcDbVertex
100
AcDb2dVertex
 10
-14.45495217516132
 20
-42.45293109364469
 30
0.0
  0
VERTEX
  5
48F
330
484
100
AcDbEntity
  8
Marcacao
100
AcDbVertex
100
AcDb2dVertex
 10
-14.45086328627243
 20
-42.45337553808913
 30
0.0
  0
VERTEX
  5
490
330
484
100
AcDbEntity
  8
Marcacao
100
AcDbVertex
100
AcDb2dVertex
 10
-14.44695217516132
 20
-42.45293109364469
 30
0.0
  0
VERTEX
  5
491
330
484
100
AcDbEntity
  8
Marcacao
100
AcDbVertex
100
AcDb2dVertex
 10
-14.44695217516132
 20
-42.45381998253358
 30
0.0
  0
VERTEX
  5
492
330
484
100
AcDbEntity
  8
Marcacao
100
AcDbVertex
100
AcDb2dVertex
 10
-14.28535217516132
 20
-42.46119776031136
 30
0.0
  0
SEQEND
  5
493
330
484
100
AcDbEntity
  8
Marcacao
  0
POLYLINE
  5
494
330
1F
100
AcDbEntity
  8
Marcacao
100
AcDb2dPolyline
 66
     1
 10
0.0
 20
0.0
 30
0.0
 70
     1
  0
VERTEX
  5
495
330
494
100
AcDbEntity
  8
Marcacao
100
AcDbVertex
100
AcDb2dVertex
 10
-14.62010773071687
 20
-38.84501998253358
 30
0.0
  0
VERTEX
  5
496
330
494
100
AcDbEntity
  8
Marcacao
100
AcDbVertex
100
AcDb2dVertex
 10
-14.45495217516132
 20
-38.83808664920025
 30
0.0
  0
VERTEX
  5
497
330
494
100
AcDbEntity
  8
Marcacao
100
AcDbVertex
100
AcDb2dVertex
 10
-14.45406328627243
 20
-38.83337553808914
 30
0.0
  0
VERTEX
  5
498
330
494
100
AcDbEntity
  8
Marcacao
100
AcDbVertex
100
AcDb2dVertex
 10
-14.45370773071687
 20
-38.83773109364469
 30
0.0
  0
VERTEX
  5
499
330
494
100
AcDbEntity
  8
Marcacao
100
AcDbVertex
100
AcDb2dVertex
 10
-14.45086328627243
 20
-38.83790887142247
 30
0.0
  0
VERTEX
  5
49A
330
494
100
AcDbEntity
  8
Marcacao
100
AcDbVertex
100
AcDb2dVertex
 10
-14.44828550849465
 20
-38.83773109364469
 30
0.0
  0
VERTEX
  5
49B
330
494
100
AcDbEntity
  8
Marcacao
100
AcDbVertex
100
AcDb2dVertex
 10
-14.44792995293909
 20
-38.83337553808914
 30
0.0
  0
VERTEX
  5
49C
330
494
100
AcDbEntity
  8
Marcacao
100
AcDbVertex
100
AcDb2dVertex
 10
-14.44695217516132
 20
-38.83808664920025
 30
0.0
  0
VERTEX
  5
49D
330
494
100
AcDbEntity
  8
Marcacao
100
AcDbVertex
100
AcDb2dVertex
 10
-14.28117439738354
 20
-38.84501998253358
 30
0.0
  0
VERTEX
  5
49E
330
494
100
AcDbEntity
  8
Marcacao
100
AcDbVertex
100
AcDb2dVertex
 10
-14.23939661960576
 20
-38.79853109364469
 30
0.0
  0
VERTEX
  5
49F
330
494
100
AcDbEntity
  8
Marcacao
100
AcDbVertex
100
AcDb2dVertex
 10
-14.44695217516132
 20
-38.80021998253358
 30
0.0
  0
VERTEX
  5
4A0
330
494
100
AcDbEntity
  8
Marcacao
100
AcDbVertex
100
AcDb2dVertex
 10
-14.44695217516132
 20
-38.80368664920024
 30
0.0
  0
VERTEX
  5
4A1
330
494
100
AcDbEntity
  8
Marcacao
100
AcDbVertex
100
AcDb2dVertex
 10
-14.45086328627243
 20
-38.80190887142247
 30
0.0
  0
VERTEX
  5
4A2
330
494
100
AcDbEntity
  8
Marcacao
100
AcDbVertex
100
AcDb2dVertex
 10
-14.45495217516132
 20
-38.80368664920024
 30
0.0
  0
VERTEX
  5
4A3
330
494
100
AcDbEntity
  8
Marcacao
100
AcDbVertex
100
AcDb2dVertex
 10
-14.45495217516132
 20
-38.80021998253358
 30
0.0
  0
VERTEX
  5
4A4
330
494
100
AcDbEntity
  8
Marcacao
100
AcDbVertex
100
AcDb2dVertex
 10
-14.66197439738354
 20
-38.79853109364469
 30
0.0
  0
SEQEND
  5
4A5
330
494
100
AcDbEntity
  8
Marcacao
  0
POLYLINE
  5
4A6
330
1F
100
AcDbEntity
  8
Marcacao
100
AcDb2dPolyline
 66
     1
 10
0.0
 20
0.0
 30
0.0
 70
     1
  0
VERTEX
  5
4A7
330
4A6
100
AcDbEntity
  8
Marcacao
100
AcDbVertex
100
AcDb2dVertex
 10
-14.97841884182799
 20
-41.87266442697803
 30
0.0
  0
VERTEX
  5
4A8
330
4A6
100
AcDbEntity
  8
Marcacao
100
AcDbVertex
100
AcDb2dVertex
 10
-14.95735217516132
 20
-42.66475331586691
 30
0.0
  0
VERTEX
  5
4A9
330
4A6
100
AcDbEntity
  8
Marcacao
100
AcDbVertex
100
AcDb2dVertex
 10
-14.95308550849465
 20
-43.35186442697803
 30
0.0
  0
VERTEX
  5
4AA
330
4A6
100
AcDbEntity
  8
Marcacao
100
AcDbVertex
100
AcDb2dVertex
 10
-14.94997439738354
 20
-44.24768664920025
 30
0.0
  0
VERTEX
  5
4AB
330
4A6
100
AcDbEntity
  8
Marcacao
100
AcDbVertex
100
AcDb2dVertex
 10
-14.93850773071687
 20
-44.79497553808913
 30
0.0
  0
VERTEX
  5
4AC
330
4A6
100
AcDbEntity
  8
Marcacao
100
AcDbVertex
100
AcDb2dVertex
 10
-14.92784106405021
 20
-44.99026442697802
 30
0.0
  0
VERTEX
  5
4AD
330
4A6
100
AcDbEntity
  8
Marcacao
100
AcDbVertex
100
AcDb2dVertex
 10
-14.74535217516132
 20
-44.99337553808913
 30
0.0
  0
VERTEX
  5
4AE
330
4A6
100
AcDbEntity
  8
Marcacao
100
AcDbVertex
100
AcDb2dVertex
 10
-14.73637439738354
 20
-44.70137553808914
 30
0.0
  0
VERTEX
  5
4AF
330
4A6
100
AcDbEntity
  8
Marcacao
100
AcDbVertex
100
AcDb2dVertex
 10
-14.73717439738354
 20
-43.92928664920024
 30
0.0
  0
VERTEX
  5
4B0
330
4A6
100
AcDbEntity
  8
Marcacao
100
AcDbVertex
100
AcDb2dVertex
 10
-14.76935217516132
 20
-43.45950887142247
 30
0.0
  0
VERTEX
  5
4B1
330
4A6
100
AcDbEntity
  8
Marcacao
100
AcDbVertex
100
AcDb2dVertex
 10
-14.78117439738354
 20
-42.51773109364469
 30
0.0
  0
VERTEX
  5
4B2
330
4A6
100
AcDbEntity
  8
Marcacao
100
AcDbVertex
100
AcDb2dVertex
 10
-14.75957439738354
 20
-41.5768422047558
 30
0.0
  0
VERTEX
  5
4B3
330
4A6
100
AcDbEntity
  8
Marcacao
100
AcDbVertex
100
AcDb2dVertex
 10
-14.75237439738354
 20
-40.84297553808914
 30
0.0
  0
VERTEX
  5
4B4
330
4A6
100
AcDbEntity
  8
Marcacao
100
AcDbVertex
100
AcDb2dVertex
 10
-14.74784106405021
 20
-39.97639776031136
 30
0.0
  0
VERTEX
  5
4B5
330
4A6
100
AcDbEntity
  8
Marcacao
100
AcDbVertex
100
AcDb2dVertex
 10
-14.77166328627243
 20
-39.05399776031136
 30
0.0
  0
VERTEX
  5
4B6
330
4A6
100
AcDbEntity
  8
Marcacao
100
AcDbVertex
100
AcDb2dVertex
 10
-14.78695217516132
 20
-38.59959776031135
 30
0.0
  0
VERTEX
  5
4B7
330
4A6
100
AcDbEntity
  8
Marcacao
100
AcDbVertex
100
AcDb2dVertex
 10
-14.94179661960576
 20
-38.60777553808914
 30
0.0
  0
VERTEX
  5
4B8
330
4A6
100
AcDbEntity
  8
Marcacao
100
AcDbVertex
100
AcDb2dVertex
 10
-14.94286328627243
 20
-39.05381998253358
 30
0.0
  0
VERTEX
  5
4B9
330
4A6
100
AcDbEntity
  8
Marcacao
100
AcDbVertex
100
AcDb2dVertex
 10
-14.94881884182798
 20
-39.66697553808913
 30
0.0
  0
VERTEX
  5
4BA
330
4A6
100
AcDbEntity
  8
Marcacao
100
AcDbVertex
100
AcDb2dVertex
 10
-14.95850773071687
 20
-40.37417553808913
 30
0.0
  0
VERTEX
  5
4BB
330
4A6
100
AcDbEntity
  8
Marcacao
100
AcDbVertex
100
AcDb2dVertex
 10
-14.98250773071687
 20
-41.68413109364469
 30
0.0
  0
SEQEND
  5
4BC
330
4A6
100
AcDbEntity
  8
Marcacao
  0
POLYLINE
  5
4BD
330
1F
100
AcDbEntity
  8
Marcacao
100
AcDb2dPolyline
 66
     1
 10
0.0
 20
0.0
 30
0.0
 70
     1
  0
VERTEX
  5
4BE
330
4BD
100
AcDbEntity
  8
Marcacao
100
AcDbVertex
100
AcDb2dVertex
 10
-15.3543299529391
 20
-38.24697553808914
 30
0.0
  0
VERTEX
  5
4BF
330
4BD
100
AcDbEntity
  8
Marcacao
100
AcDbVertex
100
AcDb2dVertex
 10
-14.79157439738354
 20
-38.20226442697803
 30
0.0
  0
VERTEX
  5
4C0
330
4BD
100
AcDbEntity
  8
Marcacao
100
AcDbVertex
100
AcDb2dVertex
 10
-14.45086328627243
 20
-38.19657553808914
 30
0.0
  0
VERTEX
  5
4C1
330
4BD
100
AcDbEntity
  8
Marcacao
100
AcDbVertex
100
AcDb2dVertex
 10
-14.11032995293909
 20
-38.20226442697803
 30
0.0
  0
VERTEX
  5
4C2
330
4BD
100
AcDbEntity
  8
Marcacao
100
AcDbVertex
100
AcDb2dVertex
 10
-13.54686328627243
 20
-38.24697553808914
 30
0.0
  0
VERTEX
  5
4C3
330
4BD
100
AcDbEntity
  8
Marcacao
100
AcDbVertex
100
AcDb2dVertex
 10
-13.54126328627243
 20
-38.14030887142247
 30
0.0
  0
VERTEX
  5
4C4
330
4BD
100
AcDbEntity
  8
Marcacao
100
AcDbVertex
100
AcDb2dVertex
 10
-13.8367299529391
 20
-38.09906442697802
 30
0.0
  0
VERTEX
  5
4C5
330
4BD
100
AcDbEntity
  8
Marcacao
100
AcDbVertex
100
AcDb2dVertex
 10
-14.44695217516132
 20
-38.09577553808914
 30
0.0
  0
VERTEX
  5
4C6
330
4BD
100
AcDbEntity
  8
Marcacao
100
AcDbVertex
100
AcDb2dVertex
 10
-14.44695217516132
 20
-38.09613109364469
 30
0.0
  0
VERTEX
  5
4C7
330
4BD
100
AcDbEntity
  8
Marcacao
100
AcDbVertex
100
AcDb2dVertex
 10
-14.45086328627243
 20
-38.09595331586691
 30
0.0
  0
VERTEX
  5
4C8
330
4BD
100
AcDbEntity
  8
Marcacao
100
AcDbVertex
100
AcDb2dVertex
 10
-14.45495217516132
 20
-38.09613109364469
 30
0.0
  0
VERTEX
  5
4C9
330
4BD
100
AcDbEntity
  8
Marcacao
100
AcDbVertex
100
AcDb2dVertex
 10
-14.45495217516132
 20
-38.09577553808914
 30
0.0
  0
VERTEX
  5
4CA
330
4BD
100
AcDbEntity
  8
Marcacao
100
AcDbVertex
100
AcDb2dVertex
 10
-15.06446328627243
 20
-38.09906442697802
 30
0.0
  0
VERTEX
  5
4CB
330
4BD
100
AcDbEntity
  8
Marcacao
100
AcDbVertex
100
AcDb2dVertex
 10
-15.35984106405021
 20
-38.14030887142247
 30
0.0
  0
SEQEND
  5
4CC
330
4BD
100
AcDbEntity
  8
Marcacao
  0
POLYLINE
  5
4CD
330
1F
100
AcDbEntity
  8
Marcacao
100
AcDb2dPolyline
 66
     1
 10
0.0
 20
0.0
 30
0.0
 70
     1
  0
VERTEX
  5
4CE
330
4CD
100
AcDbEntity
  8
Marcacao
100
AcDbVertex
100
AcDb2dVertex
 10
-15.36890773071687
 20
-38.0264422047558
 30
0.0
  0
VERTEX
  5
4CF
330
4CD
100
AcDbEntity
  8
Marcacao
100
AcDbVertex
100
AcDb2dVertex
 10
-15.15095217516132
 20
-37.9936422047558
 30
0.0
  0
VERTEX
  5
4D0
330
4CD
100
AcDbEntity
  8
Marcacao
100
AcDbVertex
100
AcDb2dVertex
 10
-14.6606410640502
 20
-37.97995331586691
 30
0.0
  0
VERTEX
  5
4D1
330
4CD
100
AcDbEntity
  8
Marcacao
100
AcDbVertex
100
AcDb2dVertex
 10
-14.45086328627243
 20
-37.9880422047558
 30
0.0
  0
VERTEX
  5
4D2
330
4CD
100
AcDbEntity
  8
Marcacao
100
AcDbVertex
100
AcDb2dVertex
 10
-14.24055217516132
 20
-37.97995331586691
 30
0.0
  0
VERTEX
  5
4D3
330
4CD
100
AcDbEntity
  8
Marcacao
100
AcDbVertex
100
AcDb2dVertex
 10
-13.75024106405021
 20
-37.9936422047558
 30
0.0
  0
VERTEX
  5
4D4
330
4CD
100
AcDbEntity
  8
Marcacao
100
AcDbVertex
100
AcDb2dVertex
 10
-13.53228550849465
 20
-38.0264422047558
 30
0.0
  0
VERTEX
  5
4D5
330
4CD
100
AcDbEntity
  8
Marcacao
100
AcDbVertex
100
AcDb2dVertex
 10
-13.51361884182798
 20
-37.92493109364469
 30
0.0
  0
VERTEX
  5
4D6
330
4CD
100
AcDbEntity
  8
Marcacao
100
AcDbVertex
100
AcDb2dVertex
 10
-13.71530773071687
 20
-37.87933109364469
 30
0.0
  0
VERTEX
  5
4D7
330
4CD
100
AcDbEntity
  8
Marcacao
100
AcDbVertex
100
AcDb2dVertex
 10
-14.28970773071687
 20
-37.86217553808913
 30
0.0
  0
VERTEX
  5
4D8
330
4CD
100
AcDbEntity
  8
Marcacao
100
AcDbVertex
100
AcDb2dVertex
 10
-14.44695217516132
 20
-37.86528664920024
 30
0.0
  0
VERTEX
  5
4D9
330
4CD
100
AcDbEntity
  8
Marcacao
100
AcDbVertex
100
AcDb2dVertex
 10
-14.44695217516132
 20
-37.86555331586691
 30
0.0
  0
VERTEX
  5
4DA
330
4CD
100
AcDbEntity
  8
Marcacao
100
AcDbVertex
100
AcDb2dVertex
 10
-14.45086328627243
 20
-37.86537553808913
 30
0.0
  0
VERTEX
  5
4DB
330
4CD
100
AcDbEntity
  8
Marcacao
100
AcDbVertex
100
AcDb2dVertex
 10
-14.45495217516132
 20
-37.86555331586691
 30
0.0
  0
VERTEX
  5
4DC
330
4CD
100
AcDbEntity
  8
Marcacao
100
AcDbVertex
100
AcDb2dVertex
 10
-14.45495217516132
 20
-37.86528664920024
 30
0.0
  0
VERTEX
  5
4DD
330
4CD
100
AcDbEntity
  8
Marcacao
100
AcDbVertex
100
AcDb2dVertex
 10
-14.61166328627243
 20
-37.86217553808913
 30
0.0
  0
VERTEX
  5
4DE
330
4CD
100
AcDbEntity
  8
Marcacao
100
AcDbVertex
100
AcDb2dVertex
 10
-15.18606328627243
 20
-37.87933109364469
 30
0.0
  0
VERTEX
  5
4DF
330
4CD
100
AcDbEntity
  8
Marcacao
100
AcDbVertex
100
AcDb2dVertex
 10
-15.38837439738354
 20
-37.92493109364469
 30
0.0
  0
SEQEND
  5
4E0
330
4CD
100
AcDbEntity
  8
Marcacao
  0
POLYLINE
  5
4E1
330
1F
100
AcDbEntity
  8
Marcacao
100
AcDb2dPolyline
 66
     1
 10
0.0
 20
0.0
 30
0.0
 70
     1
  0
VERTEX
  5
4E2
330
4E1
100
AcDbEntity
  8
Marcacao
100
AcDbVertex
100
AcDb2dVertex
 10
-17.12099661960576
 20
-37.85053109364469
 30
0.0
  0
VERTEX
  5
4E3
330
4E1
100
AcDbEntity
  8
Marcacao
100
AcDbVertex
100
AcDb2dVertex
 10
-15.63530773071687
 20
-37.90270887142247
 30
0.0
 42
0.7258639960107701
  0
VERTEX
  5
4E4
330
4E1
100
AcDbEntity
  8
Marcacao
100
AcDbVertex
100
AcDb2dVertex
 10
-15.68197439738354
 20
-37.81781998253358
 30
0.0
  0
VERTEX
  5
4E5
330
4E1
100
AcDbEntity
  8
Marcacao
100
AcDbVertex
100
AcDb2dVertex
 10
-16.01059661960576
 20
-37.79106442697802
 30
0.0
  0
VERTEX
  5
4E6
330
4E1
100
AcDbEntity
  8
Marcacao
100
AcDbVertex
100
AcDb2dVertex
 10
-16.90019661960577
 20
-37.69408664920024
 30
0.0
  0
VERTEX
  5
4E7
330
4E1
100
AcDbEntity
  8
Marcacao
100
AcDbVertex
100
AcDb2dVertex
 10
-17.15148550849465
 20
-37.65275331586692
 30
0.0
  0
SEQEND
  5
4E8
330
4E1
100
AcDbEntity
  8
Marcacao
  0
POLYLINE
  5
4E9
330
1F
100
AcDbEntity
  8
Marcacao
100
AcDb2dPolyline
 66
     1
 10
0.0
 20
0.0
 30
0.0
 70
     1
  0
VERTEX
  5
4EA
330
4E9
100
AcDbEntity
  8
Marcacao
100
AcDbVertex
100
AcDb2dVertex
 10
-17.75726328627243
 20
-38.41408664920024
 30
0.0
  0
VERTEX
  5
4EB
330
4E9
100
AcDbEntity
  8
Marcacao
100
AcDbVertex
100
AcDb2dVertex
 10
-17.75592995293909
 20
-38.58777553808913
 30
0.0
  0
VERTEX
  5
4EC
330
4E9
100
AcDbEntity
  8
Marcacao
100
AcDbVertex
100
AcDb2dVertex
 10
-17.33512995293909
 20
-38.42866442697802
 30
0.0
  0
VERTEX
  5
4ED
330
4E9
100
AcDbEntity
  8
Marcacao
100
AcDbVertex
100
AcDb2dVertex
 10
-17.34206328627243
 20
-38.29355331586692
 30
0.0
  0
VERTEX
  5
4EE
330
4E9
100
AcDbEntity
  8
Marcacao
100
AcDbVertex
100
AcDb2dVertex
 10
-17.72188550849465
 20
-38.3560422047558
 30
0.0
  0
SEQEND
  5
4EF
330
4E9
100
AcDbEntity
  8
Marcacao
  0
POLYLINE
  5
4F0
330
1F
100
AcDbEntity
  8
Marcacao
100
AcDb2dPolyline
 66
     1
 10
0.0
 20
0.0
 30
0.0
 70
     1
  0
VERTEX
  5
4F1
330
4F0
100
AcDbEntity
  8
Marcacao
100
AcDbVertex
100
AcDb2dVertex
 10
-15.66401884182798
 20
-36.5120422047558
 30
0.0
  0
VERTEX
  5
4F2
330
4F0
100
AcDbEntity
  8
Marcacao
100
AcDbVertex
100
AcDb2dVertex
 10
-15.65841884182798
 20
-36.46875331586691
 30
0.0
  0
VERTEX
  5
4F3
330
4F0
100
AcDbEntity
  8
Marcacao
100
AcDbVertex
100
AcDb2dVertex
 10
-15.69201884182798
 20
-36.46715331586692
 30
0.0
  0
VERTEX
  5
4F4
330
4F0
100
AcDbEntity
  8
Marcacao
100
AcDbVertex
100
AcDb2dVertex
 10
-15.68099661960576
 20
-36.51248664920025
 30
0.0
  0
SEQEND
  5
4F5
330
4F0
100
AcDbEntity
  8
Marcacao
  0
POLYLINE
  5
4F6
330
1F
100
AcDbEntity
  8
Marcacao
100
AcDb2dPolyline
 66
     1
 10
0.0
 20
0.0
 30
0.0
 70
     1
  0
VERTEX
  5
4F7
330
4F6
100
AcDbEntity
  8
Marcacao
100
AcDbVertex
100
AcDb2dVertex
 10
-15.53877439738354
 20
-31.91230887142247
 30
0.0
  0
VERTEX
  5
4F8
330
4F6
100
AcDbEntity
  8
Marcacao
100
AcDbVertex
100
AcDb2dVertex
 10
-15.41930773071687
 20
-32.06830887142247
 30
0.0
  0
VERTEX
  5
4F9
330
4F6
100
AcDbEntity
  8
Marcacao
100
AcDbVertex
100
AcDb2dVertex
 10
-15.39157439738354
 20
-32.06910887142247
 30
0.0
  0
VERTEX
  5
4FA
330
4F6
100
AcDbEntity
  8
Marcacao
100
AcDbVertex
100
AcDb2dVertex
 10
-15.28250773071687
 20
-31.91595331586691
 30
0.0
  0
VERTEX
  5
4FB
330
4F6
100
AcDbEntity
  8
Marcacao
100
AcDbVertex
100
AcDb2dVertex
 10
-15.33850773071687
 20
-31.78857553808913
 30
0.0
 42
0.5774862187386
  0
VERTEX
  5
4FC
330
4F6
100
AcDbEntity
  8
Marcacao
100
AcDbVertex
100
AcDb2dVertex
 10
-15.53015217516132
 20
-31.85941998253358
 30
0.0
  0
SEQEND
  5
4FD
330
4F6
100
AcDbEntity
  8
Marcacao
  0
POLYLINE
  5
4FE
330
1F
100
AcDbEntity
  8
Marcacao
100
AcDb2dPolyline
 66
     1
 10
0.0
 20
0.0
 30
0.0
 70
     1
  0
VERTEX
  5
4FF
330
4FE
100
AcDbEntity
  8
Marcacao
100
AcDbVertex
100
AcDb2dVertex
 10
-15.42819661960576
 20
-31.99133109364469
 30
0.0
  0
VERTEX
  5
500
330
4FE
100
AcDbEntity
  8
Marcacao
100
AcDbVertex
100
AcDb2dVertex
 10
-15.45610773071687
 20
-31.88777553808914
 30
0.0
  0
VERTEX
  5
501
330
4FE
100
AcDbEntity
  8
Marcacao
100
AcDbVertex
100
AcDb2dVertex
 10
-15.38161884182799
 20
-31.85346442697802
 30
0.0
  0
VERTEX
  5
502
330
4FE
100
AcDbEntity
  8
Marcacao
100
AcDbVertex
100
AcDb2dVertex
 10
-15.36721884182798
 20
-31.94075331586691
 30
0.0
  0
SEQEND
  5
503
330
4FE
100
AcDbEntity
  8
Marcacao
  0
POLYLINE
  5
504
330
1F
100
AcDbEntity
  8
Marcacao
100
AcDb2dPolyline
 66
     1
 10
0.0
 20
0.0
 30
0.0
 70
     1
  0
VERTEX
  5
505
330
504
100
AcDbEntity
  8
Marcacao
100
AcDbVertex
100
AcDb2dVertex
 10
-16.67130773071687
 20
-32.97675331586692
 30
0.0
  0
VERTEX
  5
506
330
504
100
AcDbEntity
  8
Marcacao
100
AcDbVertex
100
AcDb2dVertex
 10
-16.73077439738354
 20
-32.99550887142247
 30
0.0
  0
VERTEX
  5
507
330
504
100
AcDbEntity
  8
Marcacao
100
AcDbVertex
100
AcDb2dVertex
 10
-16.76090773071687
 20
-33.06297553808913
 30
0.0
  0
VERTEX
  5
508
330
504
100
AcDbEntity
  8
Marcacao
100
AcDbVertex
100
AcDb2dVertex
 10
-16.74979661960576
 20
-33.14253109364469
 30
0.0
  0
VERTEX
  5
509
330
504
100
AcDbEntity
  8
Marcacao
100
AcDbVertex
100
AcDb2dVertex
 10
-16.67317439738354
 20
-33.25933109364469
 30
0.0
  0
VERTEX
  5
50A
330
504
100
AcDbEntity
  8
Marcacao
100
AcDbVertex
100
AcDb2dVertex
 10
-16.53317439738354
 20
-33.24573109364469
 30
0.0
  0
VERTEX
  5
50B
330
504
100
AcDbEntity
  8
Marcacao
100
AcDbVertex
100
AcDb2dVertex
 10
-16.48170773071687
 20
-33.08501998253358
 30
0.0
  0
VERTEX
  5
50C
330
504
100
AcDbEntity
  8
Marcacao
100
AcDbVertex
100
AcDb2dVertex
 10
-16.61219661960576
 20
-32.97728664920024
 30
0.0
  0
SEQEND
  5
50D
330
504
100
AcDbEntity
  8
Marcacao
  0
POLYLINE
  5
50E
330
1F
100
AcDbEntity
  8
Marcacao
100
AcDb2dPolyline
 66
     1
 10
0.0
 20
0.0
 30
0.0
 70
     1
  0
VERTEX
  5
50F
330
50E
100
AcDbEntity
  8
Marcacao
100
AcDbVertex
100
AcDb2dVertex
 10
-16.64455217516132
 20
-33.05968664920024
 30
0.0
  0
VERTEX
  5
510
330
50E
100
AcDbEntity
  8
Marcacao
100
AcDbVertex
100
AcDb2dVertex
 10
-16.55450773071687
 20
-33.10821998253358
 30
0.0
  0
VERTEX
  5
511
330
50E
100
AcDbEntity
  8
Marcacao
100
AcDbVertex
100
AcDb2dVertex
 10
-16.57468550849465
 20
-33.16608664920025
 30
0.0
  0
VERTEX
  5
512
330
50E
100
AcDbEntity
  8
Marcacao
100
AcDbVertex
100
AcDb2dVertex
 10
-16.68152995293909
 20
-33.16430887142247
 30
0.0
  0
SEQEND
  5
513
330
50E
100
AcDbEntity
  8
Marcacao
  0
POLYLINE
  5
514
330
1F
100
AcDbEntity
  8
Marcacao
100
AcDb2dPolyline
 66
     1
 10
0.0
 20
0.0
 30
0.0
 70
     1
  0
VERTEX
  5
515
330
514
100
AcDbEntity
  8
Marcacao
100
AcDbVertex
100
AcDb2dVertex
 10
-16.06801884182799
 20
-32.08635331586692
 30
0.0
 42
0.392077126603407
  0
VERTEX
  5
516
330
514
100
AcDbEntity
  8
Marcacao
100
AcDbVertex
100
AcDb2dVertex
 10
-16.00748550849465
 20
-32.39541998253358
 30
0.0
  0
VERTEX
  5
517
330
514
100
AcDbEntity
  8
Marcacao
100
AcDbVertex
100
AcDb2dVertex
 10
-15.88517439738354
 20
-32.38981998253358
 30
0.0
  0
VERTEX
  5
518
330
514
100
AcDbEntity
  8
Marcacao
100
AcDbVertex
100
AcDb2dVertex
 10
-15.80321884182799
 20
-32.23515331586691
 30
0.0
 42
0.4962673517686068
  0
VERTEX
  5
519
330
514
100
AcDbEntity
  8
Marcacao
100
AcDbVertex
100
AcDb2dVertex
 10
-15.94384106405021
 20
-32.06608664920024
 30
0.0
  0
VERTEX
  5
51A
330
514
100
AcDbEntity
  8
Marcacao
100
AcDbVertex
100
AcDb2dVertex
 10
-16.07095217516132
 20
-32.08990887142247
 30
0.0
  0
SEQEND
  5
51B
330
514
100
AcDbEntity
  8
Marcacao
  0
POLYLINE
  5
51C
330
1F
100
AcDbEntity
  8
Marcacao
100
AcDb2dPolyline
 66
     1
 10
0.0
 20
0.0
 30
0.0
 70
     1
  0
VERTEX
  5
51D
330
51C
100
AcDbEntity
  8
Marcacao
100
AcDbVertex
100
AcDb2dVertex
 10
-15.94401884182799
 20
-32.34039776031136
 30
0.0
 42
-0.5842912726892158
  0
VERTEX
  5
51E
330
51C
100
AcDbEntity
  8
Marcacao
100
AcDbVertex
100
AcDb2dVertex
 10
-16.00010773071687
 20
-32.18581998253358
 30
0.0
  0
VERTEX
  5
51F
330
51C
100
AcDbEntity
  8
Marcacao
100
AcDbVertex
100
AcDb2dVertex
 10
-15.89895217516132
 20
-32.16475331586692
 30
0.0
  0
VERTEX
  5
520
330
51C
100
AcDbEntity
  8
Marcacao
100
AcDbVertex
100
AcDb2dVertex
 10
-15.89032995293909
 20
-32.25675331586692
 30
0.0
  0
SEQEND
  5
521
330
51C
100
AcDbEntity
  8
Marcacao
  0
POLYLINE
  5
522
330
1F
100
AcDbEntity
  8
Marcacao
100
AcDb2dPolyline
 66
     1
 10
0.0
 20
0.0
 30
0.0
 70
     1
  0
VERTEX
  5
523
330
522
100
AcDbEntity
  8
Marcacao
100
AcDbVertex
100
AcDb2dVertex
 10
-16.89015217516132
 20
-34.15541998253358
 30
0.0
  0
VERTEX
  5
524
330
522
100
AcDbEntity
  8
Marcacao
100
AcDbVertex
100
AcDb2dVertex
 10
-16.98819661960576
 20
-34.1920422047558
 30
0.0
  0
VERTEX
  5
525
330
522
100
AcDbEntity
  8
Marcacao
100
AcDbVertex
100
AcDb2dVertex
 10
-17.01166328627243
 20
-34.24670887142247
 30
0.0
  0
VERTEX
  5
526
330
522
100
AcDbEntity
  8
Marcacao
100
AcDbVertex
100
AcDb2dVertex
 10
-16.99717439738354
 20
-34.37577553808914
 30
0.0
 42
0.4623390654069034
  0
VERTEX
  5
527
330
522
100
AcDbEntity
  8
Marcacao
100
AcDbVertex
100
AcDb2dVertex
 10
-16.85050773071687
 20
-34.51204220475579
 30
0.0
 42
0.3592067416030465
  0
VERTEX
  5
528
330
522
100
AcDbEntity
  8
Marcacao
100
AcDbVertex
100
AcDb2dVertex
 10
-16.66135217516132
 20
-34.39017553808915
 30
0.0
 42
0.4220665217332186
  0
VERTEX
  5
529
330
522
100
AcDbEntity
  8
Marcacao
100
AcDbVertex
100
AcDb2dVertex
 10
-16.74561884182799
 20
-34.1960422047558
 30
0.0
  0
SEQEND
  5
52A
330
522
100
AcDbEntity
  8
Marcacao
  0
POLYLINE
  5
52B
330
1F
100
AcDbEntity
  8
Marcacao
100
AcDb2dPolyline
 66
     1
 10
0.0
 20
0.0
 30
0.0
 70
     1
  0
VERTEX
  5
52C
330
52B
100
AcDbEntity
  8
Marcacao
100
AcDbVertex
100
AcDb2dVertex
 10
-16.92277439738354
 20
-34.42599776031136
 30
0.0
  0
VERTEX
  5
52D
330
52B
100
AcDbEntity
  8
Marcacao
100
AcDbVertex
100
AcDb2dVertex
 10
-16.91797439738354
 20
-34.31790887142247
 30
0.0
  0
VERTEX
  5
52E
330
52B
100
AcDbEntity
  8
Marcacao
100
AcDbVertex
100
AcDb2dVertex
 10
-16.82446328627243
 20
-34.25675331586692
 30
0.0
  0
VERTEX
  5
52F
330
52B
100
AcDbEntity
  8
Marcacao
100
AcDbVertex
100
AcDb2dVertex
 10
-16.72472995293909
 20
-34.32581998253358
 30
0.0
  0
VERTEX
  5
530
330
52B
100
AcDbEntity
  8
Marcacao
100
AcDbVertex
100
AcDb2dVertex
 10
-16.80579661960576
 20
-34.41906442697803
 30
0.0
  0
SEQEND
  5
531
330
52B
100
AcDbEntity
  8
Marcacao
  0
POLYLINE
  5
532
330
1F
100
AcDbEntity
  8
Marcacao
100
AcDb2dPolyline
 66
     1
 10
0.0
 20
0.0
 30
0.0
 70
     1
  0
VERTEX
  5
533
330
532
100
AcDbEntity
  8
Marcacao
100
AcDbVertex
100
AcDb2dVertex
 10
-16.65237439738354
 20
-33.70448664920025
 30
0.0
  0
VERTEX
  5
534
330
532
100
AcDbEntity
  8
Marcacao
100
AcDbVertex
100
AcDb2dVertex
 10
-16.77948550849465
 20
-33.53968664920025
 30
0.0
  0
VERTEX
  5
535
330
532
100
AcDbEntity
  8
Marcacao
100
AcDbVertex
100
AcDb2dVertex
 10
-16.96046328627243
 20
-33.6216422047558
 30
0.0
 42
0.6049844008923354
  0
VERTEX
  5
536
330
532
100
AcDbEntity
  8
Marcacao
100
AcDbVertex
100
AcDb2dVertex
 10
-16.83752995293909
 20
-33.91888664920025
 30
0.0
  0
VERTEX
  5
537
330
532
100
AcDbEntity
  8
Marcacao
100
AcDbVertex
100
AcDb2dVertex
 10
-16.69886328627243
 20
-33.85408664920025
 30
0.0
  0
SEQEND
  5
538
330
532
100
AcDbEntity
  8
Marcacao
  0
POLYLINE
  5
539
330
1F
100
AcDbEntity
  8
Marcacao
100
AcDb2dPolyline
 66
     1
 10
0.0
 20
0.0
 30
0.0
 70
     1
  0
VERTEX
  5
53A
330
539
100
AcDbEntity
  8
Marcacao
100
AcDbVertex
100
AcDb2dVertex
 10
-16.82064106405021
 20
-33.83408664920024
 30
0.0
  0
VERTEX
  5
53B
330
539
100
AcDbEntity
  8
Marcacao
100
AcDbVertex
100
AcDb2dVertex
 10
-16.92926328627243
 20
-33.73870887142247
 30
0.0
  0
VERTEX
  5
53C
330
539
100
AcDbEntity
  8
Marcacao
100
AcDbVertex
100
AcDb2dVertex
 10
-16.81904106405021
 20
-33.61533109364469
 30
0.0
  0
VERTEX
  5
53D
330
539
100
AcDbEntity
  8
Marcacao
100
AcDbVertex
100
AcDb2dVertex
 10
-16.73148550849465
 20
-33.72146442697802
 30
0.0
  0
SEQEND
  5
53E
330
539
100
AcDbEntity
  8
Marcacao
  0
POLYLINE
  5
53F
330
1F
100
AcDbEntity
  8
Marcacao
100
AcDb2dPolyline
 66
     1
 10
0.0
 20
0.0
 30
0.0
 70
     1
  0
VERTEX
  5
540
330
53F
100
AcDbEntity
  8
Marcacao
100
AcDbVertex
100
AcDb2dVertex
 10
-16.66197439738354
 20
-35.19435331586691
 30
0.0
  0
VERTEX
  5
541
330
53F
100
AcDbEntity
  8
Marcacao
100
AcDbVertex
100
AcDb2dVertex
 10
-16.50632995293909
 20
-35.06261998253358
 30
0.0
  0
VERTEX
  5
542
330
53F
100
AcDbEntity
  8
Marcacao
100
AcDbVertex
100
AcDb2dVertex
 10
-16.54081884182798
 20
-34.89861998253358
 30
0.0
  0
VERTEX
  5
543
330
53F
100
AcDbEntity
  8
Marcacao
100
AcDbVertex
100
AcDb2dVertex
 10
-16.76108550849465
 20
-34.86217553808913
 30
0.0
  0
VERTEX
  5
544
330
53F
100
AcDbEntity
  8
Marcacao
100
AcDbVertex
100
AcDb2dVertex
 10
-16.82224106405021
 20
-34.93950887142247
 30
0.0
 42
0.3510888768063347
  0
VERTEX
  5
545
330
53F
100
AcDbEntity
  8
Marcacao
100
AcDbVertex
100
AcDb2dVertex
 10
-16.71424106405021
 20
-35.18608664920026
 30
0.0
  0
SEQEND
  5
546
330
53F
100
AcDbEntity
  8
Marcacao
  0
POLYLINE
  5
547
330
1F
100
AcDbEntity
  8
Marcacao
100
AcDb2dPolyline
 66
     1
 10
0.0
 20
0.0
 30
0.0
 70
     1
  0
VERTEX
  5
548
330
547
100
AcDbEntity
  8
Marcacao
100
AcDbVertex
100
AcDb2dVertex
 10
-16.67797439738354
 20
-34.92795331586692
 30
0.0
  0
VERTEX
  5
549
330
547
100
AcDbEntity
  8
Marcacao
100
AcDbVertex
100
AcDb2dVertex
 10
-16.5679299529391
 20
-34.99541998253358
 30
0.0
  0
VERTEX
  5
54A
330
547
100
AcDbEntity
  8
Marcacao
100
AcDbVertex
100
AcDb2dVertex
 10
-16.66090773071688
 20
-35.09773109364469
 30
0.0
  0
VERTEX
  5
54B
330
547
100
AcDbEntity
  8
Marcacao
100
AcDbVertex
100
AcDb2dVertex
 10
-16.75548550849465
 20
-35.0136422047558
 30
0.0
  0
SEQEND
  5
54C
330
547
100
AcDbEntity
  8
Marcacao
  0
POLYLINE
  5
54D
330
1F
100
AcDbEntity
  8
Marcacao
100
AcDb2dPolyline
 66
     1
 10
0.0
 20
0.0
 30
0.0
 70
     1
  0
VERTEX
  5
54E
330
54D
100
AcDbEntity
  8
Marcacao
100
AcDbVertex
100
AcDb2dVertex
 10
-16.18624106405021
 20
-32.55888664920025
 30
0.0
  0
VERTEX
  5
54F
330
54D
100
AcDbEntity
  8
Marcacao
100
AcDbVertex
100
AcDb2dVertex
 10
-16.26730773071687
 20
-32.51221998253358
 30
0.0
 42
0.5701450777301803
  0
VERTEX
  5
550
330
54D
100
AcDbEntity
  8
Marcacao
100
AcDbVertex
100
AcDb2dVertex
 10
-16.46401884182798
 20
-32.6088422047558
 30
0.0
  0
VERTEX
  5
551
330
54D
100
AcDbEntity
  8
Marcacao
100
AcDbVertex
100
AcDb2dVertex
 10
-16.47486328627243
 20
-32.64466442697803
 30
0.0
  0
VERTEX
  5
552
330
54D
100
AcDbEntity
  8
Marcacao
100
AcDbVertex
100
AcDb2dVertex
 10
-16.43228550849465
 20
-32.79141998253358
 30
0.0
  0
VERTEX
  5
553
330
54D
100
AcDbEntity
  8
Marcacao
100
AcDbVertex
100
AcDb2dVertex
 10
-16.25548550849465
 20
-32.80253109364469
 30
0.0
  0
VERTEX
  5
554
330
54D
100
AcDbEntity
  8
Marcacao
100
AcDbVertex
100
AcDb2dVertex
 10
-16.17415217516132
 20
-32.64306442697803
 30
0.0
  0
VERTEX
  5
555
330
54D
100
AcDbEntity
  8
Marcacao
100
AcDbVertex
100
AcDb2dVertex
 10
-16.18624106405021
 20
-32.55897553808914
 30
0.0
  0
SEQEND
  5
556
330
54D
100
AcDbEntity
  8
Marcacao
  0
POLYLINE
  5
557
330
1F
100
AcDbEntity
  8
Marcacao
100
AcDb2dPolyline
 66
     1
 10
0.0
 20
0.0
 30
0.0
 70
     1
  0
VERTEX
  5
558
330
557
100
AcDbEntity
  8
Marcacao
100
AcDbVertex
100
AcDb2dVertex
 10
-16.32837439738354
 20
-32.57977553808914
 30
0.0
  0
VERTEX
  5
559
330
557
100
AcDbEntity
  8
Marcacao
100
AcDbVertex
100
AcDb2dVertex
 10
-16.2487299529391
 20
-32.65950887142247
 30
0.0
  0
VERTEX
  5
55A
330
557
100
AcDbEntity
  8
Marcacao
100
AcDbVertex
100
AcDb2dVertex
 10
-16.34686328627243
 20
-32.74297553808913
 30
0.0
  0
VERTEX
  5
55B
330
557
100
AcDbEntity
  8
Marcacao
100
AcDbVertex
100
AcDb2dVertex
 10
-16.41477439738354
 20
-32.69079776031136
 30
0.0
  0
SEQEND
  5
55C
330
557
100
AcDbEntity
  8
Marcacao
  0
POLYLINE
  5
55D
330
1F
100
AcDbEntity
  8
Marcacao
100
AcDb2dPolyline
 66
     1
 10
0.0
 20
0.0
 30
0.0
 70
     1
  0
VERTEX
  5
55E
330
55D
100
AcDbEntity
  8
Marcacao
100
AcDbVertex
100
AcDb2dVertex
 10
-16.17966328627243
 20
-35.56768664920025
 30
0.0
  0
VERTEX
  5
55F
330
55D
100
AcDbEntity
  8
Marcacao
100
AcDbVertex
100
AcDb2dVertex
 10
-16.29797439738354
 20
-35.49879776031135
 30
0.0
 42
0.5376361098482385
  0
VERTEX
  5
560
330
55D
100
AcDbEntity
  8
Marcacao
100
AcDbVertex
100
AcDb2dVertex
 10
-16.47655217516132
 20
-35.66786442697802
 30
0.0
 42
0.3702656580276479
  0
VERTEX
  5
561
330
55D
100
AcDbEntity
  8
Marcacao
100
AcDbVertex
100
AcDb2dVertex
 10
-16.28721884182799
 20
-35.81390887142247
 30
0.0
 42
0.4583509996213593
  0
VERTEX
  5
562
330
55D
100
AcDbEntity
  8
Marcacao
100
AcDbVertex
100
AcDb2dVertex
 10
-16.16615217516132
 20
-35.63648664920026
 30
0.0
  0
VERTEX
  5
563
330
55D
100
AcDbEntity
  8
Marcacao
100
AcDbVertex
100
AcDb2dVertex
 10
-16.18179661960576
 20
-35.56333109364469
 30
0.0
  0
SEQEND
  5
564
330
55D
100
AcDbEntity
  8
Marcacao
  0
POLYLINE
  5
565
330
1F
100
AcDbEntity
  8
Marcacao
100
AcDb2dPolyline
 66
     1
 10
0.0
 20
0.0
 30
0.0
 70
     1
  0
VERTEX
  5
566
330
565
100
AcDbEntity
  8
Marcacao
100
AcDbVertex
100
AcDb2dVertex
 10
-16.39726328627243
 20
-35.65053109364469
 30
0.0
  0
VERTEX
  5
567
330
565
100
AcDbEntity
  8
Marcacao
100
AcDbVertex
100
AcDb2dVertex
 10
-16.3183299529391
 20
-35.58653109364469
 30
0.0
  0
VERTEX
  5
568
330
565
100
AcDbEntity
  8
Marcacao
100
AcDbVertex
100
AcDb2dVertex
 10
-16.23450773071687
 20
-35.65390887142247
 30
0.0
  0
VERTEX
  5
569
330
565
100
AcDbEntity
  8
Marcacao
100
AcDbVertex
100
AcDb2dVertex
 10
-16.30481884182798
 20
-35.71461998253358
 30
0.0
  0
SEQEND
  5
56A
330
565
100
AcDbEntity
  8
Marcacao
  0
ENDSEC
  0
SECTION
  2
OBJECTS
  0
DICTIONARY
  5
C
330
0
100
AcDbDictionary
281
     1
  3
ACAD_DETAILVIEWSTYLE
350
5A6
  3
ACAD_GROUP
350
D
  3
ACAD_LAYOUT
350
1A
  3
ACAD_MATERIAL
350
43
  3
ACAD_MLEADERSTYLE
350
6B
  3
ACAD_MLINESTYLE
350
17
  3
ACAD_PLOTSETTINGS
350
19
  3
ACAD_PLOTSTYLENAME
350
E
  3
ACAD_SCALELIST
350
47
  3
ACAD_SECTIONVIEWSTYLE
350
5A7
  3
ACAD_TABLESTYLE
350
69
  3
ACAD_VISUALSTYLE
350
2A
  3
ACDB_RECOMPOSE_DATA
350
5A3
  3
AcDbVariableDictionary
350
56B
  0
SUN
  5
6D
330
29
100
AcDbSun
 90
        1
290
     0
 63
     7
421
 16777215
 40
1.0
291
     1
 91
  2455826
 92
 54000000
292
     0
 70
     2
 71
   256
280
     1
  0
DICTIONARY
  5
5A6
102
{ACAD_REACTORS
330
C
102
}
330
C
100
AcDbDictionary
281
     1
  0
DICTIONARY
  5
D
102
{ACAD_REACTORS
330
C
102
}
330
C
100
AcDbDictionary
281
     1
  0
DICTIONARY
  5
1A
102
{ACAD_REACTORS
330
C
102
}
330
C
100
AcDbDictionary
281
     1
  3
Layout1
350
1E
  3
Layout2
350
26
  3
Model
350
22
  0
DICTIONARY
  5
43
102
{ACAD_REACTORS
330
C
102
}
330
C
100
AcDbDictionary
281
     1
  3
ByBlock
350
45
  3
ByLayer
350
44
  3
Global
350
46
  0
DICTIONARY
  5
6B
102
{ACAD_REACTORS
330
C
102
}
330
C
100
AcDbDictionary
281
     1
  3
Standard
350
6C
  0
DICTIONARY
  5
17
102
{ACAD_REACTORS
330
C
102
}
330
C
100
AcDbDictionary
281
     1
  3
Standard
350
18
  0
DICTIONARY
  5
19
102
{ACAD_REACTORS
330
C
102
}
330
C
100
AcDbDictionary
281
     1
  0
ACDBDICTIONARYWDFLT
  5
E
102
{ACAD_REACTORS
330
C
102
}
330
C
100
AcDbDictionary
281
     1
  3
Normal
350
F
100
AcDbDictionaryWithDefault
340
F
  0
DICTIONARY
  5
47
102
{ACAD_REACTORS
330
C
102
}
330
C
100
AcDbDictionary
281
     1
  3
A0
350
48
  3
A1
350
49
  3
A2
350
4A
  3
A3
350
4B
  3
A4
350
4C
  3
A5
350
4D
  3
A6
350
4E
  3
A7
350
4F
  3
A8
350
50
  3
A9
350
51
  3
B0
350
52
  3
B1
350
53
  3
B2
350
54
  3
B3
350
55
  3
B4
350
56
  3
B5
350
57
  3
B6
350
58
  3
B7
350
59
  3
B8
350
5A
  3
B9
350
5B
  3
C0
350
5C
  3
C1
350
5D
  3
C2
350
5E
  3
C3
350
5F
  3
C4
350
60
  3
C5
350
61
  3
C6
350
62
  3
C7
350
63
  3
C8
350
64
  3
C9
350
65
  3
D0
350
66
  3
D1
350
67
  3
D2
350
68
  0
DICTIONARY
  5
5A7
102
{ACAD_REACTORS
330
C
102
}
330
C
100
AcDbDictionary
281
     1
  0
DICTIONARY
  5
69
102
{ACAD_REACTORS
330
C
102
}
330
C
100
AcDbDictionary
281
     1
  3
Standard
350
6A
  0
DICTIONARY
  5
2A
102
{ACAD_REACTORS
330
C
102
}
330
C
100
AcDbDictionary
281
     1
  3
2dWireframe
350
2F
  3
Basic
350
32
  3
Brighten
350
36
  3
ColorChange
350
3A
  3
Conceptual
350
34
  3
Dim
350
35
  3
EdgeColorOff
350
3D
  3
Facepattern
350
39
  3
Flat
350
2B
  3
FlatWithEdges
350
2C
  3
Gouraud
350
2D
  3
GouraudWithEdges
350
2E
  3
Hidden
350
31
  3
JitterOff
350
3B
  3
Linepattern
350
38
  3
OverhangOff
350
3C
  3
Realistic
350
33
  3
Shaded
350
42
  3
Shaded with edges
350
41
  3
Shades of Gray
350
3E
  3
Sketchy
350
3F
  3
Thicken
350
37
  3
Wireframe
350
30
  3
X-Ray
350
40
  0
XRECORD
  5
5A3
102
{ACAD_REACTORS
330
C
102
}
330
C
100
AcDbXrecord
280
     1
 90
        1
330
6A
  0
DICTIONARY
  5
56B
102
{ACAD_REACTORS
330
C
102
}
330
C
100
AcDbDictionary
281
     1
  3
CANNOSCALE
350
56C
  3
CMLEADERSTYLE
350
5A5
  3
CTABLESTYLE
350
5A4
  3
XCLIPFRAME
350
56D
  0
LAYOUT
  5
1E
102
{ACAD_REACTORS
330
1A
102
}
330
1A
100
AcDbPlotSettings
  1

  2
none_device
  4

  6

 40
0.0
 41
0.0
 42
0.0
 43
0.0
 44
0.0
 45
0.0
 46
0.0
 47
0.0
 48
0.0
 49
0.0
140
0.0
141
0.0
142
1.0
143
1.0
 70
   688
 72
     0
 73
     0
 74
     5
  7

 75
    16
 76
     0
 77
     2
 78
   300
147
1.0
148
0.0
149
0.0
100
AcDbLayout
  1
Layout1
 70
     1
 71
     1
 10
0.0
 20
0.0
 11
12.0
 21
9.0
 12
0.0
 22
0.0
 32
0.0
 14
1.000000000000000E+20
 24
1.000000000000000E+20
 34
1.000000000000000E+20
 15
-1.000000000000000E+20
 25
-1.000000000000000E+20
 35
-1.000000000000000E+20
146
0.0
 13
0.0
 23
0.0
 33
0.0
 16
1.0
 26
0.0
 36
0.0
 17
0.0
 27
1.0
 37
0.0
 76
     0
330
1B
  0
LAYOUT
  5
26
102
{ACAD_REACTORS
330
1A
102
}
330
1A
100
AcDbPlotSettings
  1

  2
none_device
  4

  6

 40
0.0
 41
0.0
 42
0.0
 43
0.0
 44
0.0
 45
0.0
 46
0.0
 47
0.0
 48
0.0
 49
0.0
140
0.0
141
0.0
142
1.0
143
1.0
 70
   688
 72
     0
 73
     0
 74
     5
  7

 75
    16
 76
     0
 77
     2
 78
   300
147
1.0
148
0.0
149
0.0
100
AcDbLayout
  1
Layout2
 70
     1
 71
     2
 10
0.0
 20
0.0
 11
0.0
 21
0.0
 12
0.0
 22
0.0
 32
0.0
 14
0.0
 24
0.0
 34
0.0
 15
0.0
 25
0.0
 35
0.0
146
0.0
 13
0.0
 23
0.0
 33
0.0
 16
1.0
 26
0.0
 36
0.0
 17
0.0
 27
1.0
 37
0.0
 76
     0
330
23
  0
LAYOUT
  5
22
102
{ACAD_REACTORS
330
1A
102
}
330
1A
100
AcDbPlotSettings
  1

  2
none_device
  4
Letter_(8.50_x_11.00_Inches)
  6

 40
6.35
 41
6.35
 42
6.35000508
 43
6.35000508
 44
215.9
 45
279.4
 46
0.0
 47
0.0
 48
0.0
 49
0.0
140
0.0
141
0.0
142
1.0
143
1.0
 70
  1712
 72
     0
 73
     0
 74
     0
  7

 75
     0
 76
     0
 77
     2
 78
   300
147
1.0
148
0.0
149
0.0
100
AcDbLayout
  1
Model
 70
     1
 71
     0
 10
0.0
 20
0.0
 11
12.0
 21
9.0
 12
0.0
 22
0.0
 32
0.0
 14
1.000000000000000E+20
 24
1.000000000000000E+20
 34
1.000000000000000E+20
 15
-1.000000000000000E+20
 25
-1.000000000000000E+20
 35
-1.000000000000000E+20
146
0.0
 13
0.0
 23
0.0
 33
0.0
 16
1.0
 26
0.0
 36
0.0
 17
0.0
 27
1.0
 37
0.0
 76
     0
330
1F
331
29
  0
MATERIAL
  5
45
102
{ACAD_REACTORS
330
43
102
}
330
43
100
AcDbMaterial
  1
ByBlock
 72
     1
 94
      127
  0
MATERIAL
  5
44
102
{ACAD_REACTORS
330
43
102
}
330
43
100
AcDbMaterial
  1
ByLayer
 72
     1
 94
      127
  0
MATERIAL
  5
46
102
{ACAD_REACTORS
330
43
102
}
330
43
100
AcDbMaterial
  1
Global
 72
     1
 94
      127
  0
MLEADERSTYLE
  5
6C
102
{ACAD_REACTORS
330
6B
102
}
102
{ACAD_XDICTIONARY
360
5A1
102
}
330
6B
100
AcDbMLeaderStyle
170
     2
171
     1
172
     0
 90
        2
 40
0.0
 41
0.0
173
     1
 91
-1056964608
340
14
 92
       -2
290
     1
 42
0.09
291
     1
 43
0.36
  3
Standard
341
0
 44
0.18
300

342
11
174
     1
178
     6
175
     1
176
     0
 93
-1056964608
 45
0.18
292
     0
297
     0
 46
0.18
343
0
 94
-1056964608
 47
1.0
 49
1.0
140
1.0
293
     1
141
0.0
294
     1
177
     0
142
1.0
295
     0
296
     0
143
0.125
1001
ACAD_MLEADERVER
1070
     2
  0
MLINESTYLE
  5
18
102
{ACAD_REACTORS
330
17
102
}
330
17
100
AcDbMlineStyle
  2
Standard
 70
     0
  3

 62
   256
 51
90.0
 52
90.0
 71
     2
 49
0.5
 62
   256
  6
BYLAYER
 49
-0.5
 62
   256
  6
BYLAYER
  0
ACDBPLACEHOLDER
  5
F
102
{ACAD_REACTORS
330
E
102
}
330
E
  0
SCALE
  5
48
102
{ACAD_REACTORS
330
47
102
}
330
47
100
AcDbScale
 70
     0
300
1:1
140
1.0
141
1.0
290
     1
  0
SCALE
  5
49
102
{ACAD_REACTORS
330
47
102
}
330
47
100
AcDbScale
 70
     0
300
1:2
140
1.0
141
2.0
290
     0
  0
SCALE
  5
4A
102
{ACAD_REACTORS
330
47
102
}
330
47
100
AcDbScale
 70
     0
300
1:4
140
1.0
141
4.0
290
     0
  0
SCALE
  5
4B
102
{ACAD_REACTORS
330
47
102
}
330
47
100
AcDbScale
 70
     0
300
1:5
140
1.0
141
5.0
290
     0
  0
SCALE
  5
4C
102
{ACAD_REACTORS
330
47
102
}
330
47
100
AcDbScale
 70
     0
300
1:8
140
1.0
141
8.0
290
     0
  0
SCALE
  5
4D
102
{ACAD_REACTORS
330
47
102
}
330
47
100
AcDbScale
 70
     0
300
1:10
140
1.0
141
10.0
290
     0
  0
SCALE
  5
4E
102
{ACAD_REACTORS
330
47
102
}
330
47
100
AcDbScale
 70
     0
300
1:16
140
1.0
141
16.0
290
     0
  0
SCALE
  5
4F
102
{ACAD_REACTORS
330
47
102
}
330
47
100
AcDbScale
 70
     0
300
1:20
140
1.0
141
20.0
290
     0
  0
SCALE
  5
50
102
{ACAD_REACTORS
330
47
102
}
330
47
100
AcDbScale
 70
     0
300
1:30
140
1.0
141
30.0
290
     0
  0
SCALE
  5
51
102
{ACAD_REACTORS
330
47
102
}
330
47
100
AcDbScale
 70
     0
300
1:40
140
1.0
141
40.0
290
     0
  0
SCALE
  5
52
102
{ACAD_REACTORS
330
47
102
}
330
47
100
AcDbScale
 70
     0
300
1:50
140
1.0
141
50.0
290
     0
  0
SCALE
  5
53
102
{ACAD_REACTORS
330
47
102
}
330
47
100
AcDbScale
 70
     0
300
1:100
140
1.0
141
100.0
290
     0
  0
SCALE
  5
54
102
{ACAD_REACTORS
330
47
102
}
330
47
100
AcDbScale
 70
     0
300
2:1
140
2.0
141
1.0
290
     0
  0
SCALE
  5
55
102
{ACAD_REACTORS
330
47
102
}
330
47
100
AcDbScale
 70
     0
300
4:1
140
4.0
141
1.0
290
     0
  0
SCALE
  5
56
102
{ACAD_REACTORS
330
47
102
}
330
47
100
AcDbScale
 70
     0
300
8:1
140
8.0
141
1.0
290
     0
  0
SCALE
  5
57
102
{ACAD_REACTORS
330
47
102
}
330
47
100
AcDbScale
 70
     0
300
10:1
140
10.0
141
1.0
290
     0
  0
SCALE
  5
58
102
{ACAD_REACTORS
330
47
102
}
330
47
100
AcDbScale
 70
     0
300
100:1
140
100.0
141
1.0
290
     0
  0
SCALE
  5
59
102
{ACAD_REACTORS
330
47
102
}
330
47
100
AcDbScale
 70
     0
300
1/128" = 1'-0"
140
0.0078125
141
12.0
290
     0
  0
SCALE
  5
5A
102
{ACAD_REACTORS
330
47
102
}
330
47
100
AcDbScale
 70
     0
300
1/64" = 1'-0"
140
0.015625
141
12.0
290
     0
  0
SCALE
  5
5B
102
{ACAD_REACTORS
330
47
102
}
330
47
100
AcDbScale
 70
     0
300
1/32" = 1'-0"
140
0.03125
141
12.0
290
     0
  0
SCALE
  5
5C
102
{ACAD_REACTORS
330
47
102
}
330
47
100
AcDbScale
 70
     0
300
1/16" = 1'-0"
140
0.0625
141
12.0
290
     0
  0
SCALE
  5
5D
102
{ACAD_REACTORS
330
47
102
}
330
47
100
AcDbScale
 70
     0
300
3/32" = 1'-0"
140
0.09375
141
12.0
290
     0
  0
SCALE
  5
5E
102
{ACAD_REACTORS
330
47
102
}
330
47
100
AcDbScale
 70
     0
300
1/8" = 1'-0"
140
0.125
141
12.0
290
     0
  0
SCALE
  5
5F
102
{ACAD_REACTORS
330
47
102
}
330
47
100
AcDbScale
 70
     0
300
3/16" = 1'-0"
140
0.1875
141
12.0
290
     0
  0
SCALE
  5
60
102
{ACAD_REACTORS
330
47
102
}
330
47
100
AcDbScale
 70
     0
300
1/4" = 1'-0"
140
0.25
141
12.0
290
     0
  0
SCALE
  5
61
102
{ACAD_REACTORS
330
47
102
}
330
47
100
AcDbScale
 70
     0
300
3/8" = 1'-0"
140
0.375
141
12.0
290
     0
  0
SCALE
  5
62
102
{ACAD_REACTORS
330
47
102
}
330
47
100
AcDbScale
 70
     0
300
1/2" = 1'-0"
140
0.5
141
12.0
290
     0
  0
SCALE
  5
63
102
{ACAD_REACTORS
330
47
102
}
330
47
100
AcDbScale
 70
     0
300
3/4" = 1'-0"
140
0.75
141
12.0
290
     0
  0
SCALE
  5
64
102
{ACAD_REACTORS
330
47
102
}
330
47
100
AcDbScale
 70
     0
300
1" = 1'-0"
140
1.0
141
12.0
290
     0
  0
SCALE
  5
65
102
{ACAD_REACTORS
330
47
102
}
330
47
100
AcDbScale
 70
     0
300
1-1/2" = 1'-0"
140
1.5
141
12.0
290
     0
  0
SCALE
  5
66
102
{ACAD_REACTORS
330
47
102
}
330
47
100
AcDbScale
 70
     0
300
3" = 1'-0"
140
3.0
141
12.0
290
     0
  0
SCALE
  5
67
102
{ACAD_REACTORS
330
47
102
}
330
47
100
AcDbScale
 70
     0
300
6" = 1'-0"
140
6.0
141
12.0
290
     0
  0
SCALE
  5
68
102
{ACAD_REACTORS
330
47
102
}
330
47
100
AcDbScale
 70
     0
300
1'-0" = 1'-0"
140
12.0
141
12.0
290
     0
  0
TABLESTYLE
  5
6A
102
{ACAD_REACTORS
330
69
102
}
102
{ACAD_XDICTIONARY
360
59E
102
}
330
69
100
AcDbTableStyle
  3
Standard
 70
     0
 71
     0
 40
0.06
 41
0.06
280
     0
281
     0
  7
Standard
140
0.18
170
     2
 62
     0
 63
   257
283
     0
 90
        4
 91
        0
  1

274
    -2
284
     1
 64
     0
275
    -2
285
     1
 65
     0
276
    -2
286
     1
 66
     0
277
    -2
287
     1
 67
     0
278
    -2
288
     1
 68
     0
279
    -2
289
     1
 69
     0
  7
Standard
140
0.25
170
     5
 62
     0
 63
   257
283
     0
 90
        4
 91
        0
  1

274
    -2
284
     1
 64
     0
275
    -2
285
     1
 65
     0
276
    -2
286
     1
 66
     0
277
    -2
287
     1
 67
     0
278
    -2
288
     1
 68
     0
279
    -2
289
     1
 69
     0
  7
Standard
140
0.18
170
     5
 62
     0
 63
   257
283
     0
 90
        4
 91
        0
  1

274
    -2
284
     1
 64
     0
275
    -2
285
     1
 65
     0
276
    -2
286
     1
 66
     0
277
    -2
287
     1
 67
     0
278
    -2
288
     1
 68
     0
279
    -2
289
     1
 69
     0
  0
VISUALSTYLE
  5
2F
102
{ACAD_REACTORS
330
2A
102
}
102
{ACAD_XDICTIONARY
360
576
102
}
330
2A
100
AcDbVisualStyle
  2
2dWireframe
 70
     4
 71
     0
 72
     2
 73
     0
 90
        0
 40
0.6
 41
30.0
 62
     5
 63
     7
421
 16777215
 74
     1
 91
        4
 64
     7
 65
   257
 75
     1
175
     1
 42
1.0
 92
        0
 66
   257
 43
1.0
 76
     1
 77
     6
 78
     2
 67
     7
 79
     5
170
     0
171
     0
290
     0
174
     0
 93
        1
 44
0.0
173
     0
291
     0
 45
0.0
  0
VISUALSTYLE
  5
32
102
{ACAD_REACTORS
330
2A
102
}
102
{ACAD_XDICTIONARY
360
57C
102
}
330
2A
100
AcDbVisualStyle
  2
Basic
 70
     7
 71
     1
 72
     0
 73
     1
 90
        0
 40
0.6
 41
30.0
 62
     5
 63
     7
421
 16777215
 74
     0
 91
        4
 64
     7
 65
   257
 75
     1
175
     1
 42
1.0
 92
        8
 66
     7
 43
1.0
 76
     1
 77
     6
 78
     2
 67
     7
 79
     5
170
     0
171
     0
290
     0
174
     0
 93
        1
 44
0.0
173
     0
291
     1
 45
0.0
  0
VISUALSTYLE
  5
36
102
{ACAD_REACTORS
330
2A
102
}
102
{ACAD_XDICTIONARY
360
584
102
}
330
2A
100
AcDbVisualStyle
  2
Brighten
 70
    12
 71
     2
 72
     2
 73
     0
 90
        0
 40
0.6
 41
30.0
 62
     5
 63
     7
421
 16777215
 74
     1
 91
        4
 64
     7
 65
   257
 75
     1
175
     1
 42
1.0
 92
        8
 66
     7
 43
1.0
 76
     1
 77
     6
 78
     2
 67
     7
 79
     5
170
     0
171
     0
290
     0
174
     0
 93
        1
 44
50.0
173
     0
291
     1
 45
0.0
  0
VISUALSTYLE
  5
3A
102
{ACAD_REACTORS
330
2A
102
}
102
{ACAD_XDICTIONARY
360
58C
102
}
330
2A
100
AcDbVisualStyle
  2
ColorChange
 70
    16
 71
     2
 72
     2
 73
     3
 90
        0
 40
0.6
 41
30.0
 62
     5
 63
     8
421
  8421504
 74
     1
 91
        4
 64
     7
 65
   257
 75
     1
175
     1
 42
1.0
 92
        8
 66
     8
424
  8421504
 43
1.0
 76
     1
 77
     6
 78
     2
 67
     7
 79
     5
170
     0
171
     0
290
     0
174
     0
 93
        1
 44
0.0
173
     0
291
     1
 45
0.0
  0
VISUALSTYLE
  5
34
102
{ACAD_REACTORS
330
2A
102
}
102
{ACAD_XDICTIONARY
360
580
102
}
330
2A
100
AcDbVisualStyle
  2
Conceptual
 70
     9
 71
     3
 72
     2
 73
     0
 90
        0
 40
0.6
 41
30.0
 62
     5
 63
     7
421
 16777215
 74
     2
 91
        2
 64
     7
 65
   257
 75
     1
175
     1
 42
179.0
 92
        8
 66
     7
 43
1.0
 76
     1
 77
     6
 78
     2
 67
     7
 79
     3
170
     0
171
     0
290
     0
174
     0
 93
        1
 44
0.0
173
     0
291
     0
 45
0.0
  0
VISUALSTYLE
  5
35
102
{ACAD_REACTORS
330
2A
102
}
102
{ACAD_XDICTIONARY
360
582
102
}
330
2A
100
AcDbVisualStyle
  2
Dim
 70
    11
 71
     2
 72
     2
 73
     0
 90
        0
 40
0.6
 41
30.0
 62
     5
 63
     7
421
 16777215
 74
     1
 91
        4
 64
     7
 65
   257
 75
     1
175
     1
 42
1.0
 92
        8
 66
     7
 43
1.0
 76
     1
 77
     6
 78
     2
 67
     7
 79
     5
170
     0
171
     0
290
     0
174
     0
 93
        1
 44
-50.0
173
     0
291
     1
 45
0.0
  0
VISUALSTYLE
  5
3D
102
{ACAD_REACTORS
330
2A
102
}
102
{ACAD_XDICTIONARY
360
592
102
}
330
2A
100
AcDbVisualStyle
  2
EdgeColorOff
 70
    22
 71
     2
 72
     2
 73
     0
 90
        0
 40
0.6
 41
30.0
 62
     5
 63
     7
421
 16777215
 74
     1
 91
        4
 64
     7
 65
   257
 75
     1
175
     1
 42
1.0
 92
        8
 66
     7
 43
1.0
 76
     1
 77
     6
 78
     2
 67
     7
 79
     5
170
     0
171
     0
290
     0
174
     0
 93
        1
 44
0.0
173
     0
291
     1
 45
0.0
  0
VISUALSTYLE
  5
39
102
{ACAD_REACTORS
330
2A
102
}
102
{ACAD_XDICTIONARY
360
58A
102
}
330
2A
100
AcDbVisualStyle
  2
Facepattern
 70
    15
 71
     2
 72
     2
 73
     0
 90
        0
 40
0.6
 41
30.0
 62
     5
 63
     7
421
 16777215
 74
     1
 91
        4
 64
     7
 65
   257
 75
     1
175
     1
 42
1.0
 92
        8
 66
     7
 43
1.0
 76
     1
 77
     6
 78
     2
 67
     7
 79
     5
170
     0
171
     0
290
     0
174
     0
 93
        1
 44
0.0
173
     0
291
     1
 45
0.0
  0
VISUALSTYLE
  5
2B
102
{ACAD_REACTORS
330
2A
102
}
102
{ACAD_XDICTIONARY
360
56E
102
}
330
2A
100
AcDbVisualStyle
  2
Flat
 70
     0
 71
     2
 72
     1
 73
     1
 90
        2
 40
0.6
 41
30.0
 62
     5
 63
     7
421
 16777215
 74
     0
 91
        0
 64
     7
 65
   257
 75
     1
175
     1
 42
1.0
 92
        8
 66
     7
 43
1.0
 76
     1
 77
     6
 78
     2
 67
     7
 79
     5
170
     0
171
     0
290
     0
174
     0
 93
       13
 44
0.0
173
     0
291
     1
 45
0.0
  0
VISUALSTYLE
  5
2C
102
{ACAD_REACTORS
330
2A
102
}
102
{ACAD_XDICTIONARY
360
570
102
}
330
2A
100
AcDbVisualStyle
  2
FlatWithEdges
 70
     1
 71
     2
 72
     1
 73
     1
 90
        2
 40
0.6
 41
30.0
 62
     5
 63
     7
421
 16777215
 74
     1
 91
        0
 64
     7
 65
   257
 75
     1
175
     1
 42
1.0
 92
        0
 66
   257
 43
1.0
 76
     1
 77
     6
 78
     2
 67
     7
 79
     5
170
     0
171
     0
290
     0
174
     0
 93
       13
 44
0.0
173
     0
291
     1
 45
0.0
  0
VISUALSTYLE
  5
2D
102
{ACAD_REACTORS
330
2A
102
}
102
{ACAD_XDICTIONARY
360
572
102
}
330
2A
100
AcDbVisualStyle
  2
Gouraud
 70
     2
 71
     2
 72
     2
 73
     1
 90
        2
 40
0.6
 41
30.0
 62
     5
 63
     7
421
 16777215
 74
     0
 91
        0
 64
     7
 65
   257
 75
     1
175
     1
 42
1.0
 92
        0
 66
     7
 43
1.0
 76
     1
 77
     6
 78
     2
 67
     7
 79
     5
170
     0
171
     0
290
     0
174
     0
 93
       13
 44
0.0
173
     0
291
     1
 45
0.0
  0
VISUALSTYLE
  5
2E
102
{ACAD_REACTORS
330
2A
102
}
102
{ACAD_XDICTIONARY
360
574
102
}
330
2A
100
AcDbVisualStyle
  2
GouraudWithEdges
 70
     3
 71
     2
 72
     2
 73
     1
 90
        2
 40
0.6
 41
30.0
 62
     5
 63
     7
421
 16777215
 74
     1
 91
        0
 64
     7
 65
   257
 75
     1
175
     1
 42
1.0
 92
        0
 66
   257
 43
1.0
 76
     1
 77
     6
 78
     2
 67
     7
 79
     5
170
     0
171
     0
290
     0
174
     0
 93
       13
 44
0.0
173
     0
291
     1
 45
0.0
  0
VISUALSTYLE
  5
31
102
{ACAD_REACTORS
330
2A
102
}
102
{ACAD_XDICTIONARY
360
57A
102
}
330
2A
100
AcDbVisualStyle
  2
Hidden
 70
     6
 71
     1
 72
     2
 73
     2
 90
        0
 40
0.6
 41
30.0
 62
     5
 63
     7
421
 16777215
 74
     2
 91
        2
 64
     7
 65
   257
 75
     2
175
     1
 42
40.0
 92
        0
 66
   257
 43
1.0
 76
     1
 77
     6
 78
     2
 67
     7
 79
     3
170
     0
171
     0
290
     0
174
     0
 93
        1
 44
0.0
173
     0
291
     0
 45
0.0
  0
VISUALSTYLE
  5
3B
102
{ACAD_REACTORS
330
2A
102
}
102
{ACAD_XDICTIONARY
360
58E
102
}
330
2A
100
AcDbVisualStyle
  2
JitterOff
 70
    20
 71
     2
 72
     2
 73
     0
 90
        0
 40
0.6
 41
30.0
 62
     5
 63
     7
421
 16777215
 74
     1
 91
        4
 64
     7
 65
   257
 75
     1
175
     1
 42
1.0
 92
       10
 66
     7
 43
1.0
 76
     1
 77
     6
 78
     2
 67
     7
 79
     5
170
     0
171
     0
290
     0
174
     0
 93
        1
 44
0.0
173
     0
291
     1
 45
0.0
  0
VISUALSTYLE
  5
38
102
{ACAD_REACTORS
330
2A
102
}
102
{ACAD_XDICTIONARY
360
588
102
}
330
2A
100
AcDbVisualStyle
  2
Linepattern
 70
    14
 71
     2
 72
     2
 73
     0
 90
        0
 40
0.6
 41
30.0
 62
     5
 63
     7
421
 16777215
 74
     1
 91
        4
 64
     7
 65
   257
 75
     7
175
     7
 42
1.0
 92
        8
 66
     7
 43
1.0
 76
     1
 77
     6
 78
     2
 67
     7
 79
     5
170
     0
171
     0
290
     0
174
     0
 93
        1
 44
0.0
173
     0
291
     1
 45
0.0
  0
VISUALSTYLE
  5
3C
102
{ACAD_REACTORS
330
2A
102
}
102
{ACAD_XDICTIONARY
360
590
102
}
330
2A
100
AcDbVisualStyle
  2
OverhangOff
 70
    21
 71
     2
 72
     2
 73
     0
 90
        0
 40
0.6
 41
30.0
 62
     5
 63
     7
421
 16777215
 74
     1
 91
        4
 64
     7
 65
   257
 75
     1
175
     1
 42
1.0
 92
        9
 66
     7
 43
1.0
 76
     1
 77
     6
 78
     2
 67
     7
 79
     5
170
     0
171
     0
290
     0
174
     0
 93
        1
 44
0.0
173
     0
291
     1
 45
0.0
  0
VISUALSTYLE
  5
33
102
{ACAD_REACTORS
330
2A
102
}
102
{ACAD_XDICTIONARY
360
57E
102
}
330
2A
100
AcDbVisualStyle
  2
Realistic
 70
     8
 71
     2
 72
     3
 73
     0
 90
        2
 40
0.6
 41
30.0
 62
     5
 63
     7
421
 16777215
 74
     0
 91
        0
 64
     7
 65
   257
 75
     1
175
     1
 42
1.0
 92
        8
 66
   257
 43
1.0
 76
     1
 77
     6
 78
     2
 67
     7
 79
     3
170
     0
171
     0
290
     0
174
     0
 93
       13
 44
0.0
173
     0
291
     0
 45
0.0
  0
VISUALSTYLE
  5
42
102
{ACAD_REACTORS
330
2A
102
}
102
{ACAD_XDICTIONARY
360
59C
102
}
330
2A
100
AcDbVisualStyle
  2
Shaded
 70
    27
 71
     2
 72
     2
 73
     1
 90
        2
 40
0.6
 41
30.0
 62
     5
 63
     7
421
 16777215
 74
     0
 91
        4
 64
     7
 65
   257
 75
     1
175
     1
 42
1.0
 92
        8
 66
   257
 43
1.0
 76
     1
 77
     6
 78
     2
 67
     8
425
  7895160
 79
     3
170
     0
171
     0
290
     0
174
     0
 93
        5
 44
0.0
173
     0
291
     0
 45
0.0
  0
VISUALSTYLE
  5
41
102
{ACAD_REACTORS
330
2A
102
}
102
{ACAD_XDICTIONARY
360
59A
102
}
330
2A
100
AcDbVisualStyle
  2
Shaded with edges
 70
    26
 71
     2
 72
     2
 73
     1
 90
        2
 40
0.6
 41
30.0
 62
     5
 63
     7
421
 16777215
 74
     1
 91
       10
 64
     7
 65
   257
 75
     2
175
     1
 42
1.0
 92
        8
 66
   257
 43
1.0
 76
     1
 77
     6
 78
     2
 67
     7
 79
     3
170
     0
171
     0
290
     0
174
     0
 93
        5
 44
0.0
173
     0
291
     0
 45
0.0
  0
VISUALSTYLE
  5
3E
102
{ACAD_REACTORS
330
2A
102
}
102
{ACAD_XDICTIONARY
360
594
102
}
330
2A
100
AcDbVisualStyle
  2
Shades of Gray
 70
    23
 71
     2
 72
     2
 73
     3
 90
        0
 40
0.6
 41
30.0
 62
     5
 63
     7
421
 16777215
 74
     2
 91
        2
 64
     7
 65
     7
 75
     1
175
     1
 42
40.0
 92
        8
 66
     7
 43
1.0
 76
     1
 77
     6
 78
     2
 67
     7
 79
     3
170
     0
171
     0
290
     0
174
     0
 93
        1
 44
0.0
173
     0
291
     0
 45
0.0
  0
VISUALSTYLE
  5
3F
102
{ACAD_REACTORS
330
2A
102
}
102
{ACAD_XDICTIONARY
360
596
102
}
330
2A
100
AcDbVisualStyle
  2
Sketchy
 70
    24
 71
     1
 72
     2
 73
     2
 90
        0
 40
0.6
 41
30.0
 62
     5
 63
     7
421
 16777215
 74
     2
 91
        2
 64
     7
 65
     7
 75
     1
175
     1
 42
40.0
 92
       11
 66
     7
 43
1.0
 76
     1
 77
     6
 78
     2
 67
     7
 79
     6
170
     0
171
     0
290
     0
174
     0
 93
        1
 44
0.0
173
     0
291
     0
 45
0.0
  0
VISUALSTYLE
  5
37
102
{ACAD_REACTORS
330
2A
102
}
102
{ACAD_XDICTIONARY
360
586
102
}
330
2A
100
AcDbVisualStyle
  2
Thicken
 70
    13
 71
     2
 72
     2
 73
     0
 90
        0
 40
0.6
 41
30.0
 62
     5
 63
     7
421
 16777215
 74
     1
 91
        4
 64
     7
 65
   257
 75
     1
175
     1
 42
1.0
 92
       12
 66
     7
 43
1.0
 76
     1
 77
     6
 78
     2
 67
     7
 79
     5
170
     0
171
     0
290
     0
174
     0
 93
        1
 44
0.0
173
     0
291
     1
 45
0.0
  0
VISUALSTYLE
  5
30
102
{ACAD_REACTORS
330
2A
102
}
102
{ACAD_XDICTIONARY
360
578
102
}
330
2A
100
AcDbVisualStyle
  2
Wireframe
 70
     5
 71
     0
 72
     2
 73
     0
 90
        0
 40
0.6
 41
30.0
 62
     5
 63
     7
421
 16777215
 74
     1
 91
        4
 64
     7
 65
   257
 75
     1
175
     1
 42
1.0
 92
        0
 66
   257
 43
1.0
 76
     1
 77
     6
 78
     2
 67
     7
 79
     3
170
     0
171
     0
290
     0
174
     0
 93
        1
 44
0.0
173
     0
291
     0
 45
0.0
  0
VISUALSTYLE
  5
40
102
{ACAD_REACTORS
330
2A
102
}
102
{ACAD_XDICTIONARY
360
598
102
}
330
2A
100
AcDbVisualStyle
  2
X-Ray
 70
    25
 71
     2
 72
     2
 73
     1
 90
        1
 40
0.5
 41
30.0
 62
     5
 63
     7
421
 16777215
 74
     1
 91
        0
 64
     7
 65
   257
 75
     1
175
     1
 42
1.0
 92
        8
 66
     7
 43
1.0
 76
     1
 77
     6
 78
     2
 67
     7
 79
     3
170
     0
171
     0
290
     0
174
     0
 93
       13
 44
0.0
173
     0
291
     0
 45
0.0
  0
DICTIONARYVAR
  5
56C
102
{ACAD_REACTORS
330
56B
102
}
330
56B
100
DictionaryVariables
280
     0
  1
1:1
  0
DICTIONARYVAR
  5
5A5
102
{ACAD_REACTORS
330
56B
102
}
330
56B
100
DictionaryVariables
280
     0
  1
Standard
  0
DICTIONARYVAR
  5
5A4
102
{ACAD_REACTORS
330
56B
102
}
330
56B
100
DictionaryVariables
280
     0
  1
Standard
  0
DICTIONARYVAR
  5
56D
102
{ACAD_REACTORS
330
56B
102
}
330
56B
100
DictionaryVariables
280
     0
  1
2
  0
DICTIONARY
  5
5A1
330
6C
100
AcDbDictionary
280
     1
281
     1
  3
ACAD_XREC_ROUNDTRIP
360
5A2
  0
DICTIONARY
  5
59E
330
6A
100
AcDbDictionary
280
     1
281
     1
  3
ACAD_ROUNDTRIP_2008_TABLESTYLE_CELLSTYLEMAP
360
59F
  0
DICTIONARY
  5
576
330
2F
100
AcDbDictionary
280
     1
281
     1
  3
ACAD_XREC_ROUNDTRIP
360
577
  0
DICTIONARY
  5
57C
330
32
100
AcDbDictionary
280
     1
281
     1
  3
ACAD_XREC_ROUNDTRIP
360
57D
  0
DICTIONARY
  5
584
330
36
100
AcDbDictionary
280
     1
281
     1
  3
ACAD_XREC_ROUNDTRIP
360
585
  0
DICTIONARY
  5
58C
330
3A
100
AcDbDictionary
280
     1
281
     1
  3
ACAD_XREC_ROUNDTRIP
360
58D
  0
DICTIONARY
  5
580
330
34
100
AcDbDictionary
280
     1
281
     1
  3
ACAD_XREC_ROUNDTRIP
360
581
  0
DICTIONARY
  5
582
330
35
100
AcDbDictionary
280
     1
281
     1
  3
ACAD_XREC_ROUNDTRIP
360
583
  0
DICTIONARY
  5
592
330
3D
100
AcDbDictionary
280
     1
281
     1
  3
ACAD_XREC_ROUNDTRIP
360
593
  0
DICTIONARY
  5
58A
330
39
100
AcDbDictionary
280
     1
281
     1
  3
ACAD_XREC_ROUNDTRIP
360
58B
  0
DICTIONARY
  5
56E
330
2B
100
AcDbDictionary
280
     1
281
     1
  3
ACAD_XREC_ROUNDTRIP
360
56F
  0
DICTIONARY
  5
570
330
2C
100
AcDbDictionary
280
     1
281
     1
  3
ACAD_XREC_ROUNDTRIP
360
571
  0
DICTIONARY
  5
572
330
2D
100
AcDbDictionary
280
     1
281
     1
  3
ACAD_XREC_ROUNDTRIP
360
573
  0
DICTIONARY
  5
574
330
2E
100
AcDbDictionary
280
     1
281
     1
  3
ACAD_XREC_ROUNDTRIP
360
575
  0
DICTIONARY
  5
57A
330
31
100
AcDbDictionary
280
     1
281
     1
  3
ACAD_XREC_ROUNDTRIP
360
57B
  0
DICTIONARY
  5
58E
330
3B
100
AcDbDictionary
280
     1
281
     1
  3
ACAD_XREC_ROUNDTRIP
360
58F
  0
DICTIONARY
  5
588
330
38
100
AcDbDictionary
280
     1
281
     1
  3
ACAD_XREC_ROUNDTRIP
360
589
  0
DICTIONARY
  5
590
330
3C
100
AcDbDictionary
280
     1
281
     1
  3
ACAD_XREC_ROUNDTRIP
360
591
  0
DICTIONARY
  5
57E
330
33
100
AcDbDictionary
280
     1
281
     1
  3
ACAD_XREC_ROUNDTRIP
360
57F
  0
DICTIONARY
  5
59C
330
42
100
AcDbDictionary
280
     1
281
     1
  3
ACAD_XREC_ROUNDTRIP
360
59D
  0
DICTIONARY
  5
59A
330
41
100
AcDbDictionary
280
     1
281
     1
  3
ACAD_XREC_ROUNDTRIP
360
59B
  0
DICTIONARY
  5
594
330
3E
100
AcDbDictionary
280
     1
281
     1
  3
ACAD_XREC_ROUNDTRIP
360
595
  0
DICTIONARY
  5
596
330
3F
100
AcDbDictionary
280
     1
281
     1
  3
ACAD_XREC_ROUNDTRIP
360
597
  0
DICTIONARY
  5
586
330
37
100
AcDbDictionary
280
     1
281
     1
  3
ACAD_XREC_ROUNDTRIP
360
587
  0
DICTIONARY
  5
578
330
30
100
AcDbDictionary
280
     1
281
     1
  3
ACAD_XREC_ROUNDTRIP
360
579
  0
DICTIONARY
  5
598
330
40
100
AcDbDictionary
280
     1
281
     1
  3
ACAD_XREC_ROUNDTRIP
360
599
  0
XRECORD
  5
5A2
102
{ACAD_REACTORS
330
5A1
102
}
330
5A1
100
AcDbXrecord
280
     1
102
ACAD_ROUNDTRIP_2010_MLEADER_STYLE
  0
CELLSTYLEMAP
  5
59F
102
{ACAD_REACTORS
330
59E
102
}
330
59E
100
AcDbCellStyleMap
 90
        3
300
CELLSTYLE
  1
TABLEFORMAT_BEGIN
 90
        5
170
     1
 91
        0
 92
    32768
 62
   257
 93
        1
300
CONTENTFORMAT
  1
CONTENTFORMAT_BEGIN
 90
        0
 91
        0
 92
        4
 93
        0
300

 40
0.0
140
1.0
 94
        5
 62
     0
340
11
144
0.25
309
CONTENTFORMAT_END
171
     1
301
MARGIN
  1
CELLMARGIN_BEGIN
 40
0.06
 40
0.06
 40
0.06
 40
0.06
 40
0.06
 40
0.06
309
CELLMARGIN_END
 94
        6
 95
        1
302
GRIDFORMAT
  1
GRIDFORMAT_BEGIN
 90
        0
 91
        1
 62
     0
 92
       -2
340
14
 93
        0
 40
0.045
309
GRIDFORMAT_END
 95
        2
302
GRIDFORMAT
  1
GRIDFORMAT_BEGIN
 90
        0
 91
        1
 62
     0
 92
       -2
340
14
 93
        0
 40
0.045
309
GRIDFORMAT_END
 95
        4
302
GRIDFORMAT
  1
GRIDFORMAT_BEGIN
 90
        0
 91
        1
 62
     0
 92
       -2
340
14
 93
        0
 40
0.045
309
GRIDFORMAT_END
 95
        8
302
GRIDFORMAT
  1
GRIDFORMAT_BEGIN
 90
        0
 91
        1
 62
     0
 92
       -2
340
14
 93
        0
 40
0.045
309
GRIDFORMAT_END
 95
       16
302
GRIDFORMAT
  1
GRIDFORMAT_BEGIN
 90
        0
 91
        1
 62
     0
 92
       -2
340
14
 93
        0
 40
0.045
309
GRIDFORMAT_END
 95
       32
302
GRIDFORMAT
  1
GRIDFORMAT_BEGIN
 90
        0
 91
        1
 62
     0
 92
       -2
340
14
 93
        0
 40
0.045
309
GRIDFORMAT_END
309
TABLEFORMAT_END
  1
CELLSTYLE_BEGIN
 90
        1
 91
        1
300
_TITLE
309
CELLSTYLE_END
300
CELLSTYLE
  1
TABLEFORMAT_BEGIN
 90
        5
170
     1
 91
        0
 92
        0
 62
   257
 93
        1
300
CONTENTFORMAT
  1
CONTENTFORMAT_BEGIN
 90
        0
 91
        0
 92
        4
 93
        0
300

 40
0.0
140
1.0
 94
        5
 62
     0
340
11
144
0.18
309
CONTENTFORMAT_END
171
     1
301
MARGIN
  1
CELLMARGIN_BEGIN
 40
0.06
 40
0.06
 40
0.06
 40
0.06
 40
0.06
 40
0.06
309
CELLMARGIN_END
 94
        6
 95
        1
302
GRIDFORMAT
  1
GRIDFORMAT_BEGIN
 90
        0
 91
        1
 62
     0
 92
       -2
340
14
 93
        0
 40
0.045
309
GRIDFORMAT_END
 95
        2
302
GRIDFORMAT
  1
GRIDFORMAT_BEGIN
 90
        0
 91
        1
 62
     0
 92
       -2
340
14
 93
        0
 40
0.045
309
GRIDFORMAT_END
 95
        4
302
GRIDFORMAT
  1
GRIDFORMAT_BEGIN
 90
        0
 91
        1
 62
     0
 92
       -2
340
14
 93
        0
 40
0.045
309
GRIDFORMAT_END
 95
        8
302
GRIDFORMAT
  1
GRIDFORMAT_BEGIN
 90
        0
 91
        1
 62
     0
 92
       -2
340
14
 93
        0
 40
0.045
309
GRIDFORMAT_END
 95
       16
302
GRIDFORMAT
  1
GRIDFORMAT_BEGIN
 90
        0
 91
        1
 62
     0
 92
       -2
340
14
 93
        0
 40
0.045
309
GRIDFORMAT_END
 95
       32
302
GRIDFORMAT
  1
GRIDFORMAT_BEGIN
 90
        0
 91
        1
 62
     0
 92
       -2
340
14
 93
        0
 40
0.045
309
GRIDFORMAT_END
309
TABLEFORMAT_END
  1
CELLSTYLE_BEGIN
 90
        2
 91
        1
300
_HEADER
309
CELLSTYLE_END
300
CELLSTYLE
  1
TABLEFORMAT_BEGIN
 90
        5
170
     1
 91
        0
 92
        0
 62
   257
 93
        1
300
CONTENTFORMAT
  1
CONTENTFORMAT_BEGIN
 90
        0
 91
        0
 92
        4
 93
        0
300

 40
0.0
140
1.0
 94
        2
 62
     0
340
11
144
0.18
309
CONTENTFORMAT_END
171
     1
301
MARGIN
  1
CELLMARGIN_BEGIN
 40
0.06
 40
0.06
 40
0.06
 40
0.06
 40
0.06
 40
0.06
309
CELLMARGIN_END
 94
        6
 95
        1
302
GRIDFORMAT
  1
GRIDFORMAT_BEGIN
 90
        0
 91
        1
 62
     0
 92
       -2
340
14
 93
        0
 40
0.045
309
GRIDFORMAT_END
 95
        2
302
GRIDFORMAT
  1
GRIDFORMAT_BEGIN
 90
        0
 91
        1
 62
     0
 92
       -2
340
14
 93
        0
 40
0.045
309
GRIDFORMAT_END
 95
        4
302
GRIDFORMAT
  1
GRIDFORMAT_BEGIN
 90
        0
 91
        1
 62
     0
 92
       -2
340
14
 93
        0
 40
0.045
309
GRIDFORMAT_END
 95
        8
302
GRIDFORMAT
  1
GRIDFORMAT_BEGIN
 90
        0
 91
        1
 62
     0
 92
       -2
340
14
 93
        0
 40
0.045
309
GRIDFORMAT_END
 95
       16
302
GRIDFORMAT
  1
GRIDFORMAT_BEGIN
 90
        0
 91
        1
 62
     0
 92
       -2
340
14
 93
        0
 40
0.045
309
GRIDFORMAT_END
 95
       32
302
GRIDFORMAT
  1
GRIDFORMAT_BEGIN
 90
        0
 91
        1
 62
     0
 92
       -2
340
14
 93
        0
 40
0.045
309
GRIDFORMAT_END
309
TABLEFORMAT_END
  1
CELLSTYLE_BEGIN
 90
        3
 91
        2
300
_DATA
309
CELLSTYLE_END
  0
XRECORD
  5
577
102
{ACAD_REACTORS
330
576
102
}
330
576
100
AcDbXrecord
280
     1
102
RTVSPropertyOp0
 70
     1
102
RTVSPropertyOp1
 70
     1
102
RTVSPropertyOp2
 70
     1
102
RTVSPropertyOp3
 70
     1
102
RTVSPropertyOp4
 70
     1
102
RTVSPropertyOp5
 70
     1
102
RTVSPropertyOp6
 70
     1
102
RTVSPropertyOp7
 70
     1
102
RTVSPropertyOp8
 70
     1
102
RTVSPropertyOp9
 70
     1
102
RTVSPropertyOp10
 70
     1
102
RTVSPropertyOp11
 70
     1
102
RTVSPropertyOp12
 70
     1
102
RTVSPropertyOp13
 70
     1
102
RTVSPropertyOp14
 70
     1
102
RTVSPropertyOp15
 70
     1
102
RTVSPropertyOp16
 70
     1
102
RTVSPropertyOp17
 70
     1
102
RTVSPropertyOp18
 70
     1
102
RTVSPropertyOp19
 70
     1
102
RTVSPropertyOp20
 70
     1
102
RTVSPropertyOp21
 70
     1
102
RTVSPropertyOp22
 70
     1
102
RTVSPropertyOp23
 70
     1
102
RTVSPropertyOp24
 70
     1
102
RTVSPropertyOp25
 70
     1
102
RTVSPropertyOp26
 70
     1
102
RTVSPropertyOp27
 70
     1
102
RTVSPropertyOp28
 70
     1
102
RTVSPropertyOp29
 70
     1
102
RTVSPropertyOp30
 70
     1
102
RTVSPropertyOp31
 70
     1
102
RTVSPropertyOp32
 70
     1
102
RTVSPropertyOp33
 70
     1
102
RTVSPropertyOp34
 70
     1
102
RTVSPropertyOp35
 70
     1
102
RTVSPropertyOp36
 70
     1
102
RTVSPropertyOp37
 70
     1
102
RTVSPropertyOp38
 70
     1
102
RTVSPropertyOp39
 70
     1
102
RTVSPropertyOp40
 70
     1
102
RTVSPropertyOp41
 70
     1
102
RTVSPropertyOp42
 70
     1
102
RTVSPropertyOp43
 70
     1
102
RTVSPropertyOp44
 70
     1
102
RTVSPropertyOp45
 70
     1
102
RTVSPropertyOp46
 70
     1
102
RTVSPropertyOp47
 70
     1
102
RTVSPropertyOp48
 70
     1
102
RTVSPropertyOp49
 70
     1
102
RTVSPropertyOp50
 70
     1
102
RTVSPropertyOp51
 70
     0
102
RTVSPropertyOp52
 70
     0
102
RTVSPropertyOp53
 70
     1
102
RTVSPropertyOp54
 70
     1
102
RTVSPropertyOp55
 70
     1
102
RTVSPropertyOp56
 70
     1
102
RTVSPropertyOp57
 70
     1
102
RTVSPost2010Prop28
280
     1
102
RTVSPost2010PropOp28
 70
     1
102
RTVSPost2010Prop29
280
     1
102
RTVSPost2010PropOp29
 70
     1
102
RTVSPost2010Prop30
280
     0
102
RTVSPost2010PropOp30
 70
     1
102
RTVSPost2010Prop31
280
     0
102
RTVSPost2010PropOp31
 70
     1
102
RTVSPost2010Prop32
280
     0
102
RTVSPost2010PropOp32
 70
     1
102
RTVSPost2010Prop33
280
     0
102
RTVSPost2010PropOp33
 70
     1
102
RTVSPost2010Prop34
280
     0
102
RTVSPost2010PropOp34
 70
     1
102
RTVSPost2010Prop35
280
     0
102
RTVSPost2010PropOp35
 70
     1
102
RTVSPost2010Prop36
280
     0
102
RTVSPost2010PropOp36
 70
     1
102
RTVSPost2010Prop37
 90
       50
102
RTVSPost2010PropOp37
 70
     1
102
RTVSPost2010Prop38
140
0.0
102
RTVSPost2010PropOp38
 70
     1
102
RTVSPost2010Prop39
140
1.0
102
RTVSPost2010PropOp39
 70
     1
102
RTVSPost2010Prop40
 90
        0
102
RTVSPost2010PropOp40
 70
     1
102
RTVSPost2010Prop41ColorIndex
 90
       18
102
RTVSPost2010Prop41ColorRGB
 90
        0
102
RTVSPost2010PropOp41
 70
     1
102
RTVSPost2010Prop42
 90
       50
102
RTVSPost2010PropOp42
 70
     1
102
RTVSPost2010Prop43
 90
        3
102
RTVSPost2010PropOp43
 70
     1
102
RTVSPost2010Prop44ColorIndex
 90
        5
102
RTVSPost2010Prop44ColorRGB
 90
      255
102
RTVSPost2010PropOp44
 70
     1
102
RTVSPost2010Prop45
280
     0
102
RTVSPost2010PropOp45
 70
     1
102
RTVSPost2010Prop46
 90
       50
102
RTVSPost2010PropOp46
 70
     1
102
RTVSPost2010Prop47
 90
       50
102
RTVSPost2010PropOp47
 70
     1
102
RTVSPost2010Prop48
 90
       50
102
RTVSPost2010PropOp48
 70
     1
102
RTVSPost2010Prop49
280
     0
102
RTVSPost2010PropOp49
 70
     1
102
RTVSPost2010Prop50
 90
       50
102
RTVSPost2010PropOp50
 70
     1
102
RTVSPost2010Prop51ColorIndex
 90
      256
102
RTVSPost2010Prop51ColorRGB
 90
-16777216
102
RTVSPost2010PropOp51
 70
     0
102
RTVSPost2010Prop52
140
1.0
102
RTVSPost2010PropOp52
 70
     0
102
RTVSPost2010Prop53
 90
        2
102
RTVSPost2010PropOp53
 70
     1
102
RTVSPost2010Prop54
  1
strokes_ogs.tif
102
RTVSPost2010PropOp54
 70
     1
102
RTVSPost2010Prop55
280
     0
102
RTVSPost2010PropOp55
 70
     1
102
RTVSPost2010Prop56
140
1.0
102
RTVSPost2010PropOp56
 70
     1
102
RTVSPost2010Prop57
140
1.0
102
RTVSPost2010PropOp57
 70
     1
  0
XRECORD
  5
57D
102
{ACAD_REACTORS
330
57C
102
}
330
57C
100
AcDbXrecord
280
     1
102
RTVSPropertyOp0
 70
     1
102
RTVSPropertyOp1
 70
     1
102
RTVSPropertyOp2
 70
     1
102
RTVSPropertyOp3
 70
     1
102
RTVSPropertyOp4
 70
     1
102
RTVSPropertyOp5
 70
     1
102
RTVSPropertyOp6
 70
     1
102
RTVSPropertyOp7
 70
     1
102
RTVSPropertyOp8
 70
     1
102
RTVSPropertyOp9
 70
     1
102
RTVSPropertyOp10
 70
     1
102
RTVSPropertyOp11
 70
     1
102
RTVSPropertyOp12
 70
     1
102
RTVSPropertyOp13
 70
     1
102
RTVSPropertyOp14
 70
     1
102
RTVSPropertyOp15
 70
     1
102
RTVSPropertyOp16
 70
     1
102
RTVSPropertyOp17
 70
     1
102
RTVSPropertyOp18
 70
     1
102
RTVSPropertyOp19
 70
     1
102
RTVSPropertyOp20
 70
     1
102
RTVSPropertyOp21
 70
     1
102
RTVSPropertyOp22
 70
     1
102
RTVSPropertyOp23
 70
     1
102
RTVSPropertyOp24
 70
     1
102
RTVSPropertyOp25
 70
     1
102
RTVSPropertyOp26
 70
     1
102
RTVSPropertyOp27
 70
     1
102
RTVSPropertyOp28
 70
     1
102
RTVSPropertyOp29
 70
     1
102
RTVSPropertyOp30
 70
     1
102
RTVSPropertyOp31
 70
     1
102
RTVSPropertyOp32
 70
     1
102
RTVSPropertyOp33
 70
     1
102
RTVSPropertyOp34
 70
     1
102
RTVSPropertyOp35
 70
     1
102
RTVSPropertyOp36
 70
     1
102
RTVSPropertyOp37
 70
     1
102
RTVSPropertyOp38
 70
     1
102
RTVSPropertyOp39
 70
     1
102
RTVSPropertyOp40
 70
     1
102
RTVSPropertyOp41
 70
     1
102
RTVSPropertyOp42
 70
     1
102
RTVSPropertyOp43
 70
     1
102
RTVSPropertyOp44
 70
     1
102
RTVSPropertyOp45
 70
     1
102
RTVSPropertyOp46
 70
     1
102
RTVSPropertyOp47
 70
     1
102
RTVSPropertyOp48
 70
     1
102
RTVSPropertyOp49
 70
     1
102
RTVSPropertyOp50
 70
     1
102
RTVSPropertyOp51
 70
     0
102
RTVSPropertyOp52
 70
     0
102
RTVSPropertyOp53
 70
     1
102
RTVSPropertyOp54
 70
     1
102
RTVSPropertyOp55
 70
     1
102
RTVSPropertyOp56
 70
     1
102
RTVSPropertyOp57
 70
     1
102
RTVSPost2010Prop28
280
     0
102
RTVSPost2010PropOp28
 70
     1
102
RTVSPost2010Prop29
280
     1
102
RTVSPost2010PropOp29
 70
     1
102
RTVSPost2010Prop30
280
     1
102
RTVSPost2010PropOp30
 70
     1
102
RTVSPost2010Prop31
280
     0
102
RTVSPost2010PropOp31
 70
     1
102
RTVSPost2010Prop32
280
     0
102
RTVSPost2010PropOp32
 70
     1
102
RTVSPost2010Prop33
280
     0
102
RTVSPost2010PropOp33
 70
     1
102
RTVSPost2010Prop34
280
     0
102
RTVSPost2010PropOp34
 70
     1
102
RTVSPost2010Prop35
280
     0
102
RTVSPost2010PropOp35
 70
     1
102
RTVSPost2010Prop36
280
     0
102
RTVSPost2010PropOp36
 70
     1
102
RTVSPost2010Prop37
 90
       50
102
RTVSPost2010PropOp37
 70
     1
102
RTVSPost2010Prop38
140
0.0
102
RTVSPost2010PropOp38
 70
     1
102
RTVSPost2010Prop39
140
1.0
102
RTVSPost2010PropOp39
 70
     1
102
RTVSPost2010Prop40
 90
        0
102
RTVSPost2010PropOp40
 70
     1
102
RTVSPost2010Prop41ColorIndex
 90
       18
102
RTVSPost2010Prop41ColorRGB
 90
        0
102
RTVSPost2010PropOp41
 70
     1
102
RTVSPost2010Prop42
 90
       50
102
RTVSPost2010PropOp42
 70
     1
102
RTVSPost2010Prop43
 90
        3
102
RTVSPost2010PropOp43
 70
     1
102
RTVSPost2010Prop44ColorIndex
 90
        5
102
RTVSPost2010Prop44ColorRGB
 90
      255
102
RTVSPost2010PropOp44
 70
     1
102
RTVSPost2010Prop45
280
     0
102
RTVSPost2010PropOp45
 70
     1
102
RTVSPost2010Prop46
 90
       50
102
RTVSPost2010PropOp46
 70
     1
102
RTVSPost2010Prop47
 90
       50
102
RTVSPost2010PropOp47
 70
     1
102
RTVSPost2010Prop48
 90
       50
102
RTVSPost2010PropOp48
 70
     1
102
RTVSPost2010Prop49
280
     0
102
RTVSPost2010PropOp49
 70
     1
102
RTVSPost2010Prop50
 90
       50
102
RTVSPost2010PropOp50
 70
     1
102
RTVSPost2010Prop51ColorIndex
 90
      256
102
RTVSPost2010Prop51ColorRGB
 90
-16777216
102
RTVSPost2010PropOp51
 70
     0
102
RTVSPost2010Prop52
140
1.0
102
RTVSPost2010PropOp52
 70
     0
102
RTVSPost2010Prop53
 90
        2
102
RTVSPost2010PropOp53
 70
     1
102
RTVSPost2010Prop54
  1
strokes_ogs.tif
102
RTVSPost2010PropOp54
 70
     1
102
RTVSPost2010Prop55
280
     0
102
RTVSPost2010PropOp55
 70
     1
102
RTVSPost2010Prop56
140
1.0
102
RTVSPost2010PropOp56
 70
     1
102
RTVSPost2010Prop57
140
1.0
102
RTVSPost2010PropOp57
 70
     1
  0
XRECORD
  5
585
102
{ACAD_REACTORS
330
584
102
}
330
584
100
AcDbXrecord
280
     1
102
RTVSPropertyOp0
 70
     1
102
RTVSPropertyOp1
 70
     1
102
RTVSPropertyOp2
 70
     1
102
RTVSPropertyOp3
 70
     1
102
RTVSPropertyOp4
 70
     1
102
RTVSPropertyOp5
 70
     1
102
RTVSPropertyOp6
 70
     1
102
RTVSPropertyOp7
 70
     1
102
RTVSPropertyOp8
 70
     1
102
RTVSPropertyOp9
 70
     1
102
RTVSPropertyOp10
 70
     1
102
RTVSPropertyOp11
 70
     1
102
RTVSPropertyOp12
 70
     1
102
RTVSPropertyOp13
 70
     1
102
RTVSPropertyOp14
 70
     1
102
RTVSPropertyOp15
 70
     1
102
RTVSPropertyOp16
 70
     1
102
RTVSPropertyOp17
 70
     1
102
RTVSPropertyOp18
 70
     1
102
RTVSPropertyOp19
 70
     1
102
RTVSPropertyOp20
 70
     1
102
RTVSPropertyOp21
 70
     1
102
RTVSPropertyOp22
 70
     1
102
RTVSPropertyOp23
 70
     1
102
RTVSPropertyOp24
 70
     1
102
RTVSPropertyOp25
 70
     1
102
RTVSPropertyOp26
 70
     1
102
RTVSPropertyOp27
 70
     1
102
RTVSPropertyOp28
 70
     1
102
RTVSPropertyOp29
 70
     1
102
RTVSPropertyOp30
 70
     1
102
RTVSPropertyOp31
 70
     1
102
RTVSPropertyOp32
 70
     1
102
RTVSPropertyOp33
 70
     1
102
RTVSPropertyOp34
 70
     1
102
RTVSPropertyOp35
 70
     1
102
RTVSPropertyOp36
 70
     1
102
RTVSPropertyOp37
 70
     1
102
RTVSPropertyOp38
 70
     1
102
RTVSPropertyOp39
 70
     1
102
RTVSPropertyOp40
 70
     1
102
RTVSPropertyOp41
 70
     1
102
RTVSPropertyOp42
 70
     1
102
RTVSPropertyOp43
 70
     1
102
RTVSPropertyOp44
 70
     1
102
RTVSPropertyOp45
 70
     1
102
RTVSPropertyOp46
 70
     1
102
RTVSPropertyOp47
 70
     1
102
RTVSPropertyOp48
 70
     1
102
RTVSPropertyOp49
 70
     1
102
RTVSPropertyOp50
 70
     1
102
RTVSPropertyOp51
 70
     0
102
RTVSPropertyOp52
 70
     0
102
RTVSPropertyOp53
 70
     1
102
RTVSPropertyOp54
 70
     1
102
RTVSPropertyOp55
 70
     1
102
RTVSPropertyOp56
 70
     1
102
RTVSPropertyOp57
 70
     1
102
RTVSPost2010Prop28
280
     0
102
RTVSPost2010PropOp28
 70
     1
102
RTVSPost2010Prop29
280
     1
102
RTVSPost2010PropOp29
 70
     1
102
RTVSPost2010Prop30
280
     1
102
RTVSPost2010PropOp30
 70
     1
102
RTVSPost2010Prop31
280
     0
102
RTVSPost2010PropOp31
 70
     1
102
RTVSPost2010Prop32
280
     0
102
RTVSPost2010PropOp32
 70
     1
102
RTVSPost2010Prop33
280
     0
102
RTVSPost2010PropOp33
 70
     1
102
RTVSPost2010Prop34
280
     0
102
RTVSPost2010PropOp34
 70
     1
102
RTVSPost2010Prop35
280
     0
102
RTVSPost2010PropOp35
 70
     1
102
RTVSPost2010Prop36
280
     0
102
RTVSPost2010PropOp36
 70
     1
102
RTVSPost2010Prop37
 90
       50
102
RTVSPost2010PropOp37
 70
     1
102
RTVSPost2010Prop38
140
0.0
102
RTVSPost2010PropOp38
 70
     1
102
RTVSPost2010Prop39
140
1.0
102
RTVSPost2010PropOp39
 70
     1
102
RTVSPost2010Prop40
 90
        0
102
RTVSPost2010PropOp40
 70
     1
102
RTVSPost2010Prop41ColorIndex
 90
       18
102
RTVSPost2010Prop41ColorRGB
 90
        0
102
RTVSPost2010PropOp41
 70
     1
102
RTVSPost2010Prop42
 90
       50
102
RTVSPost2010PropOp42
 70
     1
102
RTVSPost2010Prop43
 90
        3
102
RTVSPost2010PropOp43
 70
     1
102
RTVSPost2010Prop44ColorIndex
 90
        5
102
RTVSPost2010Prop44ColorRGB
 90
      255
102
RTVSPost2010PropOp44
 70
     1
102
RTVSPost2010Prop45
280
     0
102
RTVSPost2010PropOp45
 70
     1
102
RTVSPost2010Prop46
 90
       50
102
RTVSPost2010PropOp46
 70
     1
102
RTVSPost2010Prop47
 90
       50
102
RTVSPost2010PropOp47
 70
     1
102
RTVSPost2010Prop48
 90
       50
102
RTVSPost2010PropOp48
 70
     1
102
RTVSPost2010Prop49
280
     0
102
RTVSPost2010PropOp49
 70
     1
102
RTVSPost2010Prop50
 90
       50
102
RTVSPost2010PropOp50
 70
     1
102
RTVSPost2010Prop51ColorIndex
 90
      256
102
RTVSPost2010Prop51ColorRGB
 90
-16777216
102
RTVSPost2010PropOp51
 70
     0
102
RTVSPost2010Prop52
140
1.0
102
RTVSPost2010PropOp52
 70
     0
102
RTVSPost2010Prop53
 90
        2
102
RTVSPost2010PropOp53
 70
     1
102
RTVSPost2010Prop54
  1
strokes_ogs.tif
102
RTVSPost2010PropOp54
 70
     1
102
RTVSPost2010Prop55
280
     0
102
RTVSPost2010PropOp55
 70
     1
102
RTVSPost2010Prop56
140
1.0
102
RTVSPost2010PropOp56
 70
     1
102
RTVSPost2010Prop57
140
1.0
102
RTVSPost2010PropOp57
 70
     1
  0
XRECORD
  5
58D
102
{ACAD_REACTORS
330
58C
102
}
330
58C
100
AcDbXrecord
280
     1
102
RTVSPropertyOp0
 70
     1
102
RTVSPropertyOp1
 70
     1
102
RTVSPropertyOp2
 70
     1
102
RTVSPropertyOp3
 70
     1
102
RTVSPropertyOp4
 70
     1
102
RTVSPropertyOp5
 70
     1
102
RTVSPropertyOp6
 70
     1
102
RTVSPropertyOp7
 70
     1
102
RTVSPropertyOp8
 70
     1
102
RTVSPropertyOp9
 70
     1
102
RTVSPropertyOp10
 70
     1
102
RTVSPropertyOp11
 70
     1
102
RTVSPropertyOp12
 70
     1
102
RTVSPropertyOp13
 70
     1
102
RTVSPropertyOp14
 70
     1
102
RTVSPropertyOp15
 70
     1
102
RTVSPropertyOp16
 70
     1
102
RTVSPropertyOp17
 70
     1
102
RTVSPropertyOp18
 70
     1
102
RTVSPropertyOp19
 70
     1
102
RTVSPropertyOp20
 70
     1
102
RTVSPropertyOp21
 70
     1
102
RTVSPropertyOp22
 70
     1
102
RTVSPropertyOp23
 70
     1
102
RTVSPropertyOp24
 70
     1
102
RTVSPropertyOp25
 70
     1
102
RTVSPropertyOp26
 70
     1
102
RTVSPropertyOp27
 70
     1
102
RTVSPropertyOp28
 70
     1
102
RTVSPropertyOp29
 70
     1
102
RTVSPropertyOp30
 70
     1
102
RTVSPropertyOp31
 70
     1
102
RTVSPropertyOp32
 70
     1
102
RTVSPropertyOp33
 70
     1
102
RTVSPropertyOp34
 70
     1
102
RTVSPropertyOp35
 70
     1
102
RTVSPropertyOp36
 70
     1
102
RTVSPropertyOp37
 70
     1
102
RTVSPropertyOp38
 70
     1
102
RTVSPropertyOp39
 70
     1
102
RTVSPropertyOp40
 70
     1
102
RTVSPropertyOp41
 70
     1
102
RTVSPropertyOp42
 70
     1
102
RTVSPropertyOp43
 70
     1
102
RTVSPropertyOp44
 70
     1
102
RTVSPropertyOp45
 70
     1
102
RTVSPropertyOp46
 70
     1
102
RTVSPropertyOp47
 70
     1
102
RTVSPropertyOp48
 70
     1
102
RTVSPropertyOp49
 70
     1
102
RTVSPropertyOp50
 70
     1
102
RTVSPropertyOp51
 70
     0
102
RTVSPropertyOp52
 70
     0
102
RTVSPropertyOp53
 70
     1
102
RTVSPropertyOp54
 70
     1
102
RTVSPropertyOp55
 70
     1
102
RTVSPropertyOp56
 70
     1
102
RTVSPropertyOp57
 70
     1
102
RTVSPost2010Prop28
280
     0
102
RTVSPost2010PropOp28
 70
     1
102
RTVSPost2010Prop29
280
     1
102
RTVSPost2010PropOp29
 70
     1
102
RTVSPost2010Prop30
280
     1
102
RTVSPost2010PropOp30
 70
     1
102
RTVSPost2010Prop31
280
     0
102
RTVSPost2010PropOp31
 70
     1
102
RTVSPost2010Prop32
280
     0
102
RTVSPost2010PropOp32
 70
     1
102
RTVSPost2010Prop33
280
     0
102
RTVSPost2010PropOp33
 70
     1
102
RTVSPost2010Prop34
280
     0
102
RTVSPost2010PropOp34
 70
     1
102
RTVSPost2010Prop35
280
     0
102
RTVSPost2010PropOp35
 70
     1
102
RTVSPost2010Prop36
280
     0
102
RTVSPost2010PropOp36
 70
     1
102
RTVSPost2010Prop37
 90
       50
102
RTVSPost2010PropOp37
 70
     1
102
RTVSPost2010Prop38
140
0.0
102
RTVSPost2010PropOp38
 70
     1
102
RTVSPost2010Prop39
140
1.0
102
RTVSPost2010PropOp39
 70
     1
102
RTVSPost2010Prop40
 90
        0
102
RTVSPost2010PropOp40
 70
     1
102
RTVSPost2010Prop41ColorIndex
 90
       18
102
RTVSPost2010Prop41ColorRGB
 90
        0
102
RTVSPost2010PropOp41
 70
     1
102
RTVSPost2010Prop42
 90
       50
102
RTVSPost2010PropOp42
 70
     1
102
RTVSPost2010Prop43
 90
        3
102
RTVSPost2010PropOp43
 70
     1
102
RTVSPost2010Prop44ColorIndex
 90
        5
102
RTVSPost2010Prop44ColorRGB
 90
      255
102
RTVSPost2010PropOp44
 70
     1
102
RTVSPost2010Prop45
280
     0
102
RTVSPost2010PropOp45
 70
     1
102
RTVSPost2010Prop46
 90
       50
102
RTVSPost2010PropOp46
 70
     1
102
RTVSPost2010Prop47
 90
       50
102
RTVSPost2010PropOp47
 70
     1
102
RTVSPost2010Prop48
 90
       50
102
RTVSPost2010PropOp48
 70
     1
102
RTVSPost2010Prop49
280
     0
102
RTVSPost2010PropOp49
 70
     1
102
RTVSPost2010Prop50
 90
       50
102
RTVSPost2010PropOp50
 70
     1
102
RTVSPost2010Prop51ColorIndex
 90
      256
102
RTVSPost2010Prop51ColorRGB
 90
-16777216
102
RTVSPost2010PropOp51
 70
     0
102
RTVSPost2010Prop52
140
1.0
102
RTVSPost2010PropOp52
 70
     0
102
RTVSPost2010Prop53
 90
        2
102
RTVSPost2010PropOp53
 70
     1
102
RTVSPost2010Prop54
  1
strokes_ogs.tif
102
RTVSPost2010PropOp54
 70
     1
102
RTVSPost2010Prop55
280
     0
102
RTVSPost2010PropOp55
 70
     1
102
RTVSPost2010Prop56
140
1.0
102
RTVSPost2010PropOp56
 70
     1
102
RTVSPost2010Prop57
140
1.0
102
RTVSPost2010PropOp57
 70
     1
  0
XRECORD
  5
581
102
{ACAD_REACTORS
330
580
102
}
330
580
100
AcDbXrecord
280
     1
102
RTVSPropertyOp0
 70
     1
102
RTVSPropertyOp1
 70
     1
102
RTVSPropertyOp2
 70
     1
102
RTVSPropertyOp3
 70
     1
102
RTVSPropertyOp4
 70
     1
102
RTVSPropertyOp5
 70
     1
102
RTVSPropertyOp6
 70
     1
102
RTVSPropertyOp7
 70
     1
102
RTVSPropertyOp8
 70
     1
102
RTVSPropertyOp9
 70
     1
102
RTVSPropertyOp10
 70
     1
102
RTVSPropertyOp11
 70
     1
102
RTVSPropertyOp12
 70
     1
102
RTVSPropertyOp13
 70
     1
102
RTVSPropertyOp14
 70
     1
102
RTVSPropertyOp15
 70
     1
102
RTVSPropertyOp16
 70
     1
102
RTVSPropertyOp17
 70
     1
102
RTVSPropertyOp18
 70
     1
102
RTVSPropertyOp19
 70
     1
102
RTVSPropertyOp20
 70
     1
102
RTVSPropertyOp21
 70
     1
102
RTVSPropertyOp22
 70
     1
102
RTVSPropertyOp23
 70
     1
102
RTVSPropertyOp24
 70
     1
102
RTVSPropertyOp25
 70
     1
102
RTVSPropertyOp26
 70
     1
102
RTVSPropertyOp27
 70
     1
102
RTVSPropertyOp28
 70
     1
102
RTVSPropertyOp29
 70
     1
102
RTVSPropertyOp30
 70
     1
102
RTVSPropertyOp31
 70
     1
102
RTVSPropertyOp32
 70
     1
102
RTVSPropertyOp33
 70
     1
102
RTVSPropertyOp34
 70
     1
102
RTVSPropertyOp35
 70
     1
102
RTVSPropertyOp36
 70
     1
102
RTVSPropertyOp37
 70
     1
102
RTVSPropertyOp38
 70
     1
102
RTVSPropertyOp39
 70
     1
102
RTVSPropertyOp40
 70
     1
102
RTVSPropertyOp41
 70
     1
102
RTVSPropertyOp42
 70
     1
102
RTVSPropertyOp43
 70
     1
102
RTVSPropertyOp44
 70
     1
102
RTVSPropertyOp45
 70
     1
102
RTVSPropertyOp46
 70
     1
102
RTVSPropertyOp47
 70
     1
102
RTVSPropertyOp48
 70
     1
102
RTVSPropertyOp49
 70
     1
102
RTVSPropertyOp50
 70
     1
102
RTVSPropertyOp51
 70
     0
102
RTVSPropertyOp52
 70
     0
102
RTVSPropertyOp53
 70
     1
102
RTVSPropertyOp54
 70
     1
102
RTVSPropertyOp55
 70
     1
102
RTVSPropertyOp56
 70
     1
102
RTVSPropertyOp57
 70
     1
102
RTVSPost2010Prop28
280
     0
102
RTVSPost2010PropOp28
 70
     1
102
RTVSPost2010Prop29
280
     1
102
RTVSPost2010PropOp29
 70
     1
102
RTVSPost2010Prop30
280
     1
102
RTVSPost2010PropOp30
 70
     1
102
RTVSPost2010Prop31
280
     0
102
RTVSPost2010PropOp31
 70
     1
102
RTVSPost2010Prop32
280
     0
102
RTVSPost2010PropOp32
 70
     1
102
RTVSPost2010Prop33
280
     0
102
RTVSPost2010PropOp33
 70
     1
102
RTVSPost2010Prop34
280
     0
102
RTVSPost2010PropOp34
 70
     1
102
RTVSPost2010Prop35
280
     0
102
RTVSPost2010PropOp35
 70
     1
102
RTVSPost2010Prop36
280
     0
102
RTVSPost2010PropOp36
 70
     1
102
RTVSPost2010Prop37
 90
       50
102
RTVSPost2010PropOp37
 70
     1
102
RTVSPost2010Prop38
140
0.0
102
RTVSPost2010PropOp38
 70
     1
102
RTVSPost2010Prop39
140
1.0
102
RTVSPost2010PropOp39
 70
     1
102
RTVSPost2010Prop40
 90
        0
102
RTVSPost2010PropOp40
 70
     1
102
RTVSPost2010Prop41ColorIndex
 90
       18
102
RTVSPost2010Prop41ColorRGB
 90
        0
102
RTVSPost2010PropOp41
 70
     1
102
RTVSPost2010Prop42
 90
       50
102
RTVSPost2010PropOp42
 70
     1
102
RTVSPost2010Prop43
 90
        3
102
RTVSPost2010PropOp43
 70
     1
102
RTVSPost2010Prop44ColorIndex
 90
        5
102
RTVSPost2010Prop44ColorRGB
 90
      255
102
RTVSPost2010PropOp44
 70
     1
102
RTVSPost2010Prop45
280
     0
102
RTVSPost2010PropOp45
 70
     1
102
RTVSPost2010Prop46
 90
       50
102
RTVSPost2010PropOp46
 70
     1
102
RTVSPost2010Prop47
 90
       50
102
RTVSPost2010PropOp47
 70
     1
102
RTVSPost2010Prop48
 90
       50
102
RTVSPost2010PropOp48
 70
     1
102
RTVSPost2010Prop49
280
     0
102
RTVSPost2010PropOp49
 70
     1
102
RTVSPost2010Prop50
 90
       50
102
RTVSPost2010PropOp50
 70
     1
102
RTVSPost2010Prop51ColorIndex
 90
      256
102
RTVSPost2010Prop51ColorRGB
 90
-16777216
102
RTVSPost2010PropOp51
 70
     0
102
RTVSPost2010Prop52
140
1.0
102
RTVSPost2010PropOp52
 70
     0
102
RTVSPost2010Prop53
 90
        2
102
RTVSPost2010PropOp53
 70
     1
102
RTVSPost2010Prop54
  1
strokes_ogs.tif
102
RTVSPost2010PropOp54
 70
     1
102
RTVSPost2010Prop55
280
     0
102
RTVSPost2010PropOp55
 70
     1
102
RTVSPost2010Prop56
140
1.0
102
RTVSPost2010PropOp56
 70
     1
102
RTVSPost2010Prop57
140
1.0
102
RTVSPost2010PropOp57
 70
     1
  0
XRECORD
  5
583
102
{ACAD_REACTORS
330
582
102
}
330
582
100
AcDbXrecord
280
     1
102
RTVSPropertyOp0
 70
     1
102
RTVSPropertyOp1
 70
     1
102
RTVSPropertyOp2
 70
     1
102
RTVSPropertyOp3
 70
     1
102
RTVSPropertyOp4
 70
     1
102
RTVSPropertyOp5
 70
     1
102
RTVSPropertyOp6
 70
     1
102
RTVSPropertyOp7
 70
     1
102
RTVSPropertyOp8
 70
     1
102
RTVSPropertyOp9
 70
     1
102
RTVSPropertyOp10
 70
     1
102
RTVSPropertyOp11
 70
     1
102
RTVSPropertyOp12
 70
     1
102
RTVSPropertyOp13
 70
     1
102
RTVSPropertyOp14
 70
     1
102
RTVSPropertyOp15
 70
     1
102
RTVSPropertyOp16
 70
     1
102
RTVSPropertyOp17
 70
     1
102
RTVSPropertyOp18
 70
     1
102
RTVSPropertyOp19
 70
     1
102
RTVSPropertyOp20
 70
     1
102
RTVSPropertyOp21
 70
     1
102
RTVSPropertyOp22
 70
     1
102
RTVSPropertyOp23
 70
     1
102
RTVSPropertyOp24
 70
     1
102
RTVSPropertyOp25
 70
     1
102
RTVSPropertyOp26
 70
     1
102
RTVSPropertyOp27
 70
     1
102
RTVSPropertyOp28
 70
     1
102
RTVSPropertyOp29
 70
     1
102
RTVSPropertyOp30
 70
     1
102
RTVSPropertyOp31
 70
     1
102
RTVSPropertyOp32
 70
     1
102
RTVSPropertyOp33
 70
     1
102
RTVSPropertyOp34
 70
     1
102
RTVSPropertyOp35
 70
     1
102
RTVSPropertyOp36
 70
     1
102
RTVSPropertyOp37
 70
     1
102
RTVSPropertyOp38
 70
     1
102
RTVSPropertyOp39
 70
     1
102
RTVSPropertyOp40
 70
     1
102
RTVSPropertyOp41
 70
     1
102
RTVSPropertyOp42
 70
     1
102
RTVSPropertyOp43
 70
     1
102
RTVSPropertyOp44
 70
     1
102
RTVSPropertyOp45
 70
     1
102
RTVSPropertyOp46
 70
     1
102
RTVSPropertyOp47
 70
     1
102
RTVSPropertyOp48
 70
     1
102
RTVSPropertyOp49
 70
     1
102
RTVSPropertyOp50
 70
     1
102
RTVSPropertyOp51
 70
     0
102
RTVSPropertyOp52
 70
     0
102
RTVSPropertyOp53
 70
     1
102
RTVSPropertyOp54
 70
     1
102
RTVSPropertyOp55
 70
     1
102
RTVSPropertyOp56
 70
     1
102
RTVSPropertyOp57
 70
     1
102
RTVSPost2010Prop28
280
     0
102
RTVSPost2010PropOp28
 70
     1
102
RTVSPost2010Prop29
280
     1
102
RTVSPost2010PropOp29
 70
     1
102
RTVSPost2010Prop30
280
     1
102
RTVSPost2010PropOp30
 70
     1
102
RTVSPost2010Prop31
280
     0
102
RTVSPost2010PropOp31
 70
     1
102
RTVSPost2010Prop32
280
     0
102
RTVSPost2010PropOp32
 70
     1
102
RTVSPost2010Prop33
280
     0
102
RTVSPost2010PropOp33
 70
     1
102
RTVSPost2010Prop34
280
     0
102
RTVSPost2010PropOp34
 70
     1
102
RTVSPost2010Prop35
280
     0
102
RTVSPost2010PropOp35
 70
     1
102
RTVSPost2010Prop36
280
     0
102
RTVSPost2010PropOp36
 70
     1
102
RTVSPost2010Prop37
 90
       50
102
RTVSPost2010PropOp37
 70
     1
102
RTVSPost2010Prop38
140
0.0
102
RTVSPost2010PropOp38
 70
     1
102
RTVSPost2010Prop39
140
1.0
102
RTVSPost2010PropOp39
 70
     1
102
RTVSPost2010Prop40
 90
        0
102
RTVSPost2010PropOp40
 70
     1
102
RTVSPost2010Prop41ColorIndex
 90
       18
102
RTVSPost2010Prop41ColorRGB
 90
        0
102
RTVSPost2010PropOp41
 70
     1
102
RTVSPost2010Prop42
 90
       50
102
RTVSPost2010PropOp42
 70
     1
102
RTVSPost2010Prop43
 90
        3
102
RTVSPost2010PropOp43
 70
     1
102
RTVSPost2010Prop44ColorIndex
 90
        5
102
RTVSPost2010Prop44ColorRGB
 90
      255
102
RTVSPost2010PropOp44
 70
     1
102
RTVSPost2010Prop45
280
     0
102
RTVSPost2010PropOp45
 70
     1
102
RTVSPost2010Prop46
 90
       50
102
RTVSPost2010PropOp46
 70
     1
102
RTVSPost2010Prop47
 90
       50
102
RTVSPost2010PropOp47
 70
     1
102
RTVSPost2010Prop48
 90
       50
102
RTVSPost2010PropOp48
 70
     1
102
RTVSPost2010Prop49
280
     0
102
RTVSPost2010PropOp49
 70
     1
102
RTVSPost2010Prop50
 90
       50
102
RTVSPost2010PropOp50
 70
     1
102
RTVSPost2010Prop51ColorIndex
 90
      256
102
RTVSPost2010Prop51ColorRGB
 90
-16777216
102
RTVSPost2010PropOp51
 70
     0
102
RTVSPost2010Prop52
140
1.0
102
RTVSPost2010PropOp52
 70
     0
102
RTVSPost2010Prop53
 90
        2
102
RTVSPost2010PropOp53
 70
     1
102
RTVSPost2010Prop54
  1
strokes_ogs.tif
102
RTVSPost2010PropOp54
 70
     1
102
RTVSPost2010Prop55
280
     0
102
RTVSPost2010PropOp55
 70
     1
102
RTVSPost2010Prop56
140
1.0
102
RTVSPost2010PropOp56
 70
     1
102
RTVSPost2010Prop57
140
1.0
102
RTVSPost2010PropOp57
 70
     1
  0
XRECORD
  5
593
102
{ACAD_REACTORS
330
592
102
}
330
592
100
AcDbXrecord
280
     1
102
RTVSPropertyOp0
 70
     0
102
RTVSPropertyOp1
 70
     0
102
RTVSPropertyOp2
 70
     0
102
RTVSPropertyOp3
 70
     0
102
RTVSPropertyOp4
 70
     0
102
RTVSPropertyOp5
 70
     0
102
RTVSPropertyOp6
 70
     0
102
RTVSPropertyOp7
 70
     0
102
RTVSPropertyOp8
 70
     0
102
RTVSPropertyOp9
 70
     0
102
RTVSPropertyOp10
 70
     0
102
RTVSPropertyOp11
 70
     0
102
RTVSPropertyOp12
 70
     0
102
RTVSPropertyOp13
 70
     0
102
RTVSPropertyOp14
 70
     2
102
RTVSPropertyOp15
 70
     0
102
RTVSPropertyOp16
 70
     0
102
RTVSPropertyOp17
 70
     0
102
RTVSPropertyOp18
 70
     0
102
RTVSPropertyOp19
 70
     0
102
RTVSPropertyOp20
 70
     0
102
RTVSPropertyOp21
 70
     0
102
RTVSPropertyOp22
 70
     0
102
RTVSPropertyOp23
 70
     0
102
RTVSPropertyOp24
 70
     0
102
RTVSPropertyOp25
 70
     0
102
RTVSPropertyOp26
 70
     0
102
RTVSPropertyOp27
 70
     0
102
RTVSPropertyOp28
 70
     0
102
RTVSPropertyOp29
 70
     0
102
RTVSPropertyOp30
 70
     0
102
RTVSPropertyOp31
 70
     0
102
RTVSPropertyOp32
 70
     0
102
RTVSPropertyOp33
 70
     0
102
RTVSPropertyOp34
 70
     0
102
RTVSPropertyOp35
 70
     0
102
RTVSPropertyOp36
 70
     0
102
RTVSPropertyOp37
 70
     0
102
RTVSPropertyOp38
 70
     0
102
RTVSPropertyOp39
 70
     0
102
RTVSPropertyOp40
 70
     0
102
RTVSPropertyOp41
 70
     0
102
RTVSPropertyOp42
 70
     0
102
RTVSPropertyOp43
 70
     0
102
RTVSPropertyOp44
 70
     0
102
RTVSPropertyOp45
 70
     0
102
RTVSPropertyOp46
 70
     0
102
RTVSPropertyOp47
 70
     0
102
RTVSPropertyOp48
 70
     0
102
RTVSPropertyOp49
 70
     0
102
RTVSPropertyOp50
 70
     0
102
RTVSPropertyOp51
 70
     0
102
RTVSPropertyOp52
 70
     0
102
RTVSPropertyOp53
 70
     0
102
RTVSPropertyOp54
 70
     0
102
RTVSPropertyOp55
 70
     0
102
RTVSPropertyOp56
 70
     0
102
RTVSPropertyOp57
 70
     0
102
RTVSPost2010Prop28
280
     0
102
RTVSPost2010PropOp28
 70
     0
102
RTVSPost2010Prop29
280
     1
102
RTVSPost2010PropOp29
 70
     0
102
RTVSPost2010Prop30
280
     1
102
RTVSPost2010PropOp30
 70
     0
102
RTVSPost2010Prop31
280
     0
102
RTVSPost2010PropOp31
 70
     0
102
RTVSPost2010Prop32
280
     0
102
RTVSPost2010PropOp32
 70
     0
102
RTVSPost2010Prop33
280
     0
102
RTVSPost2010PropOp33
 70
     0
102
RTVSPost2010Prop34
280
     0
102
RTVSPost2010PropOp34
 70
     0
102
RTVSPost2010Prop35
280
     0
102
RTVSPost2010PropOp35
 70
     0
102
RTVSPost2010Prop36
280
     0
102
RTVSPost2010PropOp36
 70
     0
102
RTVSPost2010Prop37
 90
       50
102
RTVSPost2010PropOp37
 70
     0
102
RTVSPost2010Prop38
140
0.0
102
RTVSPost2010PropOp38
 70
     0
102
RTVSPost2010Prop39
140
1.0
102
RTVSPost2010PropOp39
 70
     0
102
RTVSPost2010Prop40
 90
        0
102
RTVSPost2010PropOp40
 70
     0
102
RTVSPost2010Prop41ColorIndex
 90
       18
102
RTVSPost2010Prop41ColorRGB
 90
        0
102
RTVSPost2010PropOp41
 70
     0
102
RTVSPost2010Prop42
 90
       50
102
RTVSPost2010PropOp42
 70
     0
102
RTVSPost2010Prop43
 90
        3
102
RTVSPost2010PropOp43
 70
     0
102
RTVSPost2010Prop44ColorIndex
 90
        5
102
RTVSPost2010Prop44ColorRGB
 90
      255
102
RTVSPost2010PropOp44
 70
     0
102
RTVSPost2010Prop45
280
     0
102
RTVSPost2010PropOp45
 70
     0
102
RTVSPost2010Prop46
 90
       50
102
RTVSPost2010PropOp46
 70
     0
102
RTVSPost2010Prop47
 90
       50
102
RTVSPost2010PropOp47
 70
     0
102
RTVSPost2010Prop48
 90
       50
102
RTVSPost2010PropOp48
 70
     0
102
RTVSPost2010Prop49
280
     0
102
RTVSPost2010PropOp49
 70
     0
102
RTVSPost2010Prop50
 90
       50
102
RTVSPost2010PropOp50
 70
     0
102
RTVSPost2010Prop51ColorIndex
 90
      256
102
RTVSPost2010Prop51ColorRGB
 90
-16777216
102
RTVSPost2010PropOp51
 70
     0
102
RTVSPost2010Prop52
140
1.0
102
RTVSPost2010PropOp52
 70
     0
102
RTVSPost2010Prop53
 90
        2
102
RTVSPost2010PropOp53
 70
     0
102
RTVSPost2010Prop54
  1
strokes_ogs.tif
102
RTVSPost2010PropOp54
 70
     0
102
RTVSPost2010Prop55
280
     0
102
RTVSPost2010PropOp55
 70
     0
102
RTVSPost2010Prop56
140
1.0
102
RTVSPost2010PropOp56
 70
     0
102
RTVSPost2010Prop57
140
1.0
102
RTVSPost2010PropOp57
 70
     0
  0
XRECORD
  5
58B
102
{ACAD_REACTORS
330
58A
102
}
330
58A
100
AcDbXrecord
280
     1
102
RTVSPropertyOp0
 70
     1
102
RTVSPropertyOp1
 70
     1
102
RTVSPropertyOp2
 70
     1
102
RTVSPropertyOp3
 70
     1
102
RTVSPropertyOp4
 70
     1
102
RTVSPropertyOp5
 70
     1
102
RTVSPropertyOp6
 70
     1
102
RTVSPropertyOp7
 70
     1
102
RTVSPropertyOp8
 70
     1
102
RTVSPropertyOp9
 70
     1
102
RTVSPropertyOp10
 70
     1
102
RTVSPropertyOp11
 70
     1
102
RTVSPropertyOp12
 70
     1
102
RTVSPropertyOp13
 70
     1
102
RTVSPropertyOp14
 70
     1
102
RTVSPropertyOp15
 70
     1
102
RTVSPropertyOp16
 70
     1
102
RTVSPropertyOp17
 70
     1
102
RTVSPropertyOp18
 70
     1
102
RTVSPropertyOp19
 70
     1
102
RTVSPropertyOp20
 70
     1
102
RTVSPropertyOp21
 70
     1
102
RTVSPropertyOp22
 70
     1
102
RTVSPropertyOp23
 70
     1
102
RTVSPropertyOp24
 70
     1
102
RTVSPropertyOp25
 70
     1
102
RTVSPropertyOp26
 70
     1
102
RTVSPropertyOp27
 70
     1
102
RTVSPropertyOp28
 70
     1
102
RTVSPropertyOp29
 70
     1
102
RTVSPropertyOp30
 70
     1
102
RTVSPropertyOp31
 70
     1
102
RTVSPropertyOp32
 70
     1
102
RTVSPropertyOp33
 70
     1
102
RTVSPropertyOp34
 70
     1
102
RTVSPropertyOp35
 70
     1
102
RTVSPropertyOp36
 70
     1
102
RTVSPropertyOp37
 70
     1
102
RTVSPropertyOp38
 70
     1
102
RTVSPropertyOp39
 70
     1
102
RTVSPropertyOp40
 70
     1
102
RTVSPropertyOp41
 70
     1
102
RTVSPropertyOp42
 70
     1
102
RTVSPropertyOp43
 70
     1
102
RTVSPropertyOp44
 70
     1
102
RTVSPropertyOp45
 70
     1
102
RTVSPropertyOp46
 70
     1
102
RTVSPropertyOp47
 70
     1
102
RTVSPropertyOp48
 70
     1
102
RTVSPropertyOp49
 70
     1
102
RTVSPropertyOp50
 70
     1
102
RTVSPropertyOp51
 70
     0
102
RTVSPropertyOp52
 70
     0
102
RTVSPropertyOp53
 70
     1
102
RTVSPropertyOp54
 70
     1
102
RTVSPropertyOp55
 70
     1
102
RTVSPropertyOp56
 70
     1
102
RTVSPropertyOp57
 70
     1
102
RTVSPost2010Prop28
280
     0
102
RTVSPost2010PropOp28
 70
     1
102
RTVSPost2010Prop29
280
     1
102
RTVSPost2010PropOp29
 70
     1
102
RTVSPost2010Prop30
280
     1
102
RTVSPost2010PropOp30
 70
     1
102
RTVSPost2010Prop31
280
     0
102
RTVSPost2010PropOp31
 70
     1
102
RTVSPost2010Prop32
280
     0
102
RTVSPost2010PropOp32
 70
     1
102
RTVSPost2010Prop33
280
     0
102
RTVSPost2010PropOp33
 70
     1
102
RTVSPost2010Prop34
280
     0
102
RTVSPost2010PropOp34
 70
     1
102
RTVSPost2010Prop35
280
     0
102
RTVSPost2010PropOp35
 70
     1
102
RTVSPost2010Prop36
280
     0
102
RTVSPost2010PropOp36
 70
     1
102
RTVSPost2010Prop37
 90
       50
102
RTVSPost2010PropOp37
 70
     1
102
RTVSPost2010Prop38
140
0.0
102
RTVSPost2010PropOp38
 70
     1
102
RTVSPost2010Prop39
140
1.0
102
RTVSPost2010PropOp39
 70
     1
102
RTVSPost2010Prop40
 90
        0
102
RTVSPost2010PropOp40
 70
     1
102
RTVSPost2010Prop41ColorIndex
 90
       18
102
RTVSPost2010Prop41ColorRGB
 90
        0
102
RTVSPost2010PropOp41
 70
     1
102
RTVSPost2010Prop42
 90
       50
102
RTVSPost2010PropOp42
 70
     1
102
RTVSPost2010Prop43
 90
        3
102
RTVSPost2010PropOp43
 70
     1
102
RTVSPost2010Prop44ColorIndex
 90
        5
102
RTVSPost2010Prop44ColorRGB
 90
      255
102
RTVSPost2010PropOp44
 70
     1
102
RTVSPost2010Prop45
280
     0
102
RTVSPost2010PropOp45
 70
     1
102
RTVSPost2010Prop46
 90
       50
102
RTVSPost2010PropOp46
 70
     1
102
RTVSPost2010Prop47
 90
       50
102
RTVSPost2010PropOp47
 70
     1
102
RTVSPost2010Prop48
 90
       50
102
RTVSPost2010PropOp48
 70
     1
102
RTVSPost2010Prop49
280
     0
102
RTVSPost2010PropOp49
 70
     1
102
RTVSPost2010Prop50
 90
       50
102
RTVSPost2010PropOp50
 70
     1
102
RTVSPost2010Prop51ColorIndex
 90
      256
102
RTVSPost2010Prop51ColorRGB
 90
-16777216
102
RTVSPost2010PropOp51
 70
     0
102
RTVSPost2010Prop52
140
1.0
102
RTVSPost2010PropOp52
 70
     0
102
RTVSPost2010Prop53
 90
        2
102
RTVSPost2010PropOp53
 70
     1
102
RTVSPost2010Prop54
  1
strokes_ogs.tif
102
RTVSPost2010PropOp54
 70
     1
102
RTVSPost2010Prop55
280
     0
102
RTVSPost2010PropOp55
 70
     1
102
RTVSPost2010Prop56
140
1.0
102
RTVSPost2010PropOp56
 70
     1
102
RTVSPost2010Prop57
140
1.0
102
RTVSPost2010PropOp57
 70
     1
  0
XRECORD
  5
56F
102
{ACAD_REACTORS
330
56E
102
}
330
56E
100
AcDbXrecord
280
     1
102
RTVSPropertyOp0
 70
     1
102
RTVSPropertyOp1
 70
     1
102
RTVSPropertyOp2
 70
     1
102
RTVSPropertyOp3
 70
     1
102
RTVSPropertyOp4
 70
     1
102
RTVSPropertyOp5
 70
     1
102
RTVSPropertyOp6
 70
     1
102
RTVSPropertyOp7
 70
     1
102
RTVSPropertyOp8
 70
     1
102
RTVSPropertyOp9
 70
     1
102
RTVSPropertyOp10
 70
     1
102
RTVSPropertyOp11
 70
     1
102
RTVSPropertyOp12
 70
     1
102
RTVSPropertyOp13
 70
     1
102
RTVSPropertyOp14
 70
     1
102
RTVSPropertyOp15
 70
     1
102
RTVSPropertyOp16
 70
     1
102
RTVSPropertyOp17
 70
     1
102
RTVSPropertyOp18
 70
     1
102
RTVSPropertyOp19
 70
     1
102
RTVSPropertyOp20
 70
     1
102
RTVSPropertyOp21
 70
     1
102
RTVSPropertyOp22
 70
     1
102
RTVSPropertyOp23
 70
     1
102
RTVSPropertyOp24
 70
     1
102
RTVSPropertyOp25
 70
     1
102
RTVSPropertyOp26
 70
     1
102
RTVSPropertyOp27
 70
     1
102
RTVSPropertyOp28
 70
     1
102
RTVSPropertyOp29
 70
     1
102
RTVSPropertyOp30
 70
     1
102
RTVSPropertyOp31
 70
     1
102
RTVSPropertyOp32
 70
     1
102
RTVSPropertyOp33
 70
     1
102
RTVSPropertyOp34
 70
     1
102
RTVSPropertyOp35
 70
     1
102
RTVSPropertyOp36
 70
     1
102
RTVSPropertyOp37
 70
     1
102
RTVSPropertyOp38
 70
     1
102
RTVSPropertyOp39
 70
     1
102
RTVSPropertyOp40
 70
     1
102
RTVSPropertyOp41
 70
     1
102
RTVSPropertyOp42
 70
     1
102
RTVSPropertyOp43
 70
     1
102
RTVSPropertyOp44
 70
     1
102
RTVSPropertyOp45
 70
     1
102
RTVSPropertyOp46
 70
     1
102
RTVSPropertyOp47
 70
     1
102
RTVSPropertyOp48
 70
     1
102
RTVSPropertyOp49
 70
     1
102
RTVSPropertyOp50
 70
     1
102
RTVSPropertyOp51
 70
     0
102
RTVSPropertyOp52
 70
     0
102
RTVSPropertyOp53
 70
     1
102
RTVSPropertyOp54
 70
     1
102
RTVSPropertyOp55
 70
     1
102
RTVSPropertyOp56
 70
     1
102
RTVSPropertyOp57
 70
     1
102
RTVSPost2010Prop28
280
     0
102
RTVSPost2010PropOp28
 70
     1
102
RTVSPost2010Prop29
280
     1
102
RTVSPost2010PropOp29
 70
     1
102
RTVSPost2010Prop30
280
     1
102
RTVSPost2010PropOp30
 70
     1
102
RTVSPost2010Prop31
280
     0
102
RTVSPost2010PropOp31
 70
     1
102
RTVSPost2010Prop32
280
     0
102
RTVSPost2010PropOp32
 70
     1
102
RTVSPost2010Prop33
280
     0
102
RTVSPost2010PropOp33
 70
     1
102
RTVSPost2010Prop34
280
     0
102
RTVSPost2010PropOp34
 70
     1
102
RTVSPost2010Prop35
280
     0
102
RTVSPost2010PropOp35
 70
     1
102
RTVSPost2010Prop36
280
     0
102
RTVSPost2010PropOp36
 70
     1
102
RTVSPost2010Prop37
 90
       50
102
RTVSPost2010PropOp37
 70
     1
102
RTVSPost2010Prop38
140
0.0
102
RTVSPost2010PropOp38
 70
     1
102
RTVSPost2010Prop39
140
1.0
102
RTVSPost2010PropOp39
 70
     1
102
RTVSPost2010Prop40
 90
        0
102
RTVSPost2010PropOp40
 70
     1
102
RTVSPost2010Prop41ColorIndex
 90
       18
102
RTVSPost2010Prop41ColorRGB
 90
        0
102
RTVSPost2010PropOp41
 70
     1
102
RTVSPost2010Prop42
 90
       50
102
RTVSPost2010PropOp42
 70
     1
102
RTVSPost2010Prop43
 90
        3
102
RTVSPost2010PropOp43
 70
     1
102
RTVSPost2010Prop44ColorIndex
 90
        5
102
RTVSPost2010Prop44ColorRGB
 90
      255
102
RTVSPost2010PropOp44
 70
     1
102
RTVSPost2010Prop45
280
     0
102
RTVSPost2010PropOp45
 70
     1
102
RTVSPost2010Prop46
 90
       50
102
RTVSPost2010PropOp46
 70
     1
102
RTVSPost2010Prop47
 90
       50
102
RTVSPost2010PropOp47
 70
     1
102
RTVSPost2010Prop48
 90
       50
102
RTVSPost2010PropOp48
 70
     1
102
RTVSPost2010Prop49
280
     0
102
RTVSPost2010PropOp49
 70
     1
102
RTVSPost2010Prop50
 90
       50
102
RTVSPost2010PropOp50
 70
     1
102
RTVSPost2010Prop51ColorIndex
 90
      256
102
RTVSPost2010Prop51ColorRGB
 90
-16777216
102
RTVSPost2010PropOp51
 70
     0
102
RTVSPost2010Prop52
140
1.0
102
RTVSPost2010PropOp52
 70
     0
102
RTVSPost2010Prop53
 90
        2
102
RTVSPost2010PropOp53
 70
     1
102
RTVSPost2010Prop54
  1
strokes_ogs.tif
102
RTVSPost2010PropOp54
 70
     1
102
RTVSPost2010Prop55
280
     0
102
RTVSPost2010PropOp55
 70
     1
102
RTVSPost2010Prop56
140
1.0
102
RTVSPost2010PropOp56
 70
     1
102
RTVSPost2010Prop57
140
1.0
102
RTVSPost2010PropOp57
 70
     1
  0
XRECORD
  5
571
102
{ACAD_REACTORS
330
570
102
}
330
570
100
AcDbXrecord
280
     1
102
RTVSPropertyOp0
 70
     1
102
RTVSPropertyOp1
 70
     1
102
RTVSPropertyOp2
 70
     1
102
RTVSPropertyOp3
 70
     1
102
RTVSPropertyOp4
 70
     1
102
RTVSPropertyOp5
 70
     1
102
RTVSPropertyOp6
 70
     1
102
RTVSPropertyOp7
 70
     1
102
RTVSPropertyOp8
 70
     1
102
RTVSPropertyOp9
 70
     1
102
RTVSPropertyOp10
 70
     1
102
RTVSPropertyOp11
 70
     1
102
RTVSPropertyOp12
 70
     1
102
RTVSPropertyOp13
 70
     1
102
RTVSPropertyOp14
 70
     1
102
RTVSPropertyOp15
 70
     1
102
RTVSPropertyOp16
 70
     1
102
RTVSPropertyOp17
 70
     1
102
RTVSPropertyOp18
 70
     1
102
RTVSPropertyOp19
 70
     1
102
RTVSPropertyOp20
 70
     1
102
RTVSPropertyOp21
 70
     1
102
RTVSPropertyOp22
 70
     1
102
RTVSPropertyOp23
 70
     1
102
RTVSPropertyOp24
 70
     1
102
RTVSPropertyOp25
 70
     1
102
RTVSPropertyOp26
 70
     1
102
RTVSPropertyOp27
 70
     1
102
RTVSPropertyOp28
 70
     1
102
RTVSPropertyOp29
 70
     1
102
RTVSPropertyOp30
 70
     1
102
RTVSPropertyOp31
 70
     1
102
RTVSPropertyOp32
 70
     1
102
RTVSPropertyOp33
 70
     1
102
RTVSPropertyOp34
 70
     1
102
RTVSPropertyOp35
 70
     1
102
RTVSPropertyOp36
 70
     1
102
RTVSPropertyOp37
 70
     1
102
RTVSPropertyOp38
 70
     1
102
RTVSPropertyOp39
 70
     1
102
RTVSPropertyOp40
 70
     1
102
RTVSPropertyOp41
 70
     1
102
RTVSPropertyOp42
 70
     1
102
RTVSPropertyOp43
 70
     1
102
RTVSPropertyOp44
 70
     1
102
RTVSPropertyOp45
 70
     1
102
RTVSPropertyOp46
 70
     1
102
RTVSPropertyOp47
 70
     1
102
RTVSPropertyOp48
 70
     1
102
RTVSPropertyOp49
 70
     1
102
RTVSPropertyOp50
 70
     1
102
RTVSPropertyOp51
 70
     0
102
RTVSPropertyOp52
 70
     0
102
RTVSPropertyOp53
 70
     1
102
RTVSPropertyOp54
 70
     1
102
RTVSPropertyOp55
 70
     1
102
RTVSPropertyOp56
 70
     1
102
RTVSPropertyOp57
 70
     1
102
RTVSPost2010Prop28
280
     0
102
RTVSPost2010PropOp28
 70
     1
102
RTVSPost2010Prop29
280
     1
102
RTVSPost2010PropOp29
 70
     1
102
RTVSPost2010Prop30
280
     1
102
RTVSPost2010PropOp30
 70
     1
102
RTVSPost2010Prop31
280
     0
102
RTVSPost2010PropOp31
 70
     1
102
RTVSPost2010Prop32
280
     0
102
RTVSPost2010PropOp32
 70
     1
102
RTVSPost2010Prop33
280
     0
102
RTVSPost2010PropOp33
 70
     1
102
RTVSPost2010Prop34
280
     0
102
RTVSPost2010PropOp34
 70
     1
102
RTVSPost2010Prop35
280
     0
102
RTVSPost2010PropOp35
 70
     1
102
RTVSPost2010Prop36
280
     0
102
RTVSPost2010PropOp36
 70
     1
102
RTVSPost2010Prop37
 90
       50
102
RTVSPost2010PropOp37
 70
     1
102
RTVSPost2010Prop38
140
0.0
102
RTVSPost2010PropOp38
 70
     1
102
RTVSPost2010Prop39
140
1.0
102
RTVSPost2010PropOp39
 70
     1
102
RTVSPost2010Prop40
 90
        0
102
RTVSPost2010PropOp40
 70
     1
102
RTVSPost2010Prop41ColorIndex
 90
       18
102
RTVSPost2010Prop41ColorRGB
 90
        0
102
RTVSPost2010PropOp41
 70
     1
102
RTVSPost2010Prop42
 90
       50
102
RTVSPost2010PropOp42
 70
     1
102
RTVSPost2010Prop43
 90
        3
102
RTVSPost2010PropOp43
 70
     1
102
RTVSPost2010Prop44ColorIndex
 90
        5
102
RTVSPost2010Prop44ColorRGB
 90
      255
102
RTVSPost2010PropOp44
 70
     1
102
RTVSPost2010Prop45
280
     0
102
RTVSPost2010PropOp45
 70
     1
102
RTVSPost2010Prop46
 90
       50
102
RTVSPost2010PropOp46
 70
     1
102
RTVSPost2010Prop47
 90
       50
102
RTVSPost2010PropOp47
 70
     1
102
RTVSPost2010Prop48
 90
       50
102
RTVSPost2010PropOp48
 70
     1
102
RTVSPost2010Prop49
280
     0
102
RTVSPost2010PropOp49
 70
     1
102
RTVSPost2010Prop50
 90
       50
102
RTVSPost2010PropOp50
 70
     1
102
RTVSPost2010Prop51ColorIndex
 90
      256
102
RTVSPost2010Prop51ColorRGB
 90
-16777216
102
RTVSPost2010PropOp51
 70
     0
102
RTVSPost2010Prop52
140
1.0
102
RTVSPost2010PropOp52
 70
     0
102
RTVSPost2010Prop53
 90
        2
102
RTVSPost2010PropOp53
 70
     1
102
RTVSPost2010Prop54
  1
strokes_ogs.tif
102
RTVSPost2010PropOp54
 70
     1
102
RTVSPost2010Prop55
280
     0
102
RTVSPost2010PropOp55
 70
     1
102
RTVSPost2010Prop56
140
1.0
102
RTVSPost2010PropOp56
 70
     1
102
RTVSPost2010Prop57
140
1.0
102
RTVSPost2010PropOp57
 70
     1
  0
XRECORD
  5
573
102
{ACAD_REACTORS
330
572
102
}
330
572
100
AcDbXrecord
280
     1
102
RTVSPropertyOp0
 70
     1
102
RTVSPropertyOp1
 70
     1
102
RTVSPropertyOp2
 70
     1
102
RTVSPropertyOp3
 70
     1
102
RTVSPropertyOp4
 70
     1
102
RTVSPropertyOp5
 70
     1
102
RTVSPropertyOp6
 70
     1
102
RTVSPropertyOp7
 70
     1
102
RTVSPropertyOp8
 70
     1
102
RTVSPropertyOp9
 70
     1
102
RTVSPropertyOp10
 70
     1
102
RTVSPropertyOp11
 70
     1
102
RTVSPropertyOp12
 70
     1
102
RTVSPropertyOp13
 70
     1
102
RTVSPropertyOp14
 70
     1
102
RTVSPropertyOp15
 70
     1
102
RTVSPropertyOp16
 70
     1
102
RTVSPropertyOp17
 70
     1
102
RTVSPropertyOp18
 70
     1
102
RTVSPropertyOp19
 70
     1
102
RTVSPropertyOp20
 70
     1
102
RTVSPropertyOp21
 70
     1
102
RTVSPropertyOp22
 70
     1
102
RTVSPropertyOp23
 70
     1
102
RTVSPropertyOp24
 70
     1
102
RTVSPropertyOp25
 70
     1
102
RTVSPropertyOp26
 70
     1
102
RTVSPropertyOp27
 70
     1
102
RTVSPropertyOp28
 70
     1
102
RTVSPropertyOp29
 70
     1
102
RTVSPropertyOp30
 70
     1
102
RTVSPropertyOp31
 70
     1
102
RTVSPropertyOp32
 70
     1
102
RTVSPropertyOp33
 70
     1
102
RTVSPropertyOp34
 70
     1
102
RTVSPropertyOp35
 70
     1
102
RTVSPropertyOp36
 70
     1
102
RTVSPropertyOp37
 70
     1
102
RTVSPropertyOp38
 70
     1
102
RTVSPropertyOp39
 70
     1
102
RTVSPropertyOp40
 70
     1
102
RTVSPropertyOp41
 70
     1
102
RTVSPropertyOp42
 70
     1
102
RTVSPropertyOp43
 70
     1
102
RTVSPropertyOp44
 70
     1
102
RTVSPropertyOp45
 70
     1
102
RTVSPropertyOp46
 70
     1
102
RTVSPropertyOp47
 70
     1
102
RTVSPropertyOp48
 70
     1
102
RTVSPropertyOp49
 70
     1
102
RTVSPropertyOp50
 70
     1
102
RTVSPropertyOp51
 70
     0
102
RTVSPropertyOp52
 70
     0
102
RTVSPropertyOp53
 70
     1
102
RTVSPropertyOp54
 70
     1
102
RTVSPropertyOp55
 70
     1
102
RTVSPropertyOp56
 70
     1
102
RTVSPropertyOp57
 70
     1
102
RTVSPost2010Prop28
280
     0
102
RTVSPost2010PropOp28
 70
     1
102
RTVSPost2010Prop29
280
     1
102
RTVSPost2010PropOp29
 70
     1
102
RTVSPost2010Prop30
280
     1
102
RTVSPost2010PropOp30
 70
     1
102
RTVSPost2010Prop31
280
     0
102
RTVSPost2010PropOp31
 70
     1
102
RTVSPost2010Prop32
280
     0
102
RTVSPost2010PropOp32
 70
     1
102
RTVSPost2010Prop33
280
     0
102
RTVSPost2010PropOp33
 70
     1
102
RTVSPost2010Prop34
280
     0
102
RTVSPost2010PropOp34
 70
     1
102
RTVSPost2010Prop35
280
     0
102
RTVSPost2010PropOp35
 70
     1
102
RTVSPost2010Prop36
280
     0
102
RTVSPost2010PropOp36
 70
     1
102
RTVSPost2010Prop37
 90
       50
102
RTVSPost2010PropOp37
 70
     1
102
RTVSPost2010Prop38
140
0.0
102
RTVSPost2010PropOp38
 70
     1
102
RTVSPost2010Prop39
140
1.0
102
RTVSPost2010PropOp39
 70
     1
102
RTVSPost2010Prop40
 90
        0
102
RTVSPost2010PropOp40
 70
     1
102
RTVSPost2010Prop41ColorIndex
 90
       18
102
RTVSPost2010Prop41ColorRGB
 90
        0
102
RTVSPost2010PropOp41
 70
     1
102
RTVSPost2010Prop42
 90
       50
102
RTVSPost2010PropOp42
 70
     1
102
RTVSPost2010Prop43
 90
        3
102
RTVSPost2010PropOp43
 70
     1
102
RTVSPost2010Prop44ColorIndex
 90
        5
102
RTVSPost2010Prop44ColorRGB
 90
      255
102
RTVSPost2010PropOp44
 70
     1
102
RTVSPost2010Prop45
280
     0
102
RTVSPost2010PropOp45
 70
     1
102
RTVSPost2010Prop46
 90
       50
102
RTVSPost2010PropOp46
 70
     1
102
RTVSPost2010Prop47
 90
       50
102
RTVSPost2010PropOp47
 70
     1
102
RTVSPost2010Prop48
 90
       50
102
RTVSPost2010PropOp48
 70
     1
102
RTVSPost2010Prop49
280
     0
102
RTVSPost2010PropOp49
 70
     1
102
RTVSPost2010Prop50
 90
       50
102
RTVSPost2010PropOp50
 70
     1
102
RTVSPost2010Prop51ColorIndex
 90
      256
102
RTVSPost2010Prop51ColorRGB
 90
-16777216
102
RTVSPost2010PropOp51
 70
     0
102
RTVSPost2010Prop52
140
1.0
102
RTVSPost2010PropOp52
 70
     0
102
RTVSPost2010Prop53
 90
        2
102
RTVSPost2010PropOp53
 70
     1
102
RTVSPost2010Prop54
  1
strokes_ogs.tif
102
RTVSPost2010PropOp54
 70
     1
102
RTVSPost2010Prop55
280
     0
102
RTVSPost2010PropOp55
 70
     1
102
RTVSPost2010Prop56
140
1.0
102
RTVSPost2010PropOp56
 70
     1
102
RTVSPost2010Prop57
140
1.0
102
RTVSPost2010PropOp57
 70
     1
  0
XRECORD
  5
575
102
{ACAD_REACTORS
330
574
102
}
330
574
100
AcDbXrecord
280
     1
102
RTVSPropertyOp0
 70
     1
102
RTVSPropertyOp1
 70
     1
102
RTVSPropertyOp2
 70
     1
102
RTVSPropertyOp3
 70
     1
102
RTVSPropertyOp4
 70
     1
102
RTVSPropertyOp5
 70
     1
102
RTVSPropertyOp6
 70
     1
102
RTVSPropertyOp7
 70
     1
102
RTVSPropertyOp8
 70
     1
102
RTVSPropertyOp9
 70
     1
102
RTVSPropertyOp10
 70
     1
102
RTVSPropertyOp11
 70
     1
102
RTVSPropertyOp12
 70
     1
102
RTVSPropertyOp13
 70
     1
102
RTVSPropertyOp14
 70
     1
102
RTVSPropertyOp15
 70
     1
102
RTVSPropertyOp16
 70
     1
102
RTVSPropertyOp17
 70
     1
102
RTVSPropertyOp18
 70
     1
102
RTVSPropertyOp19
 70
     1
102
RTVSPropertyOp20
 70
     1
102
RTVSPropertyOp21
 70
     1
102
RTVSPropertyOp22
 70
     1
102
RTVSPropertyOp23
 70
     1
102
RTVSPropertyOp24
 70
     1
102
RTVSPropertyOp25
 70
     1
102
RTVSPropertyOp26
 70
     1
102
RTVSPropertyOp27
 70
     1
102
RTVSPropertyOp28
 70
     1
102
RTVSPropertyOp29
 70
     1
102
RTVSPropertyOp30
 70
     1
102
RTVSPropertyOp31
 70
     1
102
RTVSPropertyOp32
 70
     1
102
RTVSPropertyOp33
 70
     1
102
RTVSPropertyOp34
 70
     1
102
RTVSPropertyOp35
 70
     1
102
RTVSPropertyOp36
 70
     1
102
RTVSPropertyOp37
 70
     1
102
RTVSPropertyOp38
 70
     1
102
RTVSPropertyOp39
 70
     1
102
RTVSPropertyOp40
 70
     1
102
RTVSPropertyOp41
 70
     1
102
RTVSPropertyOp42
 70
     1
102
RTVSPropertyOp43
 70
     1
102
RTVSPropertyOp44
 70
     1
102
RTVSPropertyOp45
 70
     1
102
RTVSPropertyOp46
 70
     1
102
RTVSPropertyOp47
 70
     1
102
RTVSPropertyOp48
 70
     1
102
RTVSPropertyOp49
 70
     1
102
RTVSPropertyOp50
 70
     1
102
RTVSPropertyOp51
 70
     0
102
RTVSPropertyOp52
 70
     0
102
RTVSPropertyOp53
 70
     1
102
RTVSPropertyOp54
 70
     1
102
RTVSPropertyOp55
 70
     1
102
RTVSPropertyOp56
 70
     1
102
RTVSPropertyOp57
 70
     1
102
RTVSPost2010Prop28
280
     0
102
RTVSPost2010PropOp28
 70
     1
102
RTVSPost2010Prop29
280
     1
102
RTVSPost2010PropOp29
 70
     1
102
RTVSPost2010Prop30
280
     1
102
RTVSPost2010PropOp30
 70
     1
102
RTVSPost2010Prop31
280
     0
102
RTVSPost2010PropOp31
 70
     1
102
RTVSPost2010Prop32
280
     0
102
RTVSPost2010PropOp32
 70
     1
102
RTVSPost2010Prop33
280
     0
102
RTVSPost2010PropOp33
 70
     1
102
RTVSPost2010Prop34
280
     0
102
RTVSPost2010PropOp34
 70
     1
102
RTVSPost2010Prop35
280
     0
102
RTVSPost2010PropOp35
 70
     1
102
RTVSPost2010Prop36
280
     0
102
RTVSPost2010PropOp36
 70
     1
102
RTVSPost2010Prop37
 90
       50
102
RTVSPost2010PropOp37
 70
     1
102
RTVSPost2010Prop38
140
0.0
102
RTVSPost2010PropOp38
 70
     1
102
RTVSPost2010Prop39
140
1.0
102
RTVSPost2010PropOp39
 70
     1
102
RTVSPost2010Prop40
 90
        0
102
RTVSPost2010PropOp40
 70
     1
102
RTVSPost2010Prop41ColorIndex
 90
       18
102
RTVSPost2010Prop41ColorRGB
 90
        0
102
RTVSPost2010PropOp41
 70
     1
102
RTVSPost2010Prop42
 90
       50
102
RTVSPost2010PropOp42
 70
     1
102
RTVSPost2010Prop43
 90
        3
102
RTVSPost2010PropOp43
 70
     1
102
RTVSPost2010Prop44ColorIndex
 90
        5
102
RTVSPost2010Prop44ColorRGB
 90
      255
102
RTVSPost2010PropOp44
 70
     1
102
RTVSPost2010Prop45
280
     0
102
RTVSPost2010PropOp45
 70
     1
102
RTVSPost2010Prop46
 90
       50
102
RTVSPost2010PropOp46
 70
     1
102
RTVSPost2010Prop47
 90
       50
102
RTVSPost2010PropOp47
 70
     1
102
RTVSPost2010Prop48
 90
       50
102
RTVSPost2010PropOp48
 70
     1
102
RTVSPost2010Prop49
280
     0
102
RTVSPost2010PropOp49
 70
     1
102
RTVSPost2010Prop50
 90
       50
102
RTVSPost2010PropOp50
 70
     1
102
RTVSPost2010Prop51ColorIndex
 90
      256
102
RTVSPost2010Prop51ColorRGB
 90
-16777216
102
RTVSPost2010PropOp51
 70
     0
102
RTVSPost2010Prop52
140
1.0
102
RTVSPost2010PropOp52
 70
     0
102
RTVSPost2010Prop53
 90
        2
102
RTVSPost2010PropOp53
 70
     1
102
RTVSPost2010Prop54
  1
strokes_ogs.tif
102
RTVSPost2010PropOp54
 70
     1
102
RTVSPost2010Prop55
280
     0
102
RTVSPost2010PropOp55
 70
     1
102
RTVSPost2010Prop56
140
1.0
102
RTVSPost2010PropOp56
 70
     1
102
RTVSPost2010Prop57
140
1.0
102
RTVSPost2010PropOp57
 70
     1
  0
XRECORD
  5
57B
102
{ACAD_REACTORS
330
57A
102
}
330
57A
100
AcDbXrecord
280
     1
102
RTVSPropertyOp0
 70
     1
102
RTVSPropertyOp1
 70
     1
102
RTVSPropertyOp2
 70
     1
102
RTVSPropertyOp3
 70
     1
102
RTVSPropertyOp4
 70
     1
102
RTVSPropertyOp5
 70
     1
102
RTVSPropertyOp6
 70
     1
102
RTVSPropertyOp7
 70
     1
102
RTVSPropertyOp8
 70
     1
102
RTVSPropertyOp9
 70
     1
102
RTVSPropertyOp10
 70
     1
102
RTVSPropertyOp11
 70
     1
102
RTVSPropertyOp12
 70
     1
102
RTVSPropertyOp13
 70
     1
102
RTVSPropertyOp14
 70
     1
102
RTVSPropertyOp15
 70
     1
102
RTVSPropertyOp16
 70
     1
102
RTVSPropertyOp17
 70
     1
102
RTVSPropertyOp18
 70
     1
102
RTVSPropertyOp19
 70
     1
102
RTVSPropertyOp20
 70
     1
102
RTVSPropertyOp21
 70
     1
102
RTVSPropertyOp22
 70
     1
102
RTVSPropertyOp23
 70
     1
102
RTVSPropertyOp24
 70
     1
102
RTVSPropertyOp25
 70
     1
102
RTVSPropertyOp26
 70
     1
102
RTVSPropertyOp27
 70
     1
102
RTVSPropertyOp28
 70
     1
102
RTVSPropertyOp29
 70
     1
102
RTVSPropertyOp30
 70
     1
102
RTVSPropertyOp31
 70
     1
102
RTVSPropertyOp32
 70
     1
102
RTVSPropertyOp33
 70
     1
102
RTVSPropertyOp34
 70
     1
102
RTVSPropertyOp35
 70
     1
102
RTVSPropertyOp36
 70
     1
102
RTVSPropertyOp37
 70
     1
102
RTVSPropertyOp38
 70
     1
102
RTVSPropertyOp39
 70
     1
102
RTVSPropertyOp40
 70
     1
102
RTVSPropertyOp41
 70
     1
102
RTVSPropertyOp42
 70
     1
102
RTVSPropertyOp43
 70
     1
102
RTVSPropertyOp44
 70
     1
102
RTVSPropertyOp45
 70
     1
102
RTVSPropertyOp46
 70
     1
102
RTVSPropertyOp47
 70
     1
102
RTVSPropertyOp48
 70
     1
102
RTVSPropertyOp49
 70
     1
102
RTVSPropertyOp50
 70
     1
102
RTVSPropertyOp51
 70
     0
102
RTVSPropertyOp52
 70
     0
102
RTVSPropertyOp53
 70
     1
102
RTVSPropertyOp54
 70
     1
102
RTVSPropertyOp55
 70
     1
102
RTVSPropertyOp56
 70
     1
102
RTVSPropertyOp57
 70
     1
102
RTVSPost2010Prop28
280
     0
102
RTVSPost2010PropOp28
 70
     1
102
RTVSPost2010Prop29
280
     1
102
RTVSPost2010PropOp29
 70
     1
102
RTVSPost2010Prop30
280
     1
102
RTVSPost2010PropOp30
 70
     1
102
RTVSPost2010Prop31
280
     0
102
RTVSPost2010PropOp31
 70
     1
102
RTVSPost2010Prop32
280
     0
102
RTVSPost2010PropOp32
 70
     1
102
RTVSPost2010Prop33
280
     0
102
RTVSPost2010PropOp33
 70
     1
102
RTVSPost2010Prop34
280
     0
102
RTVSPost2010PropOp34
 70
     1
102
RTVSPost2010Prop35
280
     0
102
RTVSPost2010PropOp35
 70
     1
102
RTVSPost2010Prop36
280
     0
102
RTVSPost2010PropOp36
 70
     1
102
RTVSPost2010Prop37
 90
       50
102
RTVSPost2010PropOp37
 70
     1
102
RTVSPost2010Prop38
140
0.0
102
RTVSPost2010PropOp38
 70
     1
102
RTVSPost2010Prop39
140
1.0
102
RTVSPost2010PropOp39
 70
     1
102
RTVSPost2010Prop40
 90
        0
102
RTVSPost2010PropOp40
 70
     1
102
RTVSPost2010Prop41ColorIndex
 90
       18
102
RTVSPost2010Prop41ColorRGB
 90
        0
102
RTVSPost2010PropOp41
 70
     1
102
RTVSPost2010Prop42
 90
       50
102
RTVSPost2010PropOp42
 70
     1
102
RTVSPost2010Prop43
 90
        3
102
RTVSPost2010PropOp43
 70
     1
102
RTVSPost2010Prop44ColorIndex
 90
        5
102
RTVSPost2010Prop44ColorRGB
 90
      255
102
RTVSPost2010PropOp44
 70
     1
102
RTVSPost2010Prop45
280
     0
102
RTVSPost2010PropOp45
 70
     1
102
RTVSPost2010Prop46
 90
       50
102
RTVSPost2010PropOp46
 70
     1
102
RTVSPost2010Prop47
 90
       50
102
RTVSPost2010PropOp47
 70
     1
102
RTVSPost2010Prop48
 90
       50
102
RTVSPost2010PropOp48
 70
     1
102
RTVSPost2010Prop49
280
     0
102
RTVSPost2010PropOp49
 70
     1
102
RTVSPost2010Prop50
 90
       50
102
RTVSPost2010PropOp50
 70
     1
102
RTVSPost2010Prop51ColorIndex
 90
      256
102
RTVSPost2010Prop51ColorRGB
 90
-16777216
102
RTVSPost2010PropOp51
 70
     0
102
RTVSPost2010Prop52
140
1.0
102
RTVSPost2010PropOp52
 70
     0
102
RTVSPost2010Prop53
 90
        2
102
RTVSPost2010PropOp53
 70
     1
102
RTVSPost2010Prop54
  1
strokes_ogs.tif
102
RTVSPost2010PropOp54
 70
     1
102
RTVSPost2010Prop55
280
     0
102
RTVSPost2010PropOp55
 70
     1
102
RTVSPost2010Prop56
140
1.0
102
RTVSPost2010PropOp56
 70
     1
102
RTVSPost2010Prop57
140
1.0
102
RTVSPost2010PropOp57
 70
     1
  0
XRECORD
  5
58F
102
{ACAD_REACTORS
330
58E
102
}
330
58E
100
AcDbXrecord
280
     1
102
RTVSPropertyOp0
 70
     0
102
RTVSPropertyOp1
 70
     0
102
RTVSPropertyOp2
 70
     0
102
RTVSPropertyOp3
 70
     0
102
RTVSPropertyOp4
 70
     0
102
RTVSPropertyOp5
 70
     0
102
RTVSPropertyOp6
 70
     0
102
RTVSPropertyOp7
 70
     0
102
RTVSPropertyOp8
 70
     0
102
RTVSPropertyOp9
 70
     0
102
RTVSPropertyOp10
 70
     0
102
RTVSPropertyOp11
 70
     0
102
RTVSPropertyOp12
 70
     0
102
RTVSPropertyOp13
 70
     0
102
RTVSPropertyOp14
 70
     2
102
RTVSPropertyOp15
 70
     0
102
RTVSPropertyOp16
 70
     0
102
RTVSPropertyOp17
 70
     0
102
RTVSPropertyOp18
 70
     0
102
RTVSPropertyOp19
 70
     0
102
RTVSPropertyOp20
 70
     0
102
RTVSPropertyOp21
 70
     0
102
RTVSPropertyOp22
 70
     0
102
RTVSPropertyOp23
 70
     0
102
RTVSPropertyOp24
 70
     0
102
RTVSPropertyOp25
 70
     0
102
RTVSPropertyOp26
 70
     0
102
RTVSPropertyOp27
 70
     0
102
RTVSPropertyOp28
 70
     0
102
RTVSPropertyOp29
 70
     0
102
RTVSPropertyOp30
 70
     0
102
RTVSPropertyOp31
 70
     0
102
RTVSPropertyOp32
 70
     0
102
RTVSPropertyOp33
 70
     0
102
RTVSPropertyOp34
 70
     0
102
RTVSPropertyOp35
 70
     0
102
RTVSPropertyOp36
 70
     0
102
RTVSPropertyOp37
 70
     0
102
RTVSPropertyOp38
 70
     0
102
RTVSPropertyOp39
 70
     0
102
RTVSPropertyOp40
 70
     0
102
RTVSPropertyOp41
 70
     0
102
RTVSPropertyOp42
 70
     0
102
RTVSPropertyOp43
 70
     0
102
RTVSPropertyOp44
 70
     0
102
RTVSPropertyOp45
 70
     0
102
RTVSPropertyOp46
 70
     0
102
RTVSPropertyOp47
 70
     0
102
RTVSPropertyOp48
 70
     0
102
RTVSPropertyOp49
 70
     0
102
RTVSPropertyOp50
 70
     0
102
RTVSPropertyOp51
 70
     0
102
RTVSPropertyOp52
 70
     0
102
RTVSPropertyOp53
 70
     0
102
RTVSPropertyOp54
 70
     0
102
RTVSPropertyOp55
 70
     0
102
RTVSPropertyOp56
 70
     0
102
RTVSPropertyOp57
 70
     0
102
RTVSPost2010Prop28
280
     0
102
RTVSPost2010PropOp28
 70
     0
102
RTVSPost2010Prop29
280
     1
102
RTVSPost2010PropOp29
 70
     0
102
RTVSPost2010Prop30
280
     1
102
RTVSPost2010PropOp30
 70
     0
102
RTVSPost2010Prop31
280
     0
102
RTVSPost2010PropOp31
 70
     0
102
RTVSPost2010Prop32
280
     0
102
RTVSPost2010PropOp32
 70
     0
102
RTVSPost2010Prop33
280
     0
102
RTVSPost2010PropOp33
 70
     0
102
RTVSPost2010Prop34
280
     0
102
RTVSPost2010PropOp34
 70
     0
102
RTVSPost2010Prop35
280
     0
102
RTVSPost2010PropOp35
 70
     0
102
RTVSPost2010Prop36
280
     0
102
RTVSPost2010PropOp36
 70
     0
102
RTVSPost2010Prop37
 90
       50
102
RTVSPost2010PropOp37
 70
     0
102
RTVSPost2010Prop38
140
0.0
102
RTVSPost2010PropOp38
 70
     0
102
RTVSPost2010Prop39
140
1.0
102
RTVSPost2010PropOp39
 70
     0
102
RTVSPost2010Prop40
 90
        0
102
RTVSPost2010PropOp40
 70
     0
102
RTVSPost2010Prop41ColorIndex
 90
       18
102
RTVSPost2010Prop41ColorRGB
 90
        0
102
RTVSPost2010PropOp41
 70
     0
102
RTVSPost2010Prop42
 90
       50
102
RTVSPost2010PropOp42
 70
     0
102
RTVSPost2010Prop43
 90
        3
102
RTVSPost2010PropOp43
 70
     0
102
RTVSPost2010Prop44ColorIndex
 90
        5
102
RTVSPost2010Prop44ColorRGB
 90
      255
102
RTVSPost2010PropOp44
 70
     0
102
RTVSPost2010Prop45
280
     0
102
RTVSPost2010PropOp45
 70
     0
102
RTVSPost2010Prop46
 90
       50
102
RTVSPost2010PropOp46
 70
     0
102
RTVSPost2010Prop47
 90
       50
102
RTVSPost2010PropOp47
 70
     0
102
RTVSPost2010Prop48
 90
       50
102
RTVSPost2010PropOp48
 70
     0
102
RTVSPost2010Prop49
280
     0
102
RTVSPost2010PropOp49
 70
     0
102
RTVSPost2010Prop50
 90
       50
102
RTVSPost2010PropOp50
 70
     0
102
RTVSPost2010Prop51ColorIndex
 90
      256
102
RTVSPost2010Prop51ColorRGB
 90
-16777216
102
RTVSPost2010PropOp51
 70
     0
102
RTVSPost2010Prop52
140
1.0
102
RTVSPost2010PropOp52
 70
     0
102
RTVSPost2010Prop53
 90
        2
102
RTVSPost2010PropOp53
 70
     0
102
RTVSPost2010Prop54
  1
strokes_ogs.tif
102
RTVSPost2010PropOp54
 70
     0
102
RTVSPost2010Prop55
280
     0
102
RTVSPost2010PropOp55
 70
     0
102
RTVSPost2010Prop56
140
1.0
102
RTVSPost2010PropOp56
 70
     0
102
RTVSPost2010Prop57
140
1.0
102
RTVSPost2010PropOp57
 70
     0
  0
XRECORD
  5
589
102
{ACAD_REACTORS
330
588
102
}
330
588
100
AcDbXrecord
280
     1
102
RTVSPropertyOp0
 70
     1
102
RTVSPropertyOp1
 70
     1
102
RTVSPropertyOp2
 70
     1
102
RTVSPropertyOp3
 70
     1
102
RTVSPropertyOp4
 70
     1
102
RTVSPropertyOp5
 70
     1
102
RTVSPropertyOp6
 70
     1
102
RTVSPropertyOp7
 70
     1
102
RTVSPropertyOp8
 70
     1
102
RTVSPropertyOp9
 70
     1
102
RTVSPropertyOp10
 70
     1
102
RTVSPropertyOp11
 70
     1
102
RTVSPropertyOp12
 70
     1
102
RTVSPropertyOp13
 70
     1
102
RTVSPropertyOp14
 70
     1
102
RTVSPropertyOp15
 70
     1
102
RTVSPropertyOp16
 70
     1
102
RTVSPropertyOp17
 70
     1
102
RTVSPropertyOp18
 70
     1
102
RTVSPropertyOp19
 70
     1
102
RTVSPropertyOp20
 70
     1
102
RTVSPropertyOp21
 70
     1
102
RTVSPropertyOp22
 70
     1
102
RTVSPropertyOp23
 70
     1
102
RTVSPropertyOp24
 70
     1
102
RTVSPropertyOp25
 70
     1
102
RTVSPropertyOp26
 70
     1
102
RTVSPropertyOp27
 70
     1
102
RTVSPropertyOp28
 70
     1
102
RTVSPropertyOp29
 70
     1
102
RTVSPropertyOp30
 70
     1
102
RTVSPropertyOp31
 70
     1
102
RTVSPropertyOp32
 70
     1
102
RTVSPropertyOp33
 70
     1
102
RTVSPropertyOp34
 70
     1
102
RTVSPropertyOp35
 70
     1
102
RTVSPropertyOp36
 70
     1
102
RTVSPropertyOp37
 70
     1
102
RTVSPropertyOp38
 70
     1
102
RTVSPropertyOp39
 70
     1
102
RTVSPropertyOp40
 70
     1
102
RTVSPropertyOp41
 70
     1
102
RTVSPropertyOp42
 70
     1
102
RTVSPropertyOp43
 70
     1
102
RTVSPropertyOp44
 70
     1
102
RTVSPropertyOp45
 70
     1
102
RTVSPropertyOp46
 70
     1
102
RTVSPropertyOp47
 70
     1
102
RTVSPropertyOp48
 70
     1
102
RTVSPropertyOp49
 70
     1
102
RTVSPropertyOp50
 70
     1
102
RTVSPropertyOp51
 70
     0
102
RTVSPropertyOp52
 70
     0
102
RTVSPropertyOp53
 70
     1
102
RTVSPropertyOp54
 70
     1
102
RTVSPropertyOp55
 70
     1
102
RTVSPropertyOp56
 70
     1
102
RTVSPropertyOp57
 70
     1
102
RTVSPost2010Prop28
280
     0
102
RTVSPost2010PropOp28
 70
     1
102
RTVSPost2010Prop29
280
     1
102
RTVSPost2010PropOp29
 70
     1
102
RTVSPost2010Prop30
280
     1
102
RTVSPost2010PropOp30
 70
     1
102
RTVSPost2010Prop31
280
     0
102
RTVSPost2010PropOp31
 70
     1
102
RTVSPost2010Prop32
280
     0
102
RTVSPost2010PropOp32
 70
     1
102
RTVSPost2010Prop33
280
     0
102
RTVSPost2010PropOp33
 70
     1
102
RTVSPost2010Prop34
280
     0
102
RTVSPost2010PropOp34
 70
     1
102
RTVSPost2010Prop35
280
     0
102
RTVSPost2010PropOp35
 70
     1
102
RTVSPost2010Prop36
280
     0
102
RTVSPost2010PropOp36
 70
     1
102
RTVSPost2010Prop37
 90
       50
102
RTVSPost2010PropOp37
 70
     1
102
RTVSPost2010Prop38
140
0.0
102
RTVSPost2010PropOp38
 70
     1
102
RTVSPost2010Prop39
140
1.0
102
RTVSPost2010PropOp39
 70
     1
102
RTVSPost2010Prop40
 90
        0
102
RTVSPost2010PropOp40
 70
     1
102
RTVSPost2010Prop41ColorIndex
 90
       18
102
RTVSPost2010Prop41ColorRGB
 90
        0
102
RTVSPost2010PropOp41
 70
     1
102
RTVSPost2010Prop42
 90
       50
102
RTVSPost2010PropOp42
 70
     1
102
RTVSPost2010Prop43
 90
        3
102
RTVSPost2010PropOp43
 70
     1
102
RTVSPost2010Prop44ColorIndex
 90
        5
102
RTVSPost2010Prop44ColorRGB
 90
      255
102
RTVSPost2010PropOp44
 70
     1
102
RTVSPost2010Prop45
280
     0
102
RTVSPost2010PropOp45
 70
     1
102
RTVSPost2010Prop46
 90
       50
102
RTVSPost2010PropOp46
 70
     1
102
RTVSPost2010Prop47
 90
       50
102
RTVSPost2010PropOp47
 70
     1
102
RTVSPost2010Prop48
 90
       50
102
RTVSPost2010PropOp48
 70
     1
102
RTVSPost2010Prop49
280
     0
102
RTVSPost2010PropOp49
 70
     1
102
RTVSPost2010Prop50
 90
       50
102
RTVSPost2010PropOp50
 70
     1
102
RTVSPost2010Prop51ColorIndex
 90
      256
102
RTVSPost2010Prop51ColorRGB
 90
-16777216
102
RTVSPost2010PropOp51
 70
     0
102
RTVSPost2010Prop52
140
1.0
102
RTVSPost2010PropOp52
 70
     0
102
RTVSPost2010Prop53
 90
        2
102
RTVSPost2010PropOp53
 70
     1
102
RTVSPost2010Prop54
  1
strokes_ogs.tif
102
RTVSPost2010PropOp54
 70
     1
102
RTVSPost2010Prop55
280
     0
102
RTVSPost2010PropOp55
 70
     1
102
RTVSPost2010Prop56
140
1.0
102
RTVSPost2010PropOp56
 70
     1
102
RTVSPost2010Prop57
140
1.0
102
RTVSPost2010PropOp57
 70
     1
  0
XRECORD
  5
591
102
{ACAD_REACTORS
330
590
102
}
330
590
100
AcDbXrecord
280
     1
102
RTVSPropertyOp0
 70
     0
102
RTVSPropertyOp1
 70
     0
102
RTVSPropertyOp2
 70
     0
102
RTVSPropertyOp3
 70
     0
102
RTVSPropertyOp4
 70
     0
102
RTVSPropertyOp5
 70
     0
102
RTVSPropertyOp6
 70
     0
102
RTVSPropertyOp7
 70
     0
102
RTVSPropertyOp8
 70
     0
102
RTVSPropertyOp9
 70
     0
102
RTVSPropertyOp10
 70
     0
102
RTVSPropertyOp11
 70
     0
102
RTVSPropertyOp12
 70
     0
102
RTVSPropertyOp13
 70
     0
102
RTVSPropertyOp14
 70
     2
102
RTVSPropertyOp15
 70
     0
102
RTVSPropertyOp16
 70
     0
102
RTVSPropertyOp17
 70
     0
102
RTVSPropertyOp18
 70
     0
102
RTVSPropertyOp19
 70
     0
102
RTVSPropertyOp20
 70
     0
102
RTVSPropertyOp21
 70
     0
102
RTVSPropertyOp22
 70
     0
102
RTVSPropertyOp23
 70
     0
102
RTVSPropertyOp24
 70
     0
102
RTVSPropertyOp25
 70
     0
102
RTVSPropertyOp26
 70
     0
102
RTVSPropertyOp27
 70
     0
102
RTVSPropertyOp28
 70
     0
102
RTVSPropertyOp29
 70
     0
102
RTVSPropertyOp30
 70
     0
102
RTVSPropertyOp31
 70
     0
102
RTVSPropertyOp32
 70
     0
102
RTVSPropertyOp33
 70
     0
102
RTVSPropertyOp34
 70
     0
102
RTVSPropertyOp35
 70
     0
102
RTVSPropertyOp36
 70
     0
102
RTVSPropertyOp37
 70
     0
102
RTVSPropertyOp38
 70
     0
102
RTVSPropertyOp39
 70
     0
102
RTVSPropertyOp40
 70
     0
102
RTVSPropertyOp41
 70
     0
102
RTVSPropertyOp42
 70
     0
102
RTVSPropertyOp43
 70
     0
102
RTVSPropertyOp44
 70
     0
102
RTVSPropertyOp45
 70
     0
102
RTVSPropertyOp46
 70
     0
102
RTVSPropertyOp47
 70
     0
102
RTVSPropertyOp48
 70
     0
102
RTVSPropertyOp49
 70
     0
102
RTVSPropertyOp50
 70
     0
102
RTVSPropertyOp51
 70
     0
102
RTVSPropertyOp52
 70
     0
102
RTVSPropertyOp53
 70
     0
102
RTVSPropertyOp54
 70
     0
102
RTVSPropertyOp55
 70
     0
102
RTVSPropertyOp56
 70
     0
102
RTVSPropertyOp57
 70
     0
102
RTVSPost2010Prop28
280
     0
102
RTVSPost2010PropOp28
 70
     0
102
RTVSPost2010Prop29
280
     1
102
RTVSPost2010PropOp29
 70
     0
102
RTVSPost2010Prop30
280
     1
102
RTVSPost2010PropOp30
 70
     0
102
RTVSPost2010Prop31
280
     0
102
RTVSPost2010PropOp31
 70
     0
102
RTVSPost2010Prop32
280
     0
102
RTVSPost2010PropOp32
 70
     0
102
RTVSPost2010Prop33
280
     0
102
RTVSPost2010PropOp33
 70
     0
102
RTVSPost2010Prop34
280
     0
102
RTVSPost2010PropOp34
 70
     0
102
RTVSPost2010Prop35
280
     0
102
RTVSPost2010PropOp35
 70
     0
102
RTVSPost2010Prop36
280
     0
102
RTVSPost2010PropOp36
 70
     0
102
RTVSPost2010Prop37
 90
       50
102
RTVSPost2010PropOp37
 70
     0
102
RTVSPost2010Prop38
140
0.0
102
RTVSPost2010PropOp38
 70
     0
102
RTVSPost2010Prop39
140
1.0
102
RTVSPost2010PropOp39
 70
     0
102
RTVSPost2010Prop40
 90
        0
102
RTVSPost2010PropOp40
 70
     0
102
RTVSPost2010Prop41ColorIndex
 90
       18
102
RTVSPost2010Prop41ColorRGB
 90
        0
102
RTVSPost2010PropOp41
 70
     0
102
RTVSPost2010Prop42
 90
       50
102
RTVSPost2010PropOp42
 70
     0
102
RTVSPost2010Prop43
 90
        3
102
RTVSPost2010PropOp43
 70
     0
102
RTVSPost2010Prop44ColorIndex
 90
        5
102
RTVSPost2010Prop44ColorRGB
 90
      255
102
RTVSPost2010PropOp44
 70
     0
102
RTVSPost2010Prop45
280
     0
102
RTVSPost2010PropOp45
 70
     0
102
RTVSPost2010Prop46
 90
       50
102
RTVSPost2010PropOp46
 70
     0
102
RTVSPost2010Prop47
 90
       50
102
RTVSPost2010PropOp47
 70
     0
102
RTVSPost2010Prop48
 90
       50
102
RTVSPost2010PropOp48
 70
     0
102
RTVSPost2010Prop49
280
     0
102
RTVSPost2010PropOp49
 70
     0
102
RTVSPost2010Prop50
 90
       50
102
RTVSPost2010PropOp50
 70
     0
102
RTVSPost2010Prop51ColorIndex
 90
      256
102
RTVSPost2010Prop51ColorRGB
 90
-16777216
102
RTVSPost2010PropOp51
 70
     0
102
RTVSPost2010Prop52
140
1.0
102
RTVSPost2010PropOp52
 70
     0
102
RTVSPost2010Prop53
 90
        2
102
RTVSPost2010PropOp53
 70
     0
102
RTVSPost2010Prop54
  1
strokes_ogs.tif
102
RTVSPost2010PropOp54
 70
     0
102
RTVSPost2010Prop55
280
     0
102
RTVSPost2010PropOp55
 70
     0
102
RTVSPost2010Prop56
140
1.0
102
RTVSPost2010PropOp56
 70
     0
102
RTVSPost2010Prop57
140
1.0
102
RTVSPost2010PropOp57
 70
     0
  0
XRECORD
  5
57F
102
{ACAD_REACTORS
330
57E
102
}
330
57E
100
AcDbXrecord
280
     1
102
RTVSPropertyOp0
 70
     1
102
RTVSPropertyOp1
 70
     1
102
RTVSPropertyOp2
 70
     1
102
RTVSPropertyOp3
 70
     1
102
RTVSPropertyOp4
 70
     1
102
RTVSPropertyOp5
 70
     1
102
RTVSPropertyOp6
 70
     1
102
RTVSPropertyOp7
 70
     1
102
RTVSPropertyOp8
 70
     1
102
RTVSPropertyOp9
 70
     1
102
RTVSPropertyOp10
 70
     1
102
RTVSPropertyOp11
 70
     1
102
RTVSPropertyOp12
 70
     1
102
RTVSPropertyOp13
 70
     1
102
RTVSPropertyOp14
 70
     1
102
RTVSPropertyOp15
 70
     1
102
RTVSPropertyOp16
 70
     1
102
RTVSPropertyOp17
 70
     1
102
RTVSPropertyOp18
 70
     1
102
RTVSPropertyOp19
 70
     1
102
RTVSPropertyOp20
 70
     1
102
RTVSPropertyOp21
 70
     1
102
RTVSPropertyOp22
 70
     1
102
RTVSPropertyOp23
 70
     1
102
RTVSPropertyOp24
 70
     1
102
RTVSPropertyOp25
 70
     1
102
RTVSPropertyOp26
 70
     1
102
RTVSPropertyOp27
 70
     1
102
RTVSPropertyOp28
 70
     1
102
RTVSPropertyOp29
 70
     1
102
RTVSPropertyOp30
 70
     1
102
RTVSPropertyOp31
 70
     1
102
RTVSPropertyOp32
 70
     1
102
RTVSPropertyOp33
 70
     1
102
RTVSPropertyOp34
 70
     1
102
RTVSPropertyOp35
 70
     1
102
RTVSPropertyOp36
 70
     1
102
RTVSPropertyOp37
 70
     1
102
RTVSPropertyOp38
 70
     1
102
RTVSPropertyOp39
 70
     1
102
RTVSPropertyOp40
 70
     1
102
RTVSPropertyOp41
 70
     1
102
RTVSPropertyOp42
 70
     1
102
RTVSPropertyOp43
 70
     1
102
RTVSPropertyOp44
 70
     1
102
RTVSPropertyOp45
 70
     1
102
RTVSPropertyOp46
 70
     1
102
RTVSPropertyOp47
 70
     1
102
RTVSPropertyOp48
 70
     1
102
RTVSPropertyOp49
 70
     1
102
RTVSPropertyOp50
 70
     1
102
RTVSPropertyOp51
 70
     0
102
RTVSPropertyOp52
 70
     0
102
RTVSPropertyOp53
 70
     1
102
RTVSPropertyOp54
 70
     1
102
RTVSPropertyOp55
 70
     1
102
RTVSPropertyOp56
 70
     1
102
RTVSPropertyOp57
 70
     1
102
RTVSPost2010Prop28
280
     0
102
RTVSPost2010PropOp28
 70
     1
102
RTVSPost2010Prop29
280
     1
102
RTVSPost2010PropOp29
 70
     1
102
RTVSPost2010Prop30
280
     1
102
RTVSPost2010PropOp30
 70
     1
102
RTVSPost2010Prop31
280
     0
102
RTVSPost2010PropOp31
 70
     1
102
RTVSPost2010Prop32
280
     0
102
RTVSPost2010PropOp32
 70
     1
102
RTVSPost2010Prop33
280
     0
102
RTVSPost2010PropOp33
 70
     1
102
RTVSPost2010Prop34
280
     0
102
RTVSPost2010PropOp34
 70
     1
102
RTVSPost2010Prop35
280
     0
102
RTVSPost2010PropOp35
 70
     1
102
RTVSPost2010Prop36
280
     0
102
RTVSPost2010PropOp36
 70
     1
102
RTVSPost2010Prop37
 90
       50
102
RTVSPost2010PropOp37
 70
     1
102
RTVSPost2010Prop38
140
0.0
102
RTVSPost2010PropOp38
 70
     1
102
RTVSPost2010Prop39
140
1.0
102
RTVSPost2010PropOp39
 70
     1
102
RTVSPost2010Prop40
 90
        0
102
RTVSPost2010PropOp40
 70
     1
102
RTVSPost2010Prop41ColorIndex
 90
       18
102
RTVSPost2010Prop41ColorRGB
 90
        0
102
RTVSPost2010PropOp41
 70
     1
102
RTVSPost2010Prop42
 90
       50
102
RTVSPost2010PropOp42
 70
     1
102
RTVSPost2010Prop43
 90
        3
102
RTVSPost2010PropOp43
 70
     1
102
RTVSPost2010Prop44ColorIndex
 90
        5
102
RTVSPost2010Prop44ColorRGB
 90
      255
102
RTVSPost2010PropOp44
 70
     1
102
RTVSPost2010Prop45
280
     0
102
RTVSPost2010PropOp45
 70
     1
102
RTVSPost2010Prop46
 90
       50
102
RTVSPost2010PropOp46
 70
     1
102
RTVSPost2010Prop47
 90
       50
102
RTVSPost2010PropOp47
 70
     1
102
RTVSPost2010Prop48
 90
       50
102
RTVSPost2010PropOp48
 70
     1
102
RTVSPost2010Prop49
280
     0
102
RTVSPost2010PropOp49
 70
     1
102
RTVSPost2010Prop50
 90
       50
102
RTVSPost2010PropOp50
 70
     1
102
RTVSPost2010Prop51ColorIndex
 90
      256
102
RTVSPost2010Prop51ColorRGB
 90
-16777216
102
RTVSPost2010PropOp51
 70
     0
102
RTVSPost2010Prop52
140
1.0
102
RTVSPost2010PropOp52
 70
     0
102
RTVSPost2010Prop53
 90
        2
102
RTVSPost2010PropOp53
 70
     1
102
RTVSPost2010Prop54
  1
strokes_ogs.tif
102
RTVSPost2010PropOp54
 70
     1
102
RTVSPost2010Prop55
280
     0
102
RTVSPost2010PropOp55
 70
     1
102
RTVSPost2010Prop56
140
1.0
102
RTVSPost2010PropOp56
 70
     1
102
RTVSPost2010Prop57
140
1.0
102
RTVSPost2010PropOp57
 70
     1
  0
XRECORD
  5
59D
102
{ACAD_REACTORS
330
59C
102
}
330
59C
100
AcDbXrecord
280
     1
102
RTVSPropertyOp0
 70
     1
102
RTVSPropertyOp1
 70
     1
102
RTVSPropertyOp2
 70
     1
102
RTVSPropertyOp3
 70
     1
102
RTVSPropertyOp4
 70
     1
102
RTVSPropertyOp5
 70
     1
102
RTVSPropertyOp6
 70
     1
102
RTVSPropertyOp7
 70
     1
102
RTVSPropertyOp8
 70
     1
102
RTVSPropertyOp9
 70
     1
102
RTVSPropertyOp10
 70
     1
102
RTVSPropertyOp11
 70
     1
102
RTVSPropertyOp12
 70
     1
102
RTVSPropertyOp13
 70
     1
102
RTVSPropertyOp14
 70
     1
102
RTVSPropertyOp15
 70
     1
102
RTVSPropertyOp16
 70
     1
102
RTVSPropertyOp17
 70
     1
102
RTVSPropertyOp18
 70
     1
102
RTVSPropertyOp19
 70
     1
102
RTVSPropertyOp20
 70
     1
102
RTVSPropertyOp21
 70
     1
102
RTVSPropertyOp22
 70
     1
102
RTVSPropertyOp23
 70
     1
102
RTVSPropertyOp24
 70
     1
102
RTVSPropertyOp25
 70
     1
102
RTVSPropertyOp26
 70
     1
102
RTVSPropertyOp27
 70
     1
102
RTVSPropertyOp28
 70
     1
102
RTVSPropertyOp29
 70
     1
102
RTVSPropertyOp30
 70
     1
102
RTVSPropertyOp31
 70
     1
102
RTVSPropertyOp32
 70
     1
102
RTVSPropertyOp33
 70
     1
102
RTVSPropertyOp34
 70
     1
102
RTVSPropertyOp35
 70
     1
102
RTVSPropertyOp36
 70
     1
102
RTVSPropertyOp37
 70
     1
102
RTVSPropertyOp38
 70
     1
102
RTVSPropertyOp39
 70
     1
102
RTVSPropertyOp40
 70
     1
102
RTVSPropertyOp41
 70
     1
102
RTVSPropertyOp42
 70
     1
102
RTVSPropertyOp43
 70
     1
102
RTVSPropertyOp44
 70
     1
102
RTVSPropertyOp45
 70
     1
102
RTVSPropertyOp46
 70
     1
102
RTVSPropertyOp47
 70
     1
102
RTVSPropertyOp48
 70
     1
102
RTVSPropertyOp49
 70
     1
102
RTVSPropertyOp50
 70
     1
102
RTVSPropertyOp51
 70
     0
102
RTVSPropertyOp52
 70
     0
102
RTVSPropertyOp53
 70
     1
102
RTVSPropertyOp54
 70
     1
102
RTVSPropertyOp55
 70
     1
102
RTVSPropertyOp56
 70
     1
102
RTVSPropertyOp57
 70
     1
102
RTVSPost2010Prop28
280
     0
102
RTVSPost2010PropOp28
 70
     1
102
RTVSPost2010Prop29
280
     1
102
RTVSPost2010PropOp29
 70
     1
102
RTVSPost2010Prop30
280
     1
102
RTVSPost2010PropOp30
 70
     1
102
RTVSPost2010Prop31
280
     0
102
RTVSPost2010PropOp31
 70
     1
102
RTVSPost2010Prop32
280
     0
102
RTVSPost2010PropOp32
 70
     1
102
RTVSPost2010Prop33
280
     0
102
RTVSPost2010PropOp33
 70
     1
102
RTVSPost2010Prop34
280
     0
102
RTVSPost2010PropOp34
 70
     1
102
RTVSPost2010Prop35
280
     0
102
RTVSPost2010PropOp35
 70
     1
102
RTVSPost2010Prop36
280
     0
102
RTVSPost2010PropOp36
 70
     1
102
RTVSPost2010Prop37
 90
       50
102
RTVSPost2010PropOp37
 70
     1
102
RTVSPost2010Prop38
140
0.0
102
RTVSPost2010PropOp38
 70
     1
102
RTVSPost2010Prop39
140
1.0
102
RTVSPost2010PropOp39
 70
     1
102
RTVSPost2010Prop40
 90
        0
102
RTVSPost2010PropOp40
 70
     1
102
RTVSPost2010Prop41ColorIndex
 90
       18
102
RTVSPost2010Prop41ColorRGB
 90
        0
102
RTVSPost2010PropOp41
 70
     1
102
RTVSPost2010Prop42
 90
       50
102
RTVSPost2010PropOp42
 70
     1
102
RTVSPost2010Prop43
 90
        3
102
RTVSPost2010PropOp43
 70
     1
102
RTVSPost2010Prop44ColorIndex
 90
        5
102
RTVSPost2010Prop44ColorRGB
 90
      255
102
RTVSPost2010PropOp44
 70
     1
102
RTVSPost2010Prop45
280
     0
102
RTVSPost2010PropOp45
 70
     1
102
RTVSPost2010Prop46
 90
       50
102
RTVSPost2010PropOp46
 70
     1
102
RTVSPost2010Prop47
 90
       50
102
RTVSPost2010PropOp47
 70
     1
102
RTVSPost2010Prop48
 90
       50
102
RTVSPost2010PropOp48
 70
     1
102
RTVSPost2010Prop49
280
     0
102
RTVSPost2010PropOp49
 70
     1
102
RTVSPost2010Prop50
 90
       50
102
RTVSPost2010PropOp50
 70
     1
102
RTVSPost2010Prop51ColorIndex
 90
      256
102
RTVSPost2010Prop51ColorRGB
 90
-16777216
102
RTVSPost2010PropOp51
 70
     0
102
RTVSPost2010Prop52
140
1.0
102
RTVSPost2010PropOp52
 70
     0
102
RTVSPost2010Prop53
 90
        2
102
RTVSPost2010PropOp53
 70
     1
102
RTVSPost2010Prop54
  1
strokes_ogs.tif
102
RTVSPost2010PropOp54
 70
     1
102
RTVSPost2010Prop55
280
     0
102
RTVSPost2010PropOp55
 70
     1
102
RTVSPost2010Prop56
140
1.0
102
RTVSPost2010PropOp56
 70
     1
102
RTVSPost2010Prop57
140
1.0
102
RTVSPost2010PropOp57
 70
     1
  0
XRECORD
  5
59B
102
{ACAD_REACTORS
330
59A
102
}
330
59A
100
AcDbXrecord
280
     1
102
RTVSPropertyOp0
 70
     1
102
RTVSPropertyOp1
 70
     1
102
RTVSPropertyOp2
 70
     1
102
RTVSPropertyOp3
 70
     1
102
RTVSPropertyOp4
 70
     1
102
RTVSPropertyOp5
 70
     1
102
RTVSPropertyOp6
 70
     1
102
RTVSPropertyOp7
 70
     1
102
RTVSPropertyOp8
 70
     1
102
RTVSPropertyOp9
 70
     1
102
RTVSPropertyOp10
 70
     1
102
RTVSPropertyOp11
 70
     1
102
RTVSPropertyOp12
 70
     1
102
RTVSPropertyOp13
 70
     1
102
RTVSPropertyOp14
 70
     1
102
RTVSPropertyOp15
 70
     1
102
RTVSPropertyOp16
 70
     1
102
RTVSPropertyOp17
 70
     1
102
RTVSPropertyOp18
 70
     1
102
RTVSPropertyOp19
 70
     1
102
RTVSPropertyOp20
 70
     1
102
RTVSPropertyOp21
 70
     1
102
RTVSPropertyOp22
 70
     1
102
RTVSPropertyOp23
 70
     1
102
RTVSPropertyOp24
 70
     1
102
RTVSPropertyOp25
 70
     1
102
RTVSPropertyOp26
 70
     1
102
RTVSPropertyOp27
 70
     1
102
RTVSPropertyOp28
 70
     1
102
RTVSPropertyOp29
 70
     1
102
RTVSPropertyOp30
 70
     1
102
RTVSPropertyOp31
 70
     1
102
RTVSPropertyOp32
 70
     1
102
RTVSPropertyOp33
 70
     1
102
RTVSPropertyOp34
 70
     1
102
RTVSPropertyOp35
 70
     1
102
RTVSPropertyOp36
 70
     1
102
RTVSPropertyOp37
 70
     1
102
RTVSPropertyOp38
 70
     1
102
RTVSPropertyOp39
 70
     1
102
RTVSPropertyOp40
 70
     1
102
RTVSPropertyOp41
 70
     1
102
RTVSPropertyOp42
 70
     1
102
RTVSPropertyOp43
 70
     1
102
RTVSPropertyOp44
 70
     1
102
RTVSPropertyOp45
 70
     1
102
RTVSPropertyOp46
 70
     1
102
RTVSPropertyOp47
 70
     1
102
RTVSPropertyOp48
 70
     1
102
RTVSPropertyOp49
 70
     1
102
RTVSPropertyOp50
 70
     1
102
RTVSPropertyOp51
 70
     0
102
RTVSPropertyOp52
 70
     0
102
RTVSPropertyOp53
 70
     1
102
RTVSPropertyOp54
 70
     1
102
RTVSPropertyOp55
 70
     1
102
RTVSPropertyOp56
 70
     1
102
RTVSPropertyOp57
 70
     1
102
RTVSPost2010Prop28
280
     0
102
RTVSPost2010PropOp28
 70
     1
102
RTVSPost2010Prop29
280
     1
102
RTVSPost2010PropOp29
 70
     1
102
RTVSPost2010Prop30
280
     1
102
RTVSPost2010PropOp30
 70
     1
102
RTVSPost2010Prop31
280
     0
102
RTVSPost2010PropOp31
 70
     1
102
RTVSPost2010Prop32
280
     0
102
RTVSPost2010PropOp32
 70
     1
102
RTVSPost2010Prop33
280
     0
102
RTVSPost2010PropOp33
 70
     1
102
RTVSPost2010Prop34
280
     0
102
RTVSPost2010PropOp34
 70
     1
102
RTVSPost2010Prop35
280
     0
102
RTVSPost2010PropOp35
 70
     1
102
RTVSPost2010Prop36
280
     0
102
RTVSPost2010PropOp36
 70
     1
102
RTVSPost2010Prop37
 90
       50
102
RTVSPost2010PropOp37
 70
     1
102
RTVSPost2010Prop38
140
0.0
102
RTVSPost2010PropOp38
 70
     1
102
RTVSPost2010Prop39
140
1.0
102
RTVSPost2010PropOp39
 70
     1
102
RTVSPost2010Prop40
 90
        0
102
RTVSPost2010PropOp40
 70
     1
102
RTVSPost2010Prop41ColorIndex
 90
       18
102
RTVSPost2010Prop41ColorRGB
 90
        0
102
RTVSPost2010PropOp41
 70
     1
102
RTVSPost2010Prop42
 90
       50
102
RTVSPost2010PropOp42
 70
     1
102
RTVSPost2010Prop43
 90
        3
102
RTVSPost2010PropOp43
 70
     1
102
RTVSPost2010Prop44ColorIndex
 90
        5
102
RTVSPost2010Prop44ColorRGB
 90
      255
102
RTVSPost2010PropOp44
 70
     1
102
RTVSPost2010Prop45
280
     0
102
RTVSPost2010PropOp45
 70
     1
102
RTVSPost2010Prop46
 90
       50
102
RTVSPost2010PropOp46
 70
     1
102
RTVSPost2010Prop47
 90
       50
102
RTVSPost2010PropOp47
 70
     1
102
RTVSPost2010Prop48
 90
       50
102
RTVSPost2010PropOp48
 70
     1
102
RTVSPost2010Prop49
280
     0
102
RTVSPost2010PropOp49
 70
     1
102
RTVSPost2010Prop50
 90
       50
102
RTVSPost2010PropOp50
 70
     1
102
RTVSPost2010Prop51ColorIndex
 90
      256
102
RTVSPost2010Prop51ColorRGB
 90
-16777216
102
RTVSPost2010PropOp51
 70
     0
102
RTVSPost2010Prop52
140
1.0
102
RTVSPost2010PropOp52
 70
     0
102
RTVSPost2010Prop53
 90
        2
102
RTVSPost2010PropOp53
 70
     1
102
RTVSPost2010Prop54
  1
strokes_ogs.tif
102
RTVSPost2010PropOp54
 70
     1
102
RTVSPost2010Prop55
280
     0
102
RTVSPost2010PropOp55
 70
     1
102
RTVSPost2010Prop56
140
1.0
102
RTVSPost2010PropOp56
 70
     1
102
RTVSPost2010Prop57
140
1.0
102
RTVSPost2010PropOp57
 70
     1
  0
XRECORD
  5
595
102
{ACAD_REACTORS
330
594
102
}
330
594
100
AcDbXrecord
280
     1
102
RTVSPropertyOp0
 70
     1
102
RTVSPropertyOp1
 70
     1
102
RTVSPropertyOp2
 70
     1
102
RTVSPropertyOp3
 70
     1
102
RTVSPropertyOp4
 70
     1
102
RTVSPropertyOp5
 70
     1
102
RTVSPropertyOp6
 70
     1
102
RTVSPropertyOp7
 70
     1
102
RTVSPropertyOp8
 70
     1
102
RTVSPropertyOp9
 70
     1
102
RTVSPropertyOp10
 70
     1
102
RTVSPropertyOp11
 70
     1
102
RTVSPropertyOp12
 70
     1
102
RTVSPropertyOp13
 70
     1
102
RTVSPropertyOp14
 70
     1
102
RTVSPropertyOp15
 70
     1
102
RTVSPropertyOp16
 70
     1
102
RTVSPropertyOp17
 70
     1
102
RTVSPropertyOp18
 70
     1
102
RTVSPropertyOp19
 70
     1
102
RTVSPropertyOp20
 70
     1
102
RTVSPropertyOp21
 70
     1
102
RTVSPropertyOp22
 70
     1
102
RTVSPropertyOp23
 70
     1
102
RTVSPropertyOp24
 70
     1
102
RTVSPropertyOp25
 70
     1
102
RTVSPropertyOp26
 70
     1
102
RTVSPropertyOp27
 70
     1
102
RTVSPropertyOp28
 70
     1
102
RTVSPropertyOp29
 70
     1
102
RTVSPropertyOp30
 70
     1
102
RTVSPropertyOp31
 70
     1
102
RTVSPropertyOp32
 70
     1
102
RTVSPropertyOp33
 70
     1
102
RTVSPropertyOp34
 70
     1
102
RTVSPropertyOp35
 70
     1
102
RTVSPropertyOp36
 70
     1
102
RTVSPropertyOp37
 70
     1
102
RTVSPropertyOp38
 70
     1
102
RTVSPropertyOp39
 70
     1
102
RTVSPropertyOp40
 70
     1
102
RTVSPropertyOp41
 70
     1
102
RTVSPropertyOp42
 70
     1
102
RTVSPropertyOp43
 70
     1
102
RTVSPropertyOp44
 70
     1
102
RTVSPropertyOp45
 70
     1
102
RTVSPropertyOp46
 70
     1
102
RTVSPropertyOp47
 70
     1
102
RTVSPropertyOp48
 70
     1
102
RTVSPropertyOp49
 70
     1
102
RTVSPropertyOp50
 70
     1
102
RTVSPropertyOp51
 70
     0
102
RTVSPropertyOp52
 70
     0
102
RTVSPropertyOp53
 70
     1
102
RTVSPropertyOp54
 70
     1
102
RTVSPropertyOp55
 70
     1
102
RTVSPropertyOp56
 70
     1
102
RTVSPropertyOp57
 70
     1
102
RTVSPost2010Prop28
280
     0
102
RTVSPost2010PropOp28
 70
     1
102
RTVSPost2010Prop29
280
     1
102
RTVSPost2010PropOp29
 70
     1
102
RTVSPost2010Prop30
280
     1
102
RTVSPost2010PropOp30
 70
     1
102
RTVSPost2010Prop31
280
     0
102
RTVSPost2010PropOp31
 70
     1
102
RTVSPost2010Prop32
280
     0
102
RTVSPost2010PropOp32
 70
     1
102
RTVSPost2010Prop33
280
     0
102
RTVSPost2010PropOp33
 70
     1
102
RTVSPost2010Prop34
280
     0
102
RTVSPost2010PropOp34
 70
     1
102
RTVSPost2010Prop35
280
     0
102
RTVSPost2010PropOp35
 70
     1
102
RTVSPost2010Prop36
280
     0
102
RTVSPost2010PropOp36
 70
     1
102
RTVSPost2010Prop37
 90
       50
102
RTVSPost2010PropOp37
 70
     1
102
RTVSPost2010Prop38
140
0.0
102
RTVSPost2010PropOp38
 70
     1
102
RTVSPost2010Prop39
140
1.0
102
RTVSPost2010PropOp39
 70
     1
102
RTVSPost2010Prop40
 90
        0
102
RTVSPost2010PropOp40
 70
     1
102
RTVSPost2010Prop41ColorIndex
 90
       18
102
RTVSPost2010Prop41ColorRGB
 90
        0
102
RTVSPost2010PropOp41
 70
     1
102
RTVSPost2010Prop42
 90
       50
102
RTVSPost2010PropOp42
 70
     1
102
RTVSPost2010Prop43
 90
        3
102
RTVSPost2010PropOp43
 70
     1
102
RTVSPost2010Prop44ColorIndex
 90
        5
102
RTVSPost2010Prop44ColorRGB
 90
      255
102
RTVSPost2010PropOp44
 70
     1
102
RTVSPost2010Prop45
280
     0
102
RTVSPost2010PropOp45
 70
     1
102
RTVSPost2010Prop46
 90
       50
102
RTVSPost2010PropOp46
 70
     1
102
RTVSPost2010Prop47
 90
       50
102
RTVSPost2010PropOp47
 70
     1
102
RTVSPost2010Prop48
 90
       50
102
RTVSPost2010PropOp48
 70
     1
102
RTVSPost2010Prop49
280
     0
102
RTVSPost2010PropOp49
 70
     1
102
RTVSPost2010Prop50
 90
       50
102
RTVSPost2010PropOp50
 70
     1
102
RTVSPost2010Prop51ColorIndex
 90
      256
102
RTVSPost2010Prop51ColorRGB
 90
-16777216
102
RTVSPost2010PropOp51
 70
     0
102
RTVSPost2010Prop52
140
1.0
102
RTVSPost2010PropOp52
 70
     0
102
RTVSPost2010Prop53
 90
        2
102
RTVSPost2010PropOp53
 70
     1
102
RTVSPost2010Prop54
  1
strokes_ogs.tif
102
RTVSPost2010PropOp54
 70
     1
102
RTVSPost2010Prop55
280
     0
102
RTVSPost2010PropOp55
 70
     1
102
RTVSPost2010Prop56
140
1.0
102
RTVSPost2010PropOp56
 70
     1
102
RTVSPost2010Prop57
140
1.0
102
RTVSPost2010PropOp57
 70
     1
  0
XRECORD
  5
597
102
{ACAD_REACTORS
330
596
102
}
330
596
100
AcDbXrecord
280
     1
102
RTVSPropertyOp0
 70
     1
102
RTVSPropertyOp1
 70
     1
102
RTVSPropertyOp2
 70
     1
102
RTVSPropertyOp3
 70
     1
102
RTVSPropertyOp4
 70
     1
102
RTVSPropertyOp5
 70
     1
102
RTVSPropertyOp6
 70
     1
102
RTVSPropertyOp7
 70
     1
102
RTVSPropertyOp8
 70
     1
102
RTVSPropertyOp9
 70
     1
102
RTVSPropertyOp10
 70
     1
102
RTVSPropertyOp11
 70
     1
102
RTVSPropertyOp12
 70
     1
102
RTVSPropertyOp13
 70
     1
102
RTVSPropertyOp14
 70
     1
102
RTVSPropertyOp15
 70
     1
102
RTVSPropertyOp16
 70
     1
102
RTVSPropertyOp17
 70
     1
102
RTVSPropertyOp18
 70
     1
102
RTVSPropertyOp19
 70
     1
102
RTVSPropertyOp20
 70
     1
102
RTVSPropertyOp21
 70
     1
102
RTVSPropertyOp22
 70
     1
102
RTVSPropertyOp23
 70
     1
102
RTVSPropertyOp24
 70
     1
102
RTVSPropertyOp25
 70
     1
102
RTVSPropertyOp26
 70
     1
102
RTVSPropertyOp27
 70
     1
102
RTVSPropertyOp28
 70
     1
102
RTVSPropertyOp29
 70
     1
102
RTVSPropertyOp30
 70
     1
102
RTVSPropertyOp31
 70
     1
102
RTVSPropertyOp32
 70
     1
102
RTVSPropertyOp33
 70
     1
102
RTVSPropertyOp34
 70
     1
102
RTVSPropertyOp35
 70
     1
102
RTVSPropertyOp36
 70
     1
102
RTVSPropertyOp37
 70
     1
102
RTVSPropertyOp38
 70
     1
102
RTVSPropertyOp39
 70
     1
102
RTVSPropertyOp40
 70
     1
102
RTVSPropertyOp41
 70
     1
102
RTVSPropertyOp42
 70
     1
102
RTVSPropertyOp43
 70
     1
102
RTVSPropertyOp44
 70
     1
102
RTVSPropertyOp45
 70
     1
102
RTVSPropertyOp46
 70
     1
102
RTVSPropertyOp47
 70
     1
102
RTVSPropertyOp48
 70
     1
102
RTVSPropertyOp49
 70
     1
102
RTVSPropertyOp50
 70
     1
102
RTVSPropertyOp51
 70
     0
102
RTVSPropertyOp52
 70
     0
102
RTVSPropertyOp53
 70
     1
102
RTVSPropertyOp54
 70
     1
102
RTVSPropertyOp55
 70
     1
102
RTVSPropertyOp56
 70
     1
102
RTVSPropertyOp57
 70
     1
102
RTVSPost2010Prop28
280
     0
102
RTVSPost2010PropOp28
 70
     1
102
RTVSPost2010Prop29
280
     1
102
RTVSPost2010PropOp29
 70
     1
102
RTVSPost2010Prop30
280
     1
102
RTVSPost2010PropOp30
 70
     1
102
RTVSPost2010Prop31
280
     0
102
RTVSPost2010PropOp31
 70
     1
102
RTVSPost2010Prop32
280
     0
102
RTVSPost2010PropOp32
 70
     1
102
RTVSPost2010Prop33
280
     0
102
RTVSPost2010PropOp33
 70
     1
102
RTVSPost2010Prop34
280
     0
102
RTVSPost2010PropOp34
 70
     1
102
RTVSPost2010Prop35
280
     0
102
RTVSPost2010PropOp35
 70
     1
102
RTVSPost2010Prop36
280
     0
102
RTVSPost2010PropOp36
 70
     1
102
RTVSPost2010Prop37
 90
       50
102
RTVSPost2010PropOp37
 70
     1
102
RTVSPost2010Prop38
140
0.0
102
RTVSPost2010PropOp38
 70
     1
102
RTVSPost2010Prop39
140
1.0
102
RTVSPost2010PropOp39
 70
     1
102
RTVSPost2010Prop40
 90
        0
102
RTVSPost2010PropOp40
 70
     1
102
RTVSPost2010Prop41ColorIndex
 90
       18
102
RTVSPost2010Prop41ColorRGB
 90
        0
102
RTVSPost2010PropOp41
 70
     1
102
RTVSPost2010Prop42
 90
       50
102
RTVSPost2010PropOp42
 70
     1
102
RTVSPost2010Prop43
 90
        3
102
RTVSPost2010PropOp43
 70
     1
102
RTVSPost2010Prop44ColorIndex
 90
        5
102
RTVSPost2010Prop44ColorRGB
 90
      255
102
RTVSPost2010PropOp44
 70
     1
102
RTVSPost2010Prop45
280
     0
102
RTVSPost2010PropOp45
 70
     1
102
RTVSPost2010Prop46
 90
       50
102
RTVSPost2010PropOp46
 70
     1
102
RTVSPost2010Prop47
 90
       50
102
RTVSPost2010PropOp47
 70
     1
102
RTVSPost2010Prop48
 90
       50
102
RTVSPost2010PropOp48
 70
     1
102
RTVSPost2010Prop49
280
     0
102
RTVSPost2010PropOp49
 70
     1
102
RTVSPost2010Prop50
 90
       50
102
RTVSPost2010PropOp50
 70
     1
102
RTVSPost2010Prop51ColorIndex
 90
      256
102
RTVSPost2010Prop51ColorRGB
 90
-16777216
102
RTVSPost2010PropOp51
 70
     0
102
RTVSPost2010Prop52
140
1.0
102
RTVSPost2010PropOp52
 70
     0
102
RTVSPost2010Prop53
 90
        2
102
RTVSPost2010PropOp53
 70
     1
102
RTVSPost2010Prop54
  1
strokes_ogs.tif
102
RTVSPost2010PropOp54
 70
     1
102
RTVSPost2010Prop55
280
     0
102
RTVSPost2010PropOp55
 70
     1
102
RTVSPost2010Prop56
140
1.0
102
RTVSPost2010PropOp56
 70
     1
102
RTVSPost2010Prop57
140
1.0
102
RTVSPost2010PropOp57
 70
     1
  0
XRECORD
  5
587
102
{ACAD_REACTORS
330
586
102
}
330
586
100
AcDbXrecord
280
     1
102
RTVSPropertyOp0
 70
     1
102
RTVSPropertyOp1
 70
     1
102
RTVSPropertyOp2
 70
     1
102
RTVSPropertyOp3
 70
     1
102
RTVSPropertyOp4
 70
     1
102
RTVSPropertyOp5
 70
     1
102
RTVSPropertyOp6
 70
     1
102
RTVSPropertyOp7
 70
     1
102
RTVSPropertyOp8
 70
     1
102
RTVSPropertyOp9
 70
     1
102
RTVSPropertyOp10
 70
     1
102
RTVSPropertyOp11
 70
     1
102
RTVSPropertyOp12
 70
     1
102
RTVSPropertyOp13
 70
     1
102
RTVSPropertyOp14
 70
     1
102
RTVSPropertyOp15
 70
     1
102
RTVSPropertyOp16
 70
     1
102
RTVSPropertyOp17
 70
     1
102
RTVSPropertyOp18
 70
     1
102
RTVSPropertyOp19
 70
     1
102
RTVSPropertyOp20
 70
     1
102
RTVSPropertyOp21
 70
     1
102
RTVSPropertyOp22
 70
     1
102
RTVSPropertyOp23
 70
     1
102
RTVSPropertyOp24
 70
     1
102
RTVSPropertyOp25
 70
     1
102
RTVSPropertyOp26
 70
     1
102
RTVSPropertyOp27
 70
     1
102
RTVSPropertyOp28
 70
     1
102
RTVSPropertyOp29
 70
     1
102
RTVSPropertyOp30
 70
     1
102
RTVSPropertyOp31
 70
     1
102
RTVSPropertyOp32
 70
     1
102
RTVSPropertyOp33
 70
     1
102
RTVSPropertyOp34
 70
     1
102
RTVSPropertyOp35
 70
     1
102
RTVSPropertyOp36
 70
     1
102
RTVSPropertyOp37
 70
     1
102
RTVSPropertyOp38
 70
     1
102
RTVSPropertyOp39
 70
     1
102
RTVSPropertyOp40
 70
     1
102
RTVSPropertyOp41
 70
     1
102
RTVSPropertyOp42
 70
     1
102
RTVSPropertyOp43
 70
     1
102
RTVSPropertyOp44
 70
     1
102
RTVSPropertyOp45
 70
     1
102
RTVSPropertyOp46
 70
     1
102
RTVSPropertyOp47
 70
     1
102
RTVSPropertyOp48
 70
     1
102
RTVSPropertyOp49
 70
     1
102
RTVSPropertyOp50
 70
     1
102
RTVSPropertyOp51
 70
     0
102
RTVSPropertyOp52
 70
     0
102
RTVSPropertyOp53
 70
     1
102
RTVSPropertyOp54
 70
     1
102
RTVSPropertyOp55
 70
     1
102
RTVSPropertyOp56
 70
     1
102
RTVSPropertyOp57
 70
     1
102
RTVSPost2010Prop28
280
     0
102
RTVSPost2010PropOp28
 70
     1
102
RTVSPost2010Prop29
280
     1
102
RTVSPost2010PropOp29
 70
     1
102
RTVSPost2010Prop30
280
     1
102
RTVSPost2010PropOp30
 70
     1
102
RTVSPost2010Prop31
280
     0
102
RTVSPost2010PropOp31
 70
     1
102
RTVSPost2010Prop32
280
     0
102
RTVSPost2010PropOp32
 70
     1
102
RTVSPost2010Prop33
280
     0
102
RTVSPost2010PropOp33
 70
     1
102
RTVSPost2010Prop34
280
     0
102
RTVSPost2010PropOp34
 70
     1
102
RTVSPost2010Prop35
280
     0
102
RTVSPost2010PropOp35
 70
     1
102
RTVSPost2010Prop36
280
     0
102
RTVSPost2010PropOp36
 70
     1
102
RTVSPost2010Prop37
 90
       50
102
RTVSPost2010PropOp37
 70
     1
102
RTVSPost2010Prop38
140
0.0
102
RTVSPost2010PropOp38
 70
     1
102
RTVSPost2010Prop39
140
1.0
102
RTVSPost2010PropOp39
 70
     1
102
RTVSPost2010Prop40
 90
        0
102
RTVSPost2010PropOp40
 70
     1
102
RTVSPost2010Prop41ColorIndex
 90
       18
102
RTVSPost2010Prop41ColorRGB
 90
        0
102
RTVSPost2010PropOp41
 70
     1
102
RTVSPost2010Prop42
 90
       50
102
RTVSPost2010PropOp42
 70
     1
102
RTVSPost2010Prop43
 90
        3
102
RTVSPost2010PropOp43
 70
     1
102
RTVSPost2010Prop44ColorIndex
 90
        5
102
RTVSPost2010Prop44ColorRGB
 90
      255
102
RTVSPost2010PropOp44
 70
     1
102
RTVSPost2010Prop45
280
     0
102
RTVSPost2010PropOp45
 70
     1
102
RTVSPost2010Prop46
 90
       50
102
RTVSPost2010PropOp46
 70
     1
102
RTVSPost2010Prop47
 90
       50
102
RTVSPost2010PropOp47
 70
     1
102
RTVSPost2010Prop48
 90
       50
102
RTVSPost2010PropOp48
 70
     1
102
RTVSPost2010Prop49
280
     0
102
RTVSPost2010PropOp49
 70
     1
102
RTVSPost2010Prop50
 90
       50
102
RTVSPost2010PropOp50
 70
     1
102
RTVSPost2010Prop51ColorIndex
 90
      256
102
RTVSPost2010Prop51ColorRGB
 90
-16777216
102
RTVSPost2010PropOp51
 70
     0
102
RTVSPost2010Prop52
140
1.0
102
RTVSPost2010PropOp52
 70
     0
102
RTVSPost2010Prop53
 90
        2
102
RTVSPost2010PropOp53
 70
     1
102
RTVSPost2010Prop54
  1
strokes_ogs.tif
102
RTVSPost2010PropOp54
 70
     1
102
RTVSPost2010Prop55
280
     0
102
RTVSPost2010PropOp55
 70
     1
102
RTVSPost2010Prop56
140
1.0
102
RTVSPost2010PropOp56
 70
     1
102
RTVSPost2010Prop57
140
1.0
102
RTVSPost2010PropOp57
 70
     1
  0
XRECORD
  5
579
102
{ACAD_REACTORS
330
578
102
}
330
578
100
AcDbXrecord
280
     1
102
RTVSPropertyOp0
 70
     1
102
RTVSPropertyOp1
 70
     1
102
RTVSPropertyOp2
 70
     1
102
RTVSPropertyOp3
 70
     1
102
RTVSPropertyOp4
 70
     1
102
RTVSPropertyOp5
 70
     1
102
RTVSPropertyOp6
 70
     1
102
RTVSPropertyOp7
 70
     1
102
RTVSPropertyOp8
 70
     1
102
RTVSPropertyOp9
 70
     1
102
RTVSPropertyOp10
 70
     1
102
RTVSPropertyOp11
 70
     1
102
RTVSPropertyOp12
 70
     1
102
RTVSPropertyOp13
 70
     1
102
RTVSPropertyOp14
 70
     1
102
RTVSPropertyOp15
 70
     1
102
RTVSPropertyOp16
 70
     1
102
RTVSPropertyOp17
 70
     1
102
RTVSPropertyOp18
 70
     1
102
RTVSPropertyOp19
 70
     1
102
RTVSPropertyOp20
 70
     1
102
RTVSPropertyOp21
 70
     1
102
RTVSPropertyOp22
 70
     1
102
RTVSPropertyOp23
 70
     1
102
RTVSPropertyOp24
 70
     1
102
RTVSPropertyOp25
 70
     1
102
RTVSPropertyOp26
 70
     1
102
RTVSPropertyOp27
 70
     1
102
RTVSPropertyOp28
 70
     1
102
RTVSPropertyOp29
 70
     1
102
RTVSPropertyOp30
 70
     1
102
RTVSPropertyOp31
 70
     1
102
RTVSPropertyOp32
 70
     1
102
RTVSPropertyOp33
 70
     1
102
RTVSPropertyOp34
 70
     1
102
RTVSPropertyOp35
 70
     1
102
RTVSPropertyOp36
 70
     1
102
RTVSPropertyOp37
 70
     1
102
RTVSPropertyOp38
 70
     1
102
RTVSPropertyOp39
 70
     1
102
RTVSPropertyOp40
 70
     1
102
RTVSPropertyOp41
 70
     1
102
RTVSPropertyOp42
 70
     1
102
RTVSPropertyOp43
 70
     1
102
RTVSPropertyOp44
 70
     1
102
RTVSPropertyOp45
 70
     1
102
RTVSPropertyOp46
 70
     1
102
RTVSPropertyOp47
 70
     1
102
RTVSPropertyOp48
 70
     1
102
RTVSPropertyOp49
 70
     1
102
RTVSPropertyOp50
 70
     1
102
RTVSPropertyOp51
 70
     0
102
RTVSPropertyOp52
 70
     0
102
RTVSPropertyOp53
 70
     1
102
RTVSPropertyOp54
 70
     1
102
RTVSPropertyOp55
 70
     1
102
RTVSPropertyOp56
 70
     1
102
RTVSPropertyOp57
 70
     1
102
RTVSPost2010Prop28
280
     0
102
RTVSPost2010PropOp28
 70
     1
102
RTVSPost2010Prop29
280
     1
102
RTVSPost2010PropOp29
 70
     1
102
RTVSPost2010Prop30
280
     1
102
RTVSPost2010PropOp30
 70
     1
102
RTVSPost2010Prop31
280
     0
102
RTVSPost2010PropOp31
 70
     1
102
RTVSPost2010Prop32
280
     0
102
RTVSPost2010PropOp32
 70
     1
102
RTVSPost2010Prop33
280
     0
102
RTVSPost2010PropOp33
 70
     1
102
RTVSPost2010Prop34
280
     0
102
RTVSPost2010PropOp34
 70
     1
102
RTVSPost2010Prop35
280
     0
102
RTVSPost2010PropOp35
 70
     1
102
RTVSPost2010Prop36
280
     0
102
RTVSPost2010PropOp36
 70
     1
102
RTVSPost2010Prop37
 90
       50
102
RTVSPost2010PropOp37
 70
     1
102
RTVSPost2010Prop38
140
0.0
102
RTVSPost2010PropOp38
 70
     1
102
RTVSPost2010Prop39
140
1.0
102
RTVSPost2010PropOp39
 70
     1
102
RTVSPost2010Prop40
 90
        0
102
RTVSPost2010PropOp40
 70
     1
102
RTVSPost2010Prop41ColorIndex
 90
       18
102
RTVSPost2010Prop41ColorRGB
 90
        0
102
RTVSPost2010PropOp41
 70
     1
102
RTVSPost2010Prop42
 90
       50
102
RTVSPost2010PropOp42
 70
     1
102
RTVSPost2010Prop43
 90
        3
102
RTVSPost2010PropOp43
 70
     1
102
RTVSPost2010Prop44ColorIndex
 90
        5
102
RTVSPost2010Prop44ColorRGB
 90
      255
102
RTVSPost2010PropOp44
 70
     1
102
RTVSPost2010Prop45
280
     0
102
RTVSPost2010PropOp45
 70
     1
102
RTVSPost2010Prop46
 90
       50
102
RTVSPost2010PropOp46
 70
     1
102
RTVSPost2010Prop47
 90
       50
102
RTVSPost2010PropOp47
 70
     1
102
RTVSPost2010Prop48
 90
       50
102
RTVSPost2010PropOp48
 70
     1
102
RTVSPost2010Prop49
280
     0
102
RTVSPost2010PropOp49
 70
     1
102
RTVSPost2010Prop50
 90
       50
102
RTVSPost2010PropOp50
 70
     1
102
RTVSPost2010Prop51ColorIndex
 90
      256
102
RTVSPost2010Prop51ColorRGB
 90
-16777216
102
RTVSPost2010PropOp51
 70
     0
102
RTVSPost2010Prop52
140
1.0
102
RTVSPost2010PropOp52
 70
     0
102
RTVSPost2010Prop53
 90
        2
102
RTVSPost2010PropOp53
 70
     1
102
RTVSPost2010Prop54
  1
strokes_ogs.tif
102
RTVSPost2010PropOp54
 70
     1
102
RTVSPost2010Prop55
280
     0
102
RTVSPost2010PropOp55
 70
     1
102
RTVSPost2010Prop56
140
1.0
102
RTVSPost2010PropOp56
 70
     1
102
RTVSPost2010Prop57
140
1.0
102
RTVSPost2010PropOp57
 70
     1
  0
XRECORD
  5
599
102
{ACAD_REACTORS
330
598
102
}
330
598
100
AcDbXrecord
280
     1
102
RTVSPropertyOp0
 70
     1
102
RTVSPropertyOp1
 70
     1
102
RTVSPropertyOp2
 70
     1
102
RTVSPropertyOp3
 70
     1
102
RTVSPropertyOp4
 70
     1
102
RTVSPropertyOp5
 70
     1
102
RTVSPropertyOp6
 70
     1
102
RTVSPropertyOp7
 70
     1
102
RTVSPropertyOp8
 70
     1
102
RTVSPropertyOp9
 70
     1
102
RTVSPropertyOp10
 70
     1
102
RTVSPropertyOp11
 70
     1
102
RTVSPropertyOp12
 70
     1
102
RTVSPropertyOp13
 70
     1
102
RTVSPropertyOp14
 70
     1
102
RTVSPropertyOp15
 70
     1
102
RTVSPropertyOp16
 70
     1
102
RTVSPropertyOp17
 70
     1
102
RTVSPropertyOp18
 70
     1
102
RTVSPropertyOp19
 70
     1
102
RTVSPropertyOp20
 70
     1
102
RTVSPropertyOp21
 70
     1
102
RTVSPropertyOp22
 70
     1
102
RTVSPropertyOp23
 70
     1
102
RTVSPropertyOp24
 70
     1
102
RTVSPropertyOp25
 70
     1
102
RTVSPropertyOp26
 70
     1
102
RTVSPropertyOp27
 70
     1
102
RTVSPropertyOp28
 70
     1
102
RTVSPropertyOp29
 70
     1
102
RTVSPropertyOp30
 70
     1
102
RTVSPropertyOp31
 70
     1
102
RTVSPropertyOp32
 70
     1
102
RTVSPropertyOp33
 70
     1
102
RTVSPropertyOp34
 70
     1
102
RTVSPropertyOp35
 70
     1
102
RTVSPropertyOp36
 70
     1
102
RTVSPropertyOp37
 70
     1
102
RTVSPropertyOp38
 70
     1
102
RTVSPropertyOp39
 70
     1
102
RTVSPropertyOp40
 70
     1
102
RTVSPropertyOp41
 70
     1
102
RTVSPropertyOp42
 70
     1
102
RTVSPropertyOp43
 70
     1
102
RTVSPropertyOp44
 70
     1
102
RTVSPropertyOp45
 70
     1
102
RTVSPropertyOp46
 70
     1
102
RTVSPropertyOp47
 70
     1
102
RTVSPropertyOp48
 70
     1
102
RTVSPropertyOp49
 70
     1
102
RTVSPropertyOp50
 70
     1
102
RTVSPropertyOp51
 70
     0
102
RTVSPropertyOp52
 70
     0
102
RTVSPropertyOp53
 70
     1
102
RTVSPropertyOp54
 70
     1
102
RTVSPropertyOp55
 70
     1
102
RTVSPropertyOp56
 70
     1
102
RTVSPropertyOp57
 70
     1
102
RTVSPost2010Prop28
280
     0
102
RTVSPost2010PropOp28
 70
     1
102
RTVSPost2010Prop29
280
     1
102
RTVSPost2010PropOp29
 70
     1
102
RTVSPost2010Prop30
280
     1
102
RTVSPost2010PropOp30
 70
     1
102
RTVSPost2010Prop31
280
     0
102
RTVSPost2010PropOp31
 70
     1
102
RTVSPost2010Prop32
280
     0
102
RTVSPost2010PropOp32
 70
     1
102
RTVSPost2010Prop33
280
     0
102
RTVSPost2010PropOp33
 70
     1
102
RTVSPost2010Prop34
280
     0
102
RTVSPost2010PropOp34
 70
     1
102
RTVSPost2010Prop35
280
     0
102
RTVSPost2010PropOp35
 70
     1
102
RTVSPost2010Prop36
280
     0
102
RTVSPost2010PropOp36
 70
     1
102
RTVSPost2010Prop37
 90
       50
102
RTVSPost2010PropOp37
 70
     1
102
RTVSPost2010Prop38
140
0.0
102
RTVSPost2010PropOp38
 70
     1
102
RTVSPost2010Prop39
140
1.0
102
RTVSPost2010PropOp39
 70
     1
102
RTVSPost2010Prop40
 90
        0
102
RTVSPost2010PropOp40
 70
     1
102
RTVSPost2010Prop41ColorIndex
 90
       18
102
RTVSPost2010Prop41ColorRGB
 90
        0
102
RTVSPost2010PropOp41
 70
     1
102
RTVSPost2010Prop42
 90
       50
102
RTVSPost2010PropOp42
 70
     1
102
RTVSPost2010Prop43
 90
        3
102
RTVSPost2010PropOp43
 70
     1
102
RTVSPost2010Prop44ColorIndex
 90
        5
102
RTVSPost2010Prop44ColorRGB
 90
      255
102
RTVSPost2010PropOp44
 70
     1
102
RTVSPost2010Prop45
280
     0
102
RTVSPost2010PropOp45
 70
     1
102
RTVSPost2010Prop46
 90
       50
102
RTVSPost2010PropOp46
 70
     1
102
RTVSPost2010Prop47
 90
       50
102
RTVSPost2010PropOp47
 70
     1
102
RTVSPost2010Prop48
 90
       50
102
RTVSPost2010PropOp48
 70
     1
102
RTVSPost2010Prop49
280
     0
102
RTVSPost2010PropOp49
 70
     1
102
RTVSPost2010Prop50
 90
       50
102
RTVSPost2010PropOp50
 70
     1
102
RTVSPost2010Prop51ColorIndex
 90
      256
102
RTVSPost2010Prop51ColorRGB
 90
-16777216
102
RTVSPost2010PropOp51
 70
     0
102
RTVSPost2010Prop52
140
1.0
102
RTVSPost2010PropOp52
 70
     0
102
RTVSPost2010Prop53
 90
        2
102
RTVSPost2010PropOp53
 70
     1
102
RTVSPost2010Prop54
  1
strokes_ogs.tif
102
RTVSPost2010PropOp54
 70
     1
102
RTVSPost2010Prop55
280
     0
102
RTVSPost2010PropOp55
 70
     1
102
RTVSPost2010Prop56
140
1.0
102
RTVSPost2010PropOp56
 70
     1
102
RTVSPost2010Prop57
140
1.0
102
RTVSPost2010PropOp57
 70
     1
  0
ENDSEC
  0
EOF
