  0
SECTION
  2
HEADER
  9
$ACADVER
  1
AC1014
  9
$HANDSEED
  5
FFFF
  9
$MEASUREMENT
 70
     1
  0
ENDSEC
  0
SECTION
  2
TABLES
  0
TABLE
  2
VPORT
  5
8
330
0
100
AcDbSymbolTable
 70
     4
  0
VPORT
  5
2E
330
8
100
AcDbSymbolTableRecord
100
AcDbViewportTableRecord
  2
*ACTIVE
 70
     0
 10
0.0
 20
0.0
 11
1.0
 21
1.0
 12
210.0
 22
148.5
 13
0.0
 23
0.0
 14
10.0
 24
10.0
 15
10.0
 25
10.0
 16
0.0
 26
0.0
 36
1.0
 17
0.0
 27
0.0
 37
0.0
 40
341.0
 41
1.24
 42
50.0
 43
0.0
 44
0.0
 50
0.0
 51
0.0
 71
     0
 72
   100
 73
     1
 74
     3
 75
     0
 76
     0
 77
     0
 78
     0
  0
ENDTAB
  0
TABLE
  2
LTYPE
  5
5
330
0
100
AcDbSymbolTable
 70
     1
  0
LTYPE
  5
14
330
5
100
AcDbSymbolTableRecord
100
AcDbLinetypeTableRecord
  2
BYBLOCK
 70
     0
  3

 72
    65
 73
     0
 40
0.0
  0
LTYPE
  5
15
330
5
100
AcDbSymbolTableRecord
100
AcDbLinetypeTableRecord
  2
BYLAYER
 70
     0
  3

 72
    65
 73
     0
 40
0.0
  0
LTYPE
  5
16
330
5
100
AcDbSymbolTableRecord
100
AcDbLinetypeTableRecord
  2
CONTINUOUS
 70
     0
  3
Solid line
 72
    65
 73
     0
 40
0.0
  0
ENDTAB
  0
TABLE
  2
LAYER
  5
2
100
AcDbSymbolTable
 70
1
  0
LAYER
  5
50
100
AcDbSymbolTableRecord
100
AcDbLayerTableRecord
  2
0
 70
0
  6
CONTINUOUS
  0
ENDTAB
  0
TABLE
  2
STYLE
  5
3
330
0
100
AcDbSymbolTable
 70
     1
  0
STYLE
  5
11
330
3
100
AcDbSymbolTableRecord
100
AcDbTextStyleTableRecord
  2
STANDARD
 70
     0
 40
0.0
 41
1.0
 50
0.0
 71
     0
 42
2.5
  3
txt
  4

  0
ENDTAB
  0
TABLE
  2
VIEW
  5
6
330
0
100
AcDbSymbolTable
 70
     0
  0
ENDTAB
  0
TABLE
  2
UCS
  5
7
330
0
100
AcDbSymbolTable
 70
     0
  0
ENDTAB
  0
TABLE
  2
APPID
  5
9
330
0
100
AcDbSymbolTable
 70
     2
  0
APPID
  5
12
330
9
100
AcDbSymbolTableRecord
100
AcDbRegAppTableRecord
  2
ACAD
 70
     0
  0
ENDTAB
  0
TABLE
  2
DIMSTYLE
  5
A
330
0
100
AcDbSymbolTable
 70
     1
  0
DIMSTYLE
105
27
330
A
100
AcDbSymbolTableRecord
100
AcDbDimStyleTableRecord
  2
ISO-25
 70
     0
  3

  4

  5

  6

  7

 40
1.0
 41
2.5
 42
0.625
 43
3.75
 44
1.25
 45
0.0
 46
0.0
 47
0.0
 48
0.0
140
2.5
141
2.5
142
0.0
143
0.03937007874016
144
1.0
145
0.0
146
1.0
147
0.625
 71
     0
 72
     0
 73
     0
 74
     0
 75
     0
 76
     0
 77
     1
 78
     8
170
     0
171
     3
172
     1
173
     0
174
     0
175
     0
176
     0
177
     0
178
     0
270
     2
271
     2
272
     2
273
     2
274
     3
340
11
275
     0
280
     0
281
     0
282
     0
283
     0
284
     8
285
     0
286
     0
287
     3
288
     0
  0
ENDTAB
  0
TABLE
  2
BLOCK_RECORD
  5
1
330
0
100
AcDbSymbolTable
 70
     1
  0
BLOCK_RECORD
  5
1F
330
1
100
AcDbSymbolTableRecord
100
AcDbBlockTableRecord
  2
*MODEL_SPACE
  0
BLOCK_RECORD
  5
1B
330
1
100
AcDbSymbolTableRecord
100
AcDbBlockTableRecord
  2
*PAPER_SPACE
  0
ENDTAB
  0
ENDSEC
  0
SECTION
  2
BLOCKS
  0
BLOCK
  5
20
330
1F
100
AcDbEntity
  8
0
100
AcDbBlockBegin
  2
*MODEL_SPACE
 70
     0
 10
0.0
 20
0.0
 30
0.0
  3
*MODEL_SPACE
  1

  0
ENDBLK
  5
21
330
1F
100
AcDbEntity
  8
0
100
AcDbBlockEnd
  0
BLOCK
  5
1C
330
1B
100
AcDbEntity
 67
     1
  8
0
100
AcDbBlockBegin
  2
*PAPER_SPACE
  1

  0
ENDBLK
  5
1D
330
1B
100
AcDbEntity
 67
     1
  8
0
100
AcDbBlockEnd
  0
ENDSEC
  0
SECTION
  2
ENTITIES
  0
SPLINE
  5
100
100
AcDbEntity
  8
0
 62
7
100
AcDbSpline
 70
8
 71
3
 72
8
 73
4
 74
0
 40
0
 40
0
 40
0
 40
0
 40
1
 40
1
 40
1
 40
1
 10
45.697359
 20
82.790291
 30
0.0
 10
45.697359
 20
83.683455
 30
0.0
 10
45.220862
 20
84.508773
 30
0.0
 10
44.447359
 20
84.955355
 30
0.0
  0
SPLINE
  5
101
100
AcDbEntity
  8
0
 62
7
100
AcDbSpline
 70
8
 71
3
 72
8
 73
4
 74
0
 40
0
 40
0
 40
0
 40
0
 40
1
 40
1
 40
1
 40
1
 10
44.447359
 20
84.955355
 30
0.0
 10
43.673856
 20
85.401937
 30
0.0
 10
42.720862
 20
85.401937
 30
0.0
 10
41.947359
 20
84.955355
 30
0.0
  0
SPLINE
  5
102
100
AcDbEntity
  8
0
 62
7
100
AcDbSpline
 70
8
 71
3
 72
8
 73
4
 74
0
 40
0
 40
0
 40
0
 40
0
 40
1
 40
1
 40
1
 40
1
 10
41.947359
 20
84.955355
 30
0.0
 10
41.173856
 20
84.508773
 30
0.0
 10
40.697359
 20
83.683455
 30
0.0
 10
40.697359
 20
82.790291
 30
0.0
  0
SPLINE
  5
103
100
AcDbEntity
  8
0
 62
7
100
AcDbSpline
 70
8
 71
3
 72
8
 73
4
 74
0
 40
0
 40
0
 40
0
 40
0
 40
1
 40
1
 40
1
 40
1
 10
40.697359
 20
82.790291
 30
0.0
 10
40.697359
 20
81.897127
 30
0.0
 10
41.173856
 20
81.071810
 30
0.0
 10
41.947359
 20
80.625228
 30
0.0
  0
SPLINE
  5
104
100
AcDbEntity
  8
0
 62
7
100
AcDbSpline
 70
8
 71
3
 72
8
 73
4
 74
0
 40
0
 40
0
 40
0
 40
0
 40
1
 40
1
 40
1
 40
1
 10
41.947359
 20
80.625228
 30
0.0
 10
42.720862
 20
80.178646
 30
0.0
 10
43.673856
 20
80.178646
 30
0.0
 10
44.447359
 20
80.625228
 30
0.0
  0
SPLINE
  5
105
100
AcDbEntity
  8
0
 62
7
100
AcDbSpline
 70
8
 71
3
 72
8
 73
4
 74
0
 40
0
 40
0
 40
0
 40
0
 40
1
 40
1
 40
1
 40
1
 10
44.447359
 20
80.625228
 30
0.0
 10
45.220862
 20
81.071810
 30
0.0
 10
45.697359
 20
81.897127
 30
0.0
 10
45.697359
 20
82.790291
 30
0.0
  0
LWPOLYLINE
  5
106
100
AcDbEntity
  8
0
 62
7
100
AcDbPolyline
 90
5
 70
1
 10
413.370339
 20
123.218711
 30
0.0
 10
12.197367
 20
123.218711
 30
0.0
 10
12.197367
 20
-97.127261
 30
0.0
 10
413.370339
 20
-97.127261
 30
0.0
 10
413.370339
 20
123.218711
 30
0.0
  0
SPLINE
  5
107
100
AcDbEntity
  8
0
 62
7
100
AcDbSpline
 70
8
 71
3
 72
8
 73
4
 74
0
 40
0
 40
0
 40
0
 40
0
 40
1
 40
1
 40
1
 40
1
 10
55.125799
 20
92.218731
 30
0.0
 10
55.125799
 20
93.111895
 30
0.0
 10
54.649301
 20
93.937212
 30
0.0
 10
53.875799
 20
94.383794
 30
0.0
  0
SPLINE
  5
108
100
AcDbEntity
  8
0
 62
7
100
AcDbSpline
 70
8
 71
3
 72
8
 73
4
 74
0
 40
0
 40
0
 40
0
 40
0
 40
1
 40
1
 40
1
 40
1
 10
53.875799
 20
94.383794
 30
0.0
 10
53.102296
 20
94.830376
 30
0.0
 10
52.149301
 20
94.830376
 30
0.0
 10
51.375799
 20
94.383794
 30
0.0
  0
SPLINE
  5
109
100
AcDbEntity
  8
0
 62
7
100
AcDbSpline
 70
8
 71
3
 72
8
 73
4
 74
0
 40
0
 40
0
 40
0
 40
0
 40
1
 40
1
 40
1
 40
1
 10
51.375799
 20
94.383794
 30
0.0
 10
50.602296
 20
93.937212
 30
0.0
 10
50.125799
 20
93.111895
 30
0.0
 10
50.125799
 20
92.218731
 30
0.0
  0
SPLINE
  5
10a
100
AcDbEntity
  8
0
 62
7
100
AcDbSpline
 70
8
 71
3
 72
8
 73
4
 74
0
 40
0
 40
0
 40
0
 40
0
 40
1
 40
1
 40
1
 40
1
 10
50.125799
 20
92.218731
 30
0.0
 10
50.125799
 20
91.325567
 30
0.0
 10
50.602296
 20
90.500249
 30
0.0
 10
51.375799
 20
90.053667
 30
0.0
  0
SPLINE
  5
10b
100
AcDbEntity
  8
0
 62
7
100
AcDbSpline
 70
8
 71
3
 72
8
 73
4
 74
0
 40
0
 40
0
 40
0
 40
0
 40
1
 40
1
 40
1
 40
1
 10
51.375799
 20
90.053667
 30
0.0
 10
52.149301
 20
89.607085
 30
0.0
 10
53.102296
 20
89.607085
 30
0.0
 10
53.875799
 20
90.053667
 30
0.0
  0
SPLINE
  5
10c
100
AcDbEntity
  8
0
 62
7
100
AcDbSpline
 70
8
 71
3
 72
8
 73
4
 74
0
 40
0
 40
0
 40
0
 40
0
 40
1
 40
1
 40
1
 40
1
 10
53.875799
 20
90.053667
 30
0.0
 10
54.649301
 20
90.500249
 30
0.0
 10
55.125799
 20
91.325567
 30
0.0
 10
55.125799
 20
92.218731
 30
0.0
  0
LWPOLYLINE
  5
10d
100
AcDbEntity
  8
0
 62
7
100
AcDbPolyline
 90
1
 70
1
 10
45.697359
 20
82.790291
 30
0.0
  0
SPLINE
  5
10e
100
AcDbEntity
  8
0
 62
7
100
AcDbSpline
 70
8
 71
3
 72
8
 73
4
 74
0
 40
0
 40
0
 40
0
 40
0
 40
1
 40
1
 40
1
 40
1
 10
55.125799
 20
13.045731
 30
0.0
 10
55.125799
 20
13.938895
 30
0.0
 10
54.649301
 20
14.764213
 30
0.0
 10
53.875799
 20
15.210795
 30
0.0
  0
SPLINE
  5
10f
100
AcDbEntity
  8
0
 62
7
100
AcDbSpline
 70
8
 71
3
 72
8
 73
4
 74
0
 40
0
 40
0
 40
0
 40
0
 40
1
 40
1
 40
1
 40
1
 10
53.875799
 20
15.210795
 30
0.0
 10
53.102296
 20
15.657377
 30
0.0
 10
52.149301
 20
15.657377
 30
0.0
 10
51.375799
 20
15.210795
 30
0.0
  0
SPLINE
  5
110
100
AcDbEntity
  8
0
 62
7
100
AcDbSpline
 70
8
 71
3
 72
8
 73
4
 74
0
 40
0
 40
0
 40
0
 40
0
 40
1
 40
1
 40
1
 40
1
 10
51.375799
 20
15.210795
 30
0.0
 10
50.602296
 20
14.764213
 30
0.0
 10
50.125799
 20
13.938895
 30
0.0
 10
50.125799
 20
13.045731
 30
0.0
  0
SPLINE
  5
111
100
AcDbEntity
  8
0
 62
7
100
AcDbSpline
 70
8
 71
3
 72
8
 73
4
 74
0
 40
0
 40
0
 40
0
 40
0
 40
1
 40
1
 40
1
 40
1
 10
50.125799
 20
13.045731
 30
0.0
 10
50.125799
 20
12.152567
 30
0.0
 10
50.602296
 20
11.327250
 30
0.0
 10
51.375799
 20
10.880668
 30
0.0
  0
SPLINE
  5
112
100
AcDbEntity
  8
0
 62
7
100
AcDbSpline
 70
8
 71
3
 72
8
 73
4
 74
0
 40
0
 40
0
 40
0
 40
0
 40
1
 40
1
 40
1
 40
1
 10
51.375799
 20
10.880668
 30
0.0
 10
52.149301
 20
10.434086
 30
0.0
 10
53.102296
 20
10.434086
 30
0.0
 10
53.875799
 20
10.880668
 30
0.0
  0
SPLINE
  5
113
100
AcDbEntity
  8
0
 62
7
100
AcDbSpline
 70
8
 71
3
 72
8
 73
4
 74
0
 40
0
 40
0
 40
0
 40
0
 40
1
 40
1
 40
1
 40
1
 10
53.875799
 20
10.880668
 30
0.0
 10
54.649301
 20
11.327250
 30
0.0
 10
55.125799
 20
12.152567
 30
0.0
 10
55.125799
 20
13.045731
 30
0.0
  0
LWPOLYLINE
  5
114
100
AcDbEntity
  8
0
 62
7
100
AcDbPolyline
 90
1
 70
1
 10
55.125799
 20
92.218731
 30
0.0
  0
SPLINE
  5
115
100
AcDbEntity
  8
0
 62
7
100
AcDbSpline
 70
8
 71
3
 72
8
 73
4
 74
0
 40
0
 40
0
 40
0
 40
0
 40
1
 40
1
 40
1
 40
1
 10
124.554238
 20
82.790291
 30
0.0
 10
124.554238
 20
83.683455
 30
0.0
 10
124.077741
 20
84.508773
 30
0.0
 10
123.304238
 20
84.955355
 30
0.0
  0
SPLINE
  5
116
100
AcDbEntity
  8
0
 62
7
100
AcDbSpline
 70
8
 71
3
 72
8
 73
4
 74
0
 40
0
 40
0
 40
0
 40
0
 40
1
 40
1
 40
1
 40
1
 10
123.304238
 20
84.955355
 30
0.0
 10
122.530735
 20
85.401937
 30
0.0
 10
121.577741
 20
85.401937
 30
0.0
 10
120.804238
 20
84.955355
 30
0.0
  0
SPLINE
  5
117
100
AcDbEntity
  8
0
 62
7
100
AcDbSpline
 70
8
 71
3
 72
8
 73
4
 74
0
 40
0
 40
0
 40
0
 40
0
 40
1
 40
1
 40
1
 40
1
 10
120.804238
 20
84.955355
 30
0.0
 10
120.030735
 20
84.508773
 30
0.0
 10
119.554238
 20
83.683455
 30
0.0
 10
119.554238
 20
82.790291
 30
0.0
  0
SPLINE
  5
118
100
AcDbEntity
  8
0
 62
7
100
AcDbSpline
 70
8
 71
3
 72
8
 73
4
 74
0
 40
0
 40
0
 40
0
 40
0
 40
1
 40
1
 40
1
 40
1
 10
119.554238
 20
82.790291
 30
0.0
 10
119.554238
 20
81.897127
 30
0.0
 10
120.030735
 20
81.071810
 30
0.0
 10
120.804238
 20
80.625228
 30
0.0
  0
SPLINE
  5
119
100
AcDbEntity
  8
0
 62
7
100
AcDbSpline
 70
8
 71
3
 72
8
 73
4
 74
0
 40
0
 40
0
 40
0
 40
0
 40
1
 40
1
 40
1
 40
1
 10
120.804238
 20
80.625228
 30
0.0
 10
121.577741
 20
80.178646
 30
0.0
 10
122.530735
 20
80.178646
 30
0.0
 10
123.304238
 20
80.625228
 30
0.0
  0
SPLINE
  5
11a
100
AcDbEntity
  8
0
 62
7
100
AcDbSpline
 70
8
 71
3
 72
8
 73
4
 74
0
 40
0
 40
0
 40
0
 40
0
 40
1
 40
1
 40
1
 40
1
 10
123.304238
 20
80.625228
 30
0.0
 10
124.077741
 20
81.071810
 30
0.0
 10
124.554238
 20
81.897127
 30
0.0
 10
124.554238
 20
82.790291
 30
0.0
  0
LWPOLYLINE
  5
11b
100
AcDbEntity
  8
0
 62
7
100
AcDbPolyline
 90
1
 70
1
 10
55.125799
 20
13.045731
 30
0.0
  0
SPLINE
  5
11c
100
AcDbEntity
  8
0
 62
7
100
AcDbSpline
 70
8
 71
3
 72
8
 73
4
 74
0
 40
0
 40
0
 40
0
 40
0
 40
1
 40
1
 40
1
 40
1
 10
124.554238
 20
-56.698830
 30
0.0
 10
124.554238
 20
-55.805666
 30
0.0
 10
124.077741
 20
-54.980348
 30
0.0
 10
123.304238
 20
-54.533766
 30
0.0
  0
SPLINE
  5
11d
100
AcDbEntity
  8
0
 62
7
100
AcDbSpline
 70
8
 71
3
 72
8
 73
4
 74
0
 40
0
 40
0
 40
0
 40
0
 40
1
 40
1
 40
1
 40
1
 10
123.304238
 20
-54.533766
 30
0.0
 10
122.530735
 20
-54.087184
 30
0.0
 10
121.577741
 20
-54.087184
 30
0.0
 10
120.804238
 20
-54.533766
 30
0.0
  0
SPLINE
  5
11e
100
AcDbEntity
  8
0
 62
7
100
AcDbSpline
 70
8
 71
3
 72
8
 73
4
 74
0
 40
0
 40
0
 40
0
 40
0
 40
1
 40
1
 40
1
 40
1
 10
120.804238
 20
-54.533766
 30
0.0
 10
120.030735
 20
-54.980348
 30
0.0
 10
119.554238
 20
-55.805666
 30
0.0
 10
119.554238
 20
-56.698830
 30
0.0
  0
SPLINE
  5
11f
100
AcDbEntity
  8
0
 62
7
100
AcDbSpline
 70
8
 71
3
 72
8
 73
4
 74
0
 40
0
 40
0
 40
0
 40
0
 40
1
 40
1
 40
1
 40
1
 10
119.554238
 20
-56.698830
 30
0.0
 10
119.554238
 20
-57.591994
 30
0.0
 10
120.030735
 20
-58.417311
 30
0.0
 10
120.804238
 20
-58.863893
 30
0.0
  0
SPLINE
  5
120
100
AcDbEntity
  8
0
 62
7
100
AcDbSpline
 70
8
 71
3
 72
8
 73
4
 74
0
 40
0
 40
0
 40
0
 40
0
 40
1
 40
1
 40
1
 40
1
 10
120.804238
 20
-58.863893
 30
0.0
 10
121.577741
 20
-59.310475
 30
0.0
 10
122.530735
 20
-59.310475
 30
0.0
 10
123.304238
 20
-58.863893
 30
0.0
  0
SPLINE
  5
121
100
AcDbEntity
  8
0
 62
7
100
AcDbSpline
 70
8
 71
3
 72
8
 73
4
 74
0
 40
0
 40
0
 40
0
 40
0
 40
1
 40
1
 40
1
 40
1
 10
123.304238
 20
-58.863893
 30
0.0
 10
124.077741
 20
-58.417311
 30
0.0
 10
124.554238
 20
-57.591994
 30
0.0
 10
124.554238
 20
-56.698830
 30
0.0
  0
LWPOLYLINE
  5
122
100
AcDbEntity
  8
0
 62
7
100
AcDbPolyline
 90
1
 70
1
 10
124.554238
 20
82.790291
 30
0.0
  0
SPLINE
  5
123
100
AcDbEntity
  8
0
 62
7
100
AcDbSpline
 70
8
 71
3
 72
8
 73
4
 74
0
 40
0
 40
0
 40
0
 40
0
 40
1
 40
1
 40
1
 40
1
 10
45.697359
 20
-56.698830
 30
0.0
 10
45.697359
 20
-55.805666
 30
0.0
 10
45.220862
 20
-54.980348
 30
0.0
 10
44.447359
 20
-54.533766
 30
0.0
  0
SPLINE
  5
124
100
AcDbEntity
  8
0
 62
7
100
AcDbSpline
 70
8
 71
3
 72
8
 73
4
 74
0
 40
0
 40
0
 40
0
 40
0
 40
1
 40
1
 40
1
 40
1
 10
44.447359
 20
-54.533766
 30
0.0
 10
43.673856
 20
-54.087184
 30
0.0
 10
42.720862
 20
-54.087184
 30
0.0
 10
41.947359
 20
-54.533766
 30
0.0
  0
SPLINE
  5
125
100
AcDbEntity
  8
0
 62
7
100
AcDbSpline
 70
8
 71
3
 72
8
 73
4
 74
0
 40
0
 40
0
 40
0
 40
0
 40
1
 40
1
 40
1
 40
1
 10
41.947359
 20
-54.533766
 30
0.0
 10
41.173856
 20
-54.980348
 30
0.0
 10
40.697359
 20
-55.805666
 30
0.0
 10
40.697359
 20
-56.698830
 30
0.0
  0
SPLINE
  5
126
100
AcDbEntity
  8
0
 62
7
100
AcDbSpline
 70
8
 71
3
 72
8
 73
4
 74
0
 40
0
 40
0
 40
0
 40
0
 40
1
 40
1
 40
1
 40
1
 10
40.697359
 20
-56.698830
 30
0.0
 10
40.697359
 20
-57.591994
 30
0.0
 10
41.173856
 20
-58.417311
 30
0.0
 10
41.947359
 20
-58.863893
 30
0.0
  0
SPLINE
  5
127
100
AcDbEntity
  8
0
 62
7
100
AcDbSpline
 70
8
 71
3
 72
8
 73
4
 74
0
 40
0
 40
0
 40
0
 40
0
 40
1
 40
1
 40
1
 40
1
 10
41.947359
 20
-58.863893
 30
0.0
 10
42.720862
 20
-59.310475
 30
0.0
 10
43.673856
 20
-59.310475
 30
0.0
 10
44.447359
 20
-58.863893
 30
0.0
  0
SPLINE
  5
128
100
AcDbEntity
  8
0
 62
7
100
AcDbSpline
 70
8
 71
3
 72
8
 73
4
 74
0
 40
0
 40
0
 40
0
 40
0
 40
1
 40
1
 40
1
 40
1
 10
44.447359
 20
-58.863893
 30
0.0
 10
45.220862
 20
-58.417311
 30
0.0
 10
45.697359
 20
-57.591994
 30
0.0
 10
45.697359
 20
-56.698830
 30
0.0
  0
LWPOLYLINE
  5
129
100
AcDbEntity
  8
0
 62
7
100
AcDbPolyline
 90
1
 70
1
 10
124.554238
 20
-56.698830
 30
0.0
  0
SPLINE
  5
12a
100
AcDbEntity
  8
0
 62
7
100
AcDbSpline
 70
8
 71
3
 72
8
 73
4
 74
0
 40
0
 40
0
 40
0
 40
0
 40
1
 40
1
 40
1
 40
1
 10
55.125799
 20
-66.127269
 30
0.0
 10
55.125799
 20
-65.234105
 30
0.0
 10
54.649301
 20
-64.408788
 30
0.0
 10
53.875799
 20
-63.962206
 30
0.0
  0
SPLINE
  5
12b
100
AcDbEntity
  8
0
 62
7
100
AcDbSpline
 70
8
 71
3
 72
8
 73
4
 74
0
 40
0
 40
0
 40
0
 40
0
 40
1
 40
1
 40
1
 40
1
 10
53.875799
 20
-63.962206
 30
0.0
 10
53.102296
 20
-63.515624
 30
0.0
 10
52.149301
 20
-63.515624
 30
0.0
 10
51.375799
 20
-63.962206
 30
0.0
  0
SPLINE
  5
12c
100
AcDbEntity
  8
0
 62
7
100
AcDbSpline
 70
8
 71
3
 72
8
 73
4
 74
0
 40
0
 40
0
 40
0
 40
0
 40
1
 40
1
 40
1
 40
1
 10
51.375799
 20
-63.962206
 30
0.0
 10
50.602296
 20
-64.408788
 30
0.0
 10
50.125799
 20
-65.234105
 30
0.0
 10
50.125799
 20
-66.127269
 30
0.0
  0
SPLINE
  5
12d
100
AcDbEntity
  8
0
 62
7
100
AcDbSpline
 70
8
 71
3
 72
8
 73
4
 74
0
 40
0
 40
0
 40
0
 40
0
 40
1
 40
1
 40
1
 40
1
 10
50.125799
 20
-66.127269
 30
0.0
 10
50.125799
 20
-67.020433
 30
0.0
 10
50.602296
 20
-67.845751
 30
0.0
 10
51.375799
 20
-68.292333
 30
0.0
  0
SPLINE
  5
12e
100
AcDbEntity
  8
0
 62
7
100
AcDbSpline
 70
8
 71
3
 72
8
 73
4
 74
0
 40
0
 40
0
 40
0
 40
0
 40
1
 40
1
 40
1
 40
1
 10
51.375799
 20
-68.292333
 30
0.0
 10
52.149301
 20
-68.738915
 30
0.0
 10
53.102296
 20
-68.738915
 30
0.0
 10
53.875799
 20
-68.292333
 30
0.0
  0
SPLINE
  5
12f
100
AcDbEntity
  8
0
 62
7
100
AcDbSpline
 70
8
 71
3
 72
8
 73
4
 74
0
 40
0
 40
0
 40
0
 40
0
 40
1
 40
1
 40
1
 40
1
 10
53.875799
 20
-68.292333
 30
0.0
 10
54.649301
 20
-67.845751
 30
0.0
 10
55.125799
 20
-67.020433
 30
0.0
 10
55.125799
 20
-66.127269
 30
0.0
  0
LWPOLYLINE
  5
130
100
AcDbEntity
  8
0
 62
7
100
AcDbPolyline
 90
1
 70
1
 10
45.697359
 20
-56.698830
 30
0.0
  0
SPLINE
  5
131
100
AcDbEntity
  8
0
 62
7
100
AcDbSpline
 70
8
 71
3
 72
8
 73
4
 74
0
 40
0
 40
0
 40
0
 40
0
 40
1
 40
1
 40
1
 40
1
 10
245.441908
 20
-66.127269
 30
0.0
 10
245.441908
 20
-65.234105
 30
0.0
 10
244.965410
 20
-64.408788
 30
0.0
 10
244.191908
 20
-63.962206
 30
0.0
  0
SPLINE
  5
132
100
AcDbEntity
  8
0
 62
7
100
AcDbSpline
 70
8
 71
3
 72
8
 73
4
 74
0
 40
0
 40
0
 40
0
 40
0
 40
1
 40
1
 40
1
 40
1
 10
244.191908
 20
-63.962206
 30
0.0
 10
243.418405
 20
-63.515624
 30
0.0
 10
242.465410
 20
-63.515624
 30
0.0
 10
241.691908
 20
-63.962206
 30
0.0
  0
SPLINE
  5
133
100
AcDbEntity
  8
0
 62
7
100
AcDbSpline
 70
8
 71
3
 72
8
 73
4
 74
0
 40
0
 40
0
 40
0
 40
0
 40
1
 40
1
 40
1
 40
1
 10
241.691908
 20
-63.962206
 30
0.0
 10
240.918405
 20
-64.408788
 30
0.0
 10
240.441908
 20
-65.234105
 30
0.0
 10
240.441908
 20
-66.127269
 30
0.0
  0
SPLINE
  5
134
100
AcDbEntity
  8
0
 62
7
100
AcDbSpline
 70
8
 71
3
 72
8
 73
4
 74
0
 40
0
 40
0
 40
0
 40
0
 40
1
 40
1
 40
1
 40
1
 10
240.441908
 20
-66.127269
 30
0.0
 10
240.441908
 20
-67.020433
 30
0.0
 10
240.918405
 20
-67.845751
 30
0.0
 10
241.691908
 20
-68.292333
 30
0.0
  0
SPLINE
  5
135
100
AcDbEntity
  8
0
 62
7
100
AcDbSpline
 70
8
 71
3
 72
8
 73
4
 74
0
 40
0
 40
0
 40
0
 40
0
 40
1
 40
1
 40
1
 40
1
 10
241.691908
 20
-68.292333
 30
0.0
 10
242.465410
 20
-68.738915
 30
0.0
 10
243.418405
 20
-68.738915
 30
0.0
 10
244.191908
 20
-68.292333
 30
0.0
  0
SPLINE
  5
136
100
AcDbEntity
  8
0
 62
7
100
AcDbSpline
 70
8
 71
3
 72
8
 73
4
 74
0
 40
0
 40
0
 40
0
 40
0
 40
1
 40
1
 40
1
 40
1
 10
244.191908
 20
-68.292333
 30
0.0
 10
244.965410
 20
-67.845751
 30
0.0
 10
245.441908
 20
-67.020433
 30
0.0
 10
245.441908
 20
-66.127269
 30
0.0
  0
LWPOLYLINE
  5
137
100
AcDbEntity
  8
0
 62
7
100
AcDbPolyline
 90
1
 70
1
 10
55.125799
 20
-66.127269
 30
0.0
  0
SPLINE
  5
138
100
AcDbEntity
  8
0
 62
7
100
AcDbSpline
 70
8
 71
3
 72
8
 73
4
 74
0
 40
0
 40
0
 40
0
 40
0
 40
1
 40
1
 40
1
 40
1
 10
176.013468
 20
-56.698830
 30
0.0
 10
176.013468
 20
-55.805666
 30
0.0
 10
175.536971
 20
-54.980348
 30
0.0
 10
174.763468
 20
-54.533766
 30
0.0
  0
SPLINE
  5
139
100
AcDbEntity
  8
0
 62
7
100
AcDbSpline
 70
8
 71
3
 72
8
 73
4
 74
0
 40
0
 40
0
 40
0
 40
0
 40
1
 40
1
 40
1
 40
1
 10
174.763468
 20
-54.533766
 30
0.0
 10
173.989965
 20
-54.087184
 30
0.0
 10
173.036971
 20
-54.087184
 30
0.0
 10
172.263468
 20
-54.533766
 30
0.0
  0
SPLINE
  5
13a
100
AcDbEntity
  8
0
 62
7
100
AcDbSpline
 70
8
 71
3
 72
8
 73
4
 74
0
 40
0
 40
0
 40
0
 40
0
 40
1
 40
1
 40
1
 40
1
 10
172.263468
 20
-54.533766
 30
0.0
 10
171.489965
 20
-54.980348
 30
0.0
 10
171.013468
 20
-55.805666
 30
0.0
 10
171.013468
 20
-56.698830
 30
0.0
  0
SPLINE
  5
13b
100
AcDbEntity
  8
0
 62
7
100
AcDbSpline
 70
8
 71
3
 72
8
 73
4
 74
0
 40
0
 40
0
 40
0
 40
0
 40
1
 40
1
 40
1
 40
1
 10
171.013468
 20
-56.698830
 30
0.0
 10
171.013468
 20
-57.591994
 30
0.0
 10
171.489965
 20
-58.417311
 30
0.0
 10
172.263468
 20
-58.863893
 30
0.0
  0
SPLINE
  5
13c
100
AcDbEntity
  8
0
 62
7
100
AcDbSpline
 70
8
 71
3
 72
8
 73
4
 74
0
 40
0
 40
0
 40
0
 40
0
 40
1
 40
1
 40
1
 40
1
 10
172.263468
 20
-58.863893
 30
0.0
 10
173.036971
 20
-59.310475
 30
0.0
 10
173.989965
 20
-59.310475
 30
0.0
 10
174.763468
 20
-58.863893
 30
0.0
  0
SPLINE
  5
13d
100
AcDbEntity
  8
0
 62
7
100
AcDbSpline
 70
8
 71
3
 72
8
 73
4
 74
0
 40
0
 40
0
 40
0
 40
0
 40
1
 40
1
 40
1
 40
1
 10
174.763468
 20
-58.863893
 30
0.0
 10
175.536971
 20
-58.417311
 30
0.0
 10
176.013468
 20
-57.591994
 30
0.0
 10
176.013468
 20
-56.698830
 30
0.0
  0
LWPOLYLINE
  5
13e
100
AcDbEntity
  8
0
 62
7
100
AcDbPolyline
 90
1
 70
1
 10
245.441908
 20
-66.127269
 30
0.0
  0
SPLINE
  5
13f
100
AcDbEntity
  8
0
 62
7
100
AcDbSpline
 70
8
 71
3
 72
8
 73
4
 74
0
 40
0
 40
0
 40
0
 40
0
 40
1
 40
1
 40
1
 40
1
 10
254.870347
 20
-56.698830
 30
0.0
 10
254.870638
 20
-55.805472
 30
0.0
 10
254.394204
 20
-54.979851
 30
0.0
 10
253.620582
 20
-54.533088
 30
0.0
  0
SPLINE
  5
140
100
AcDbEntity
  8
0
 62
7
100
AcDbSpline
 70
8
 71
3
 72
8
 73
4
 74
0
 40
0
 40
0
 40
0
 40
0
 40
1
 40
1
 40
1
 40
1
 10
253.620582
 20
-54.533088
 30
0.0
 10
252.846960
 20
-54.086326
 30
0.0
 10
251.893734
 20
-54.086326
 30
0.0
 10
251.120112
 20
-54.533088
 30
0.0
  0
SPLINE
  5
141
100
AcDbEntity
  8
0
 62
7
100
AcDbSpline
 70
8
 71
3
 72
8
 73
4
 74
0
 40
0
 40
0
 40
0
 40
0
 40
1
 40
1
 40
1
 40
1
 10
251.120112
 20
-54.533088
 30
0.0
 10
250.346490
 20
-54.979851
 30
0.0
 10
249.870056
 20
-55.805472
 30
0.0
 10
249.870347
 20
-56.698830
 30
0.0
  0
SPLINE
  5
142
100
AcDbEntity
  8
0
 62
7
100
AcDbSpline
 70
8
 71
3
 72
8
 73
4
 74
0
 40
0
 40
0
 40
0
 40
0
 40
1
 40
1
 40
1
 40
1
 10
249.870347
 20
-56.698830
 30
0.0
 10
249.870056
 20
-57.592187
 30
0.0
 10
250.346490
 20
-58.417808
 30
0.0
 10
251.120112
 20
-58.864571
 30
0.0
  0
SPLINE
  5
143
100
AcDbEntity
  8
0
 62
7
100
AcDbSpline
 70
8
 71
3
 72
8
 73
4
 74
0
 40
0
 40
0
 40
0
 40
0
 40
1
 40
1
 40
1
 40
1
 10
251.120112
 20
-58.864571
 30
0.0
 10
251.893734
 20
-59.311334
 30
0.0
 10
252.846960
 20
-59.311334
 30
0.0
 10
253.620582
 20
-58.864571
 30
0.0
  0
SPLINE
  5
144
100
AcDbEntity
  8
0
 62
7
100
AcDbSpline
 70
8
 71
3
 72
8
 73
4
 74
0
 40
0
 40
0
 40
0
 40
0
 40
1
 40
1
 40
1
 40
1
 10
253.620582
 20
-58.864571
 30
0.0
 10
254.394204
 20
-58.417808
 30
0.0
 10
254.870638
 20
-57.592187
 30
0.0
 10
254.870347
 20
-56.698830
 30
0.0
  0
LWPOLYLINE
  5
145
100
AcDbEntity
  8
0
 62
7
100
AcDbPolyline
 90
1
 70
1
 10
176.013468
 20
-56.698830
 30
0.0
  0
SPLINE
  5
146
100
AcDbEntity
  8
0
 62
7
100
AcDbSpline
 70
8
 71
3
 72
8
 73
4
 74
0
 40
0
 40
0
 40
0
 40
0
 40
1
 40
1
 40
1
 40
1
 10
245.441908
 20
13.045731
 30
0.0
 10
245.441908
 20
13.938895
 30
0.0
 10
244.965410
 20
14.764213
 30
0.0
 10
244.191908
 20
15.210795
 30
0.0
  0
SPLINE
  5
147
100
AcDbEntity
  8
0
 62
7
100
AcDbSpline
 70
8
 71
3
 72
8
 73
4
 74
0
 40
0
 40
0
 40
0
 40
0
 40
1
 40
1
 40
1
 40
1
 10
244.191908
 20
15.210795
 30
0.0
 10
243.418405
 20
15.657377
 30
0.0
 10
242.465410
 20
15.657377
 30
0.0
 10
241.691908
 20
15.210795
 30
0.0
  0
SPLINE
  5
148
100
AcDbEntity
  8
0
 62
7
100
AcDbSpline
 70
8
 71
3
 72
8
 73
4
 74
0
 40
0
 40
0
 40
0
 40
0
 40
1
 40
1
 40
1
 40
1
 10
241.691908
 20
15.210795
 30
0.0
 10
240.918405
 20
14.764213
 30
0.0
 10
240.441908
 20
13.938895
 30
0.0
 10
240.441908
 20
13.045731
 30
0.0
  0
SPLINE
  5
149
100
AcDbEntity
  8
0
 62
7
100
AcDbSpline
 70
8
 71
3
 72
8
 73
4
 74
0
 40
0
 40
0
 40
0
 40
0
 40
1
 40
1
 40
1
 40
1
 10
240.441908
 20
13.045731
 30
0.0
 10
240.441908
 20
12.152567
 30
0.0
 10
240.918405
 20
11.327250
 30
0.0
 10
241.691908
 20
10.880668
 30
0.0
  0
SPLINE
  5
14a
100
AcDbEntity
  8
0
 62
7
100
AcDbSpline
 70
8
 71
3
 72
8
 73
4
 74
0
 40
0
 40
0
 40
0
 40
0
 40
1
 40
1
 40
1
 40
1
 10
241.691908
 20
10.880668
 30
0.0
 10
242.465410
 20
10.434086
 30
0.0
 10
243.418405
 20
10.434086
 30
0.0
 10
244.191908
 20
10.880668
 30
0.0
  0
SPLINE
  5
14b
100
AcDbEntity
  8
0
 62
7
100
AcDbSpline
 70
8
 71
3
 72
8
 73
4
 74
0
 40
0
 40
0
 40
0
 40
0
 40
1
 40
1
 40
1
 40
1
 10
244.191908
 20
10.880668
 30
0.0
 10
244.965410
 20
11.327250
 30
0.0
 10
245.441908
 20
12.152567
 30
0.0
 10
245.441908
 20
13.045731
 30
0.0
  0
LWPOLYLINE
  5
14c
100
AcDbEntity
  8
0
 62
7
100
AcDbPolyline
 90
1
 70
1
 10
254.870347
 20
-56.698830
 30
0.0
  0
SPLINE
  5
14d
100
AcDbEntity
  8
0
 62
7
100
AcDbSpline
 70
8
 71
3
 72
8
 73
4
 74
0
 40
0
 40
0
 40
0
 40
0
 40
1
 40
1
 40
1
 40
1
 10
254.870347
 20
82.790291
 30
0.0
 10
254.870638
 20
83.683649
 30
0.0
 10
254.394204
 20
84.509270
 30
0.0
 10
253.620582
 20
84.956033
 30
0.0
  0
SPLINE
  5
14e
100
AcDbEntity
  8
0
 62
7
100
AcDbSpline
 70
8
 71
3
 72
8
 73
4
 74
0
 40
0
 40
0
 40
0
 40
0
 40
1
 40
1
 40
1
 40
1
 10
253.620582
 20
84.956033
 30
0.0
 10
252.846960
 20
85.402795
 30
0.0
 10
251.893734
 20
85.402795
 30
0.0
 10
251.120112
 20
84.956033
 30
0.0
  0
SPLINE
  5
14f
100
AcDbEntity
  8
0
 62
7
100
AcDbSpline
 70
8
 71
3
 72
8
 73
4
 74
0
 40
0
 40
0
 40
0
 40
0
 40
1
 40
1
 40
1
 40
1
 10
251.120112
 20
84.956033
 30
0.0
 10
250.346490
 20
84.509270
 30
0.0
 10
249.870056
 20
83.683649
 30
0.0
 10
249.870347
 20
82.790291
 30
0.0
  0
SPLINE
  5
150
100
AcDbEntity
  8
0
 62
7
100
AcDbSpline
 70
8
 71
3
 72
8
 73
4
 74
0
 40
0
 40
0
 40
0
 40
0
 40
1
 40
1
 40
1
 40
1
 10
249.870347
 20
82.790291
 30
0.0
 10
249.870056
 20
81.896934
 30
0.0
 10
250.346490
 20
81.071313
 30
0.0
 10
251.120112
 20
80.624550
 30
0.0
  0
SPLINE
  5
151
100
AcDbEntity
  8
0
 62
7
100
AcDbSpline
 70
8
 71
3
 72
8
 73
4
 74
0
 40
0
 40
0
 40
0
 40
0
 40
1
 40
1
 40
1
 40
1
 10
251.120112
 20
80.624550
 30
0.0
 10
251.893734
 20
80.177787
 30
0.0
 10
252.846960
 20
80.177787
 30
0.0
 10
253.620582
 20
80.624550
 30
0.0
  0
SPLINE
  5
152
100
AcDbEntity
  8
0
 62
7
100
AcDbSpline
 70
8
 71
3
 72
8
 73
4
 74
0
 40
0
 40
0
 40
0
 40
0
 40
1
 40
1
 40
1
 40
1
 10
253.620582
 20
80.624550
 30
0.0
 10
254.394204
 20
81.071313
 30
0.0
 10
254.870638
 20
81.896934
 30
0.0
 10
254.870347
 20
82.790291
 30
0.0
  0
LWPOLYLINE
  5
153
100
AcDbEntity
  8
0
 62
7
100
AcDbPolyline
 90
1
 70
1
 10
245.441908
 20
13.045731
 30
0.0
  0
SPLINE
  5
154
100
AcDbEntity
  8
0
 62
7
100
AcDbSpline
 70
8
 71
3
 72
8
 73
4
 74
0
 40
0
 40
0
 40
0
 40
0
 40
1
 40
1
 40
1
 40
1
 10
245.441908
 20
92.218731
 30
0.0
 10
245.441908
 20
93.111895
 30
0.0
 10
244.965410
 20
93.937212
 30
0.0
 10
244.191908
 20
94.383794
 30
0.0
  0
SPLINE
  5
155
100
AcDbEntity
  8
0
 62
7
100
AcDbSpline
 70
8
 71
3
 72
8
 73
4
 74
0
 40
0
 40
0
 40
0
 40
0
 40
1
 40
1
 40
1
 40
1
 10
244.191908
 20
94.383794
 30
0.0
 10
243.418405
 20
94.830376
 30
0.0
 10
242.465410
 20
94.830376
 30
0.0
 10
241.691908
 20
94.383794
 30
0.0
  0
SPLINE
  5
156
100
AcDbEntity
  8
0
 62
7
100
AcDbSpline
 70
8
 71
3
 72
8
 73
4
 74
0
 40
0
 40
0
 40
0
 40
0
 40
1
 40
1
 40
1
 40
1
 10
241.691908
 20
94.383794
 30
0.0
 10
240.918405
 20
93.937212
 30
0.0
 10
240.441908
 20
93.111895
 30
0.0
 10
240.441908
 20
92.218731
 30
0.0
  0
SPLINE
  5
157
100
AcDbEntity
  8
0
 62
7
100
AcDbSpline
 70
8
 71
3
 72
8
 73
4
 74
0
 40
0
 40
0
 40
0
 40
0
 40
1
 40
1
 40
1
 40
1
 10
240.441908
 20
92.218731
 30
0.0
 10
240.441908
 20
91.325567
 30
0.0
 10
240.918405
 20
90.500249
 30
0.0
 10
241.691908
 20
90.053667
 30
0.0
  0
SPLINE
  5
158
100
AcDbEntity
  8
0
 62
7
100
AcDbSpline
 70
8
 71
3
 72
8
 73
4
 74
0
 40
0
 40
0
 40
0
 40
0
 40
1
 40
1
 40
1
 40
1
 10
241.691908
 20
90.053667
 30
0.0
 10
242.465410
 20
89.607085
 30
0.0
 10
243.418405
 20
89.607085
 30
0.0
 10
244.191908
 20
90.053667
 30
0.0
  0
SPLINE
  5
159
100
AcDbEntity
  8
0
 62
7
100
AcDbSpline
 70
8
 71
3
 72
8
 73
4
 74
0
 40
0
 40
0
 40
0
 40
0
 40
1
 40
1
 40
1
 40
1
 10
244.191908
 20
90.053667
 30
0.0
 10
244.965410
 20
90.500249
 30
0.0
 10
245.441908
 20
91.325567
 30
0.0
 10
245.441908
 20
92.218731
 30
0.0
  0
LWPOLYLINE
  5
15a
100
AcDbEntity
  8
0
 62
7
100
AcDbPolyline
 90
1
 70
1
 10
254.870347
 20
82.790291
 30
0.0
  0
SPLINE
  5
15b
100
AcDbEntity
  8
0
 62
7
100
AcDbSpline
 70
8
 71
3
 72
8
 73
4
 74
0
 40
0
 40
0
 40
0
 40
0
 40
1
 40
1
 40
1
 40
1
 10
176.013468
 20
82.790291
 30
0.0
 10
176.013468
 20
83.683455
 30
0.0
 10
175.536971
 20
84.508773
 30
0.0
 10
174.763468
 20
84.955355
 30
0.0
  0
SPLINE
  5
15c
100
AcDbEntity
  8
0
 62
7
100
AcDbSpline
 70
8
 71
3
 72
8
 73
4
 74
0
 40
0
 40
0
 40
0
 40
0
 40
1
 40
1
 40
1
 40
1
 10
174.763468
 20
84.955355
 30
0.0
 10
173.989965
 20
85.401937
 30
0.0
 10
173.036971
 20
85.401937
 30
0.0
 10
172.263468
 20
84.955355
 30
0.0
  0
SPLINE
  5
15d
100
AcDbEntity
  8
0
 62
7
100
AcDbSpline
 70
8
 71
3
 72
8
 73
4
 74
0
 40
0
 40
0
 40
0
 40
0
 40
1
 40
1
 40
1
 40
1
 10
172.263468
 20
84.955355
 30
0.0
 10
171.489965
 20
84.508773
 30
0.0
 10
171.013468
 20
83.683455
 30
0.0
 10
171.013468
 20
82.790291
 30
0.0
  0
SPLINE
  5
15e
100
AcDbEntity
  8
0
 62
7
100
AcDbSpline
 70
8
 71
3
 72
8
 73
4
 74
0
 40
0
 40
0
 40
0
 40
0
 40
1
 40
1
 40
1
 40
1
 10
171.013468
 20
82.790291
 30
0.0
 10
171.013468
 20
81.897127
 30
0.0
 10
171.489965
 20
81.071810
 30
0.0
 10
172.263468
 20
80.625228
 30
0.0
  0
SPLINE
  5
15f
100
AcDbEntity
  8
0
 62
7
100
AcDbSpline
 70
8
 71
3
 72
8
 73
4
 74
0
 40
0
 40
0
 40
0
 40
0
 40
1
 40
1
 40
1
 40
1
 10
172.263468
 20
80.625228
 30
0.0
 10
173.036971
 20
80.178646
 30
0.0
 10
173.989965
 20
80.178646
 30
0.0
 10
174.763468
 20
80.625228
 30
0.0
  0
SPLINE
  5
160
100
AcDbEntity
  8
0
 62
7
100
AcDbSpline
 70
8
 71
3
 72
8
 73
4
 74
0
 40
0
 40
0
 40
0
 40
0
 40
1
 40
1
 40
1
 40
1
 10
174.763468
 20
80.625228
 30
0.0
 10
175.536971
 20
81.071810
 30
0.0
 10
176.013468
 20
81.897127
 30
0.0
 10
176.013468
 20
82.790291
 30
0.0
  0
LWPOLYLINE
  5
161
100
AcDbEntity
  8
0
 62
7
100
AcDbPolyline
 90
1
 70
1
 10
245.441908
 20
92.218731
 30
0.0
  0
SPLINE
  5
162
100
AcDbEntity
  8
0
 62
7
100
AcDbSpline
 70
8
 71
3
 72
8
 73
4
 74
0
 40
0
 40
0
 40
0
 40
0
 40
1
 40
1
 40
1
 40
1
 10
311.910542
 20
104.499345
 30
0.0
 10
311.910542
 20
105.392509
 30
0.0
 10
311.434045
 20
106.217826
 30
0.0
 10
310.660542
 20
106.664408
 30
0.0
  0
SPLINE
  5
163
100
AcDbEntity
  8
0
 62
7
100
AcDbSpline
 70
8
 71
3
 72
8
 73
4
 74
0
 40
0
 40
0
 40
0
 40
0
 40
1
 40
1
 40
1
 40
1
 10
310.660542
 20
106.664408
 30
0.0
 10
309.887040
 20
107.110990
 30
0.0
 10
308.934045
 20
107.110990
 30
0.0
 10
308.160542
 20
106.664408
 30
0.0
  0
SPLINE
  5
164
100
AcDbEntity
  8
0
 62
7
100
AcDbSpline
 70
8
 71
3
 72
8
 73
4
 74
0
 40
0
 40
0
 40
0
 40
0
 40
1
 40
1
 40
1
 40
1
 10
308.160542
 20
106.664408
 30
0.0
 10
307.387040
 20
106.217826
 30
0.0
 10
306.910542
 20
105.392509
 30
0.0
 10
306.910542
 20
104.499345
 30
0.0
  0
SPLINE
  5
165
100
AcDbEntity
  8
0
 62
7
100
AcDbSpline
 70
8
 71
3
 72
8
 73
4
 74
0
 40
0
 40
0
 40
0
 40
0
 40
1
 40
1
 40
1
 40
1
 10
306.910542
 20
104.499345
 30
0.0
 10
306.910542
 20
103.606181
 30
0.0
 10
307.387040
 20
102.780863
 30
0.0
 10
308.160542
 20
102.334281
 30
0.0
  0
SPLINE
  5
166
100
AcDbEntity
  8
0
 62
7
100
AcDbSpline
 70
8
 71
3
 72
8
 73
4
 74
0
 40
0
 40
0
 40
0
 40
0
 40
1
 40
1
 40
1
 40
1
 10
308.160542
 20
102.334281
 30
0.0
 10
308.934045
 20
101.887699
 30
0.0
 10
309.887040
 20
101.887699
 30
0.0
 10
310.660542
 20
102.334281
 30
0.0
  0
SPLINE
  5
167
100
AcDbEntity
  8
0
 62
7
100
AcDbSpline
 70
8
 71
3
 72
8
 73
4
 74
0
 40
0
 40
0
 40
0
 40
0
 40
1
 40
1
 40
1
 40
1
 10
310.660542
 20
102.334281
 30
0.0
 10
311.434045
 20
102.780863
 30
0.0
 10
311.910542
 20
103.606181
 30
0.0
 10
311.910542
 20
104.499345
 30
0.0
  0
LWPOLYLINE
  5
168
100
AcDbEntity
  8
0
 62
7
100
AcDbPolyline
 90
1
 70
1
 10
176.013468
 20
82.790291
 30
0.0
  0
SPLINE
  5
169
100
AcDbEntity
  8
0
 62
7
100
AcDbSpline
 70
8
 71
3
 72
8
 73
4
 74
0
 40
0
 40
0
 40
0
 40
0
 40
1
 40
1
 40
1
 40
1
 10
378.657135
 20
-78.414058
 30
0.0
 10
378.657426
 20
-77.520700
 30
0.0
 10
378.180992
 20
-76.695079
 30
0.0
 10
377.407370
 20
-76.248316
 30
0.0
  0
SPLINE
  5
16a
100
AcDbEntity
  8
0
 62
7
100
AcDbSpline
 70
8
 71
3
 72
8
 73
4
 74
0
 40
0
 40
0
 40
0
 40
0
 40
1
 40
1
 40
1
 40
1
 10
377.407370
 20
-76.248316
 30
0.0
 10
376.633748
 20
-75.801554
 30
0.0
 10
375.680523
 20
-75.801554
 30
0.0
 10
374.906901
 20
-76.248316
 30
0.0
  0
SPLINE
  5
16b
100
AcDbEntity
  8
0
 62
7
100
AcDbSpline
 70
8
 71
3
 72
8
 73
4
 74
0
 40
0
 40
0
 40
0
 40
0
 40
1
 40
1
 40
1
 40
1
 10
374.906901
 20
-76.248316
 30
0.0
 10
374.133279
 20
-76.695079
 30
0.0
 10
373.656845
 20
-77.520700
 30
0.0
 10
373.657136
 20
-78.414058
 30
0.0
  0
SPLINE
  5
16c
100
AcDbEntity
  8
0
 62
7
100
AcDbSpline
 70
8
 71
3
 72
8
 73
4
 74
0
 40
0
 40
0
 40
0
 40
0
 40
1
 40
1
 40
1
 40
1
 10
373.657136
 20
-78.414058
 30
0.0
 10
373.656845
 20
-79.307415
 30
0.0
 10
374.133279
 20
-80.133036
 30
0.0
 10
374.906901
 20
-80.579799
 30
0.0
  0
SPLINE
  5
16d
100
AcDbEntity
  8
0
 62
7
100
AcDbSpline
 70
8
 71
3
 72
8
 73
4
 74
0
 40
0
 40
0
 40
0
 40
0
 40
1
 40
1
 40
1
 40
1
 10
374.906901
 20
-80.579799
 30
0.0
 10
375.680523
 20
-81.026562
 30
0.0
 10
376.633748
 20
-81.026562
 30
0.0
 10
377.407370
 20
-80.579799
 30
0.0
  0
SPLINE
  5
16e
100
AcDbEntity
  8
0
 62
7
100
AcDbSpline
 70
8
 71
3
 72
8
 73
4
 74
0
 40
0
 40
0
 40
0
 40
0
 40
1
 40
1
 40
1
 40
1
 10
377.407370
 20
-80.579799
 30
0.0
 10
378.180992
 20
-80.133036
 30
0.0
 10
378.657426
 20
-79.307415
 30
0.0
 10
378.657135
 20
-78.414058
 30
0.0
  0
LWPOLYLINE
  5
16f
100
AcDbEntity
  8
0
 62
7
100
AcDbPolyline
 90
1
 70
1
 10
311.910542
 20
104.499345
 30
0.0
  0
SPLINE
  5
170
100
AcDbEntity
  8
0
 62
7
100
AcDbSpline
 70
8
 71
3
 72
8
 73
4
 74
0
 40
0
 40
0
 40
0
 40
0
 40
1
 40
1
 40
1
 40
1
 10
347.283839
 20
13.042644
 30
0.0
 10
347.283839
 20
14.650339
 30
0.0
 10
346.426144
 20
16.135911
 30
0.0
 10
345.033839
 20
16.939758
 30
0.0
  0
SPLINE
  5
171
100
AcDbEntity
  8
0
 62
7
100
AcDbSpline
 70
8
 71
3
 72
8
 73
4
 74
0
 40
0
 40
0
 40
0
 40
0
 40
1
 40
1
 40
1
 40
1
 10
345.033839
 20
16.939758
 30
0.0
 10
343.641534
 20
17.743606
 30
0.0
 10
341.926144
 20
17.743606
 30
0.0
 10
340.533839
 20
16.939758
 30
0.0
  0
SPLINE
  5
172
100
AcDbEntity
  8
0
 62
7
100
AcDbSpline
 70
8
 71
3
 72
8
 73
4
 74
0
 40
0
 40
0
 40
0
 40
0
 40
1
 40
1
 40
1
 40
1
 10
340.533839
 20
16.939758
 30
0.0
 10
339.141534
 20
16.135911
 30
0.0
 10
338.283839
 20
14.650339
 30
0.0
 10
338.283839
 20
13.042644
 30
0.0
  0
SPLINE
  5
173
100
AcDbEntity
  8
0
 62
7
100
AcDbSpline
 70
8
 71
3
 72
8
 73
4
 74
0
 40
0
 40
0
 40
0
 40
0
 40
1
 40
1
 40
1
 40
1
 10
338.283839
 20
13.042644
 30
0.0
 10
338.283839
 20
11.434948
 30
0.0
 10
339.141534
 20
9.949377
 30
0.0
 10
340.533839
 20
9.145529
 30
0.0
  0
SPLINE
  5
174
100
AcDbEntity
  8
0
 62
7
100
AcDbSpline
 70
8
 71
3
 72
8
 73
4
 74
0
 40
0
 40
0
 40
0
 40
0
 40
1
 40
1
 40
1
 40
1
 10
340.533839
 20
9.145529
 30
0.0
 10
341.926144
 20
8.341682
 30
0.0
 10
343.641534
 20
8.341682
 30
0.0
 10
345.033839
 20
9.145529
 30
0.0
  0
SPLINE
  5
175
100
AcDbEntity
  8
0
 62
7
100
AcDbSpline
 70
8
 71
3
 72
8
 73
4
 74
0
 40
0
 40
0
 40
0
 40
0
 40
1
 40
1
 40
1
 40
1
 10
345.033839
 20
9.145529
 30
0.0
 10
346.426144
 20
9.949377
 30
0.0
 10
347.283839
 20
11.434948
 30
0.0
 10
347.283839
 20
13.042644
 30
0.0
  0
LWPOLYLINE
  5
176
100
AcDbEntity
  8
0
 62
7
100
AcDbPolyline
 90
1
 70
1
 10
378.657135
 20
-78.414058
 30
0.0
  0
SPLINE
  5
177
100
AcDbEntity
  8
0
 62
7
100
AcDbSpline
 70
8
 71
3
 72
8
 73
4
 74
0
 40
0
 40
0
 40
0
 40
0
 40
1
 40
1
 40
1
 40
1
 10
409.970339
 20
118.218711
 30
0.0
 10
409.970339
 20
118.790336
 30
0.0
 10
409.665381
 20
119.318539
 30
0.0
 10
409.170339
 20
119.604352
 30
0.0
  0
SPLINE
  5
178
100
AcDbEntity
  8
0
 62
7
100
AcDbSpline
 70
8
 71
3
 72
8
 73
4
 74
0
 40
0
 40
0
 40
0
 40
0
 40
1
 40
1
 40
1
 40
1
 10
409.170339
 20
119.604352
 30
0.0
 10
408.675297
 20
119.890164
 30
0.0
 10
408.065381
 20
119.890164
 30
0.0
 10
407.570339
 20
119.604352
 30
0.0
  0
SPLINE
  5
179
100
AcDbEntity
  8
0
 62
7
100
AcDbSpline
 70
8
 71
3
 72
8
 73
4
 74
0
 40
0
 40
0
 40
0
 40
0
 40
1
 40
1
 40
1
 40
1
 10
407.570339
 20
119.604352
 30
0.0
 10
407.075297
 20
119.318539
 30
0.0
 10
406.770339
 20
118.790336
 30
0.0
 10
406.770339
 20
118.218711
 30
0.0
  0
SPLINE
  5
17a
100
AcDbEntity
  8
0
 62
7
100
AcDbSpline
 70
8
 71
3
 72
8
 73
4
 74
0
 40
0
 40
0
 40
0
 40
0
 40
1
 40
1
 40
1
 40
1
 10
406.770339
 20
118.218711
 30
0.0
 10
406.770339
 20
117.647086
 30
0.0
 10
407.075297
 20
117.118883
 30
0.0
 10
407.570339
 20
116.833070
 30
0.0
  0
SPLINE
  5
17b
100
AcDbEntity
  8
0
 62
7
100
AcDbSpline
 70
8
 71
3
 72
8
 73
4
 74
0
 40
0
 40
0
 40
0
 40
0
 40
1
 40
1
 40
1
 40
1
 10
407.570339
 20
116.833070
 30
0.0
 10
408.065381
 20
116.547258
 30
0.0
 10
408.675297
 20
116.547258
 30
0.0
 10
409.170339
 20
116.833070
 30
0.0
  0
SPLINE
  5
17c
100
AcDbEntity
  8
0
 62
7
100
AcDbSpline
 70
8
 71
3
 72
8
 73
4
 74
0
 40
0
 40
0
 40
0
 40
0
 40
1
 40
1
 40
1
 40
1
 10
409.170339
 20
116.833070
 30
0.0
 10
409.665381
 20
117.118883
 30
0.0
 10
409.970339
 20
117.647086
 30
0.0
 10
409.970339
 20
118.218711
 30
0.0
  0
LWPOLYLINE
  5
17d
100
AcDbEntity
  8
0
 62
7
100
AcDbPolyline
 90
1
 70
1
 10
347.283839
 20
13.042644
 30
0.0
  0
SPLINE
  5
17e
100
AcDbEntity
  8
0
 62
7
100
AcDbSpline
 70
8
 71
3
 72
8
 73
4
 74
0
 40
0
 40
0
 40
0
 40
0
 40
1
 40
1
 40
1
 40
1
 10
214.383839
 20
118.218711
 30
0.0
 10
214.383839
 20
118.790336
 30
0.0
 10
214.078881
 20
119.318539
 30
0.0
 10
213.583839
 20
119.604352
 30
0.0
  0
SPLINE
  5
17f
100
AcDbEntity
  8
0
 62
7
100
AcDbSpline
 70
8
 71
3
 72
8
 73
4
 74
0
 40
0
 40
0
 40
0
 40
0
 40
1
 40
1
 40
1
 40
1
 10
213.583839
 20
119.604352
 30
0.0
 10
213.088797
 20
119.890164
 30
0.0
 10
212.478881
 20
119.890164
 30
0.0
 10
211.983839
 20
119.604352
 30
0.0
  0
SPLINE
  5
180
100
AcDbEntity
  8
0
 62
7
100
AcDbSpline
 70
8
 71
3
 72
8
 73
4
 74
0
 40
0
 40
0
 40
0
 40
0
 40
1
 40
1
 40
1
 40
1
 10
211.983839
 20
119.604352
 30
0.0
 10
211.488797
 20
119.318539
 30
0.0
 10
211.183839
 20
118.790336
 30
0.0
 10
211.183839
 20
118.218711
 30
0.0
  0
SPLINE
  5
181
100
AcDbEntity
  8
0
 62
7
100
AcDbSpline
 70
8
 71
3
 72
8
 73
4
 74
0
 40
0
 40
0
 40
0
 40
0
 40
1
 40
1
 40
1
 40
1
 10
211.183839
 20
118.218711
 30
0.0
 10
211.183839
 20
117.647086
 30
0.0
 10
211.488797
 20
117.118883
 30
0.0
 10
211.983839
 20
116.833070
 30
0.0
  0
SPLINE
  5
182
100
AcDbEntity
  8
0
 62
7
100
AcDbSpline
 70
8
 71
3
 72
8
 73
4
 74
0
 40
0
 40
0
 40
0
 40
0
 40
1
 40
1
 40
1
 40
1
 10
211.983839
 20
116.833070
 30
0.0
 10
212.478881
 20
116.547258
 30
0.0
 10
213.088797
 20
116.547258
 30
0.0
 10
213.583839
 20
116.833070
 30
0.0
  0
SPLINE
  5
183
100
AcDbEntity
  8
0
 62
7
100
AcDbSpline
 70
8
 71
3
 72
8
 73
4
 74
0
 40
0
 40
0
 40
0
 40
0
 40
1
 40
1
 40
1
 40
1
 10
213.583839
 20
116.833070
 30
0.0
 10
214.078881
 20
117.118883
 30
0.0
 10
214.383839
 20
117.647086
 30
0.0
 10
214.383839
 20
118.218711
 30
0.0
  0
LWPOLYLINE
  5
184
100
AcDbEntity
  8
0
 62
7
100
AcDbPolyline
 90
1
 70
1
 10
409.970339
 20
118.218711
 30
0.0
  0
SPLINE
  5
185
100
AcDbEntity
  8
0
 62
7
100
AcDbSpline
 70
8
 71
3
 72
8
 73
4
 74
0
 40
0
 40
0
 40
0
 40
0
 40
1
 40
1
 40
1
 40
1
 10
18.797339
 20
118.218711
 30
0.0
 10
18.797339
 20
118.790336
 30
0.0
 10
18.492381
 20
119.318539
 30
0.0
 10
17.997339
 20
119.604352
 30
0.0
  0
SPLINE
  5
186
100
AcDbEntity
  8
0
 62
7
100
AcDbSpline
 70
8
 71
3
 72
8
 73
4
 74
0
 40
0
 40
0
 40
0
 40
0
 40
1
 40
1
 40
1
 40
1
 10
17.997339
 20
119.604352
 30
0.0
 10
17.502297
 20
119.890164
 30
0.0
 10
16.892381
 20
119.890164
 30
0.0
 10
16.397339
 20
119.604352
 30
0.0
  0
SPLINE
  5
187
100
AcDbEntity
  8
0
 62
7
100
AcDbSpline
 70
8
 71
3
 72
8
 73
4
 74
0
 40
0
 40
0
 40
0
 40
0
 40
1
 40
1
 40
1
 40
1
 10
16.397339
 20
119.604352
 30
0.0
 10
15.902297
 20
119.318539
 30
0.0
 10
15.597339
 20
118.790336
 30
0.0
 10
15.597339
 20
118.218711
 30
0.0
  0
SPLINE
  5
188
100
AcDbEntity
  8
0
 62
7
100
AcDbSpline
 70
8
 71
3
 72
8
 73
4
 74
0
 40
0
 40
0
 40
0
 40
0
 40
1
 40
1
 40
1
 40
1
 10
15.597339
 20
118.218711
 30
0.0
 10
15.597339
 20
117.647086
 30
0.0
 10
15.902297
 20
117.118883
 30
0.0
 10
16.397339
 20
116.833070
 30
0.0
  0
SPLINE
  5
189
100
AcDbEntity
  8
0
 62
7
100
AcDbSpline
 70
8
 71
3
 72
8
 73
4
 74
0
 40
0
 40
0
 40
0
 40
0
 40
1
 40
1
 40
1
 40
1
 10
16.397339
 20
116.833070
 30
0.0
 10
16.892381
 20
116.547258
 30
0.0
 10
17.502297
 20
116.547258
 30
0.0
 10
17.997339
 20
116.833070
 30
0.0
  0
SPLINE
  5
18a
100
AcDbEntity
  8
0
 62
7
100
AcDbSpline
 70
8
 71
3
 72
8
 73
4
 74
0
 40
0
 40
0
 40
0
 40
0
 40
1
 40
1
 40
1
 40
1
 10
17.997339
 20
116.833070
 30
0.0
 10
18.492381
 20
117.118883
 30
0.0
 10
18.797339
 20
117.647086
 30
0.0
 10
18.797339
 20
118.218711
 30
0.0
  0
LWPOLYLINE
  5
18b
100
AcDbEntity
  8
0
 62
7
100
AcDbPolyline
 90
1
 70
1
 10
214.383839
 20
118.218711
 30
0.0
  0
SPLINE
  5
18c
100
AcDbEntity
  8
0
 62
7
100
AcDbSpline
 70
8
 71
3
 72
8
 73
4
 74
0
 40
0
 40
0
 40
0
 40
0
 40
1
 40
1
 40
1
 40
1
 10
409.970339
 20
-92.127289
 30
0.0
 10
409.970339
 20
-91.555664
 30
0.0
 10
409.665381
 20
-91.027461
 30
0.0
 10
409.170339
 20
-90.741648
 30
0.0
  0
SPLINE
  5
18d
100
AcDbEntity
  8
0
 62
7
100
AcDbSpline
 70
8
 71
3
 72
8
 73
4
 74
0
 40
0
 40
0
 40
0
 40
0
 40
1
 40
1
 40
1
 40
1
 10
409.170339
 20
-90.741648
 30
0.0
 10
408.675297
 20
-90.455836
 30
0.0
 10
408.065381
 20
-90.455836
 30
0.0
 10
407.570339
 20
-90.741648
 30
0.0
  0
SPLINE
  5
18e
100
AcDbEntity
  8
0
 62
7
100
AcDbSpline
 70
8
 71
3
 72
8
 73
4
 74
0
 40
0
 40
0
 40
0
 40
0
 40
1
 40
1
 40
1
 40
1
 10
407.570339
 20
-90.741648
 30
0.0
 10
407.075297
 20
-91.027461
 30
0.0
 10
406.770339
 20
-91.555664
 30
0.0
 10
406.770339
 20
-92.127289
 30
0.0
  0
SPLINE
  5
18f
100
AcDbEntity
  8
0
 62
7
100
AcDbSpline
 70
8
 71
3
 72
8
 73
4
 74
0
 40
0
 40
0
 40
0
 40
0
 40
1
 40
1
 40
1
 40
1
 10
406.770339
 20
-92.127289
 30
0.0
 10
406.770339
 20
-92.698914
 30
0.0
 10
407.075297
 20
-93.227117
 30
0.0
 10
407.570339
 20
-93.512930
 30
0.0
  0
SPLINE
  5
190
100
AcDbEntity
  8
0
 62
7
100
AcDbSpline
 70
8
 71
3
 72
8
 73
4
 74
0
 40
0
 40
0
 40
0
 40
0
 40
1
 40
1
 40
1
 40
1
 10
407.570339
 20
-93.512930
 30
0.0
 10
408.065381
 20
-93.798742
 30
0.0
 10
408.675297
 20
-93.798742
 30
0.0
 10
409.170339
 20
-93.512930
 30
0.0
  0
SPLINE
  5
191
100
AcDbEntity
  8
0
 62
7
100
AcDbSpline
 70
8
 71
3
 72
8
 73
4
 74
0
 40
0
 40
0
 40
0
 40
0
 40
1
 40
1
 40
1
 40
1
 10
409.170339
 20
-93.512930
 30
0.0
 10
409.665381
 20
-93.227117
 30
0.0
 10
409.970339
 20
-92.698914
 30
0.0
 10
409.970339
 20
-92.127289
 30
0.0
  0
LWPOLYLINE
  5
192
100
AcDbEntity
  8
0
 62
7
100
AcDbPolyline
 90
1
 70
1
 10
18.797339
 20
118.218711
 30
0.0
  0
SPLINE
  5
193
100
AcDbEntity
  8
0
 62
7
100
AcDbSpline
 70
8
 71
3
 72
8
 73
4
 74
0
 40
0
 40
0
 40
0
 40
0
 40
1
 40
1
 40
1
 40
1
 10
214.383839
 20
-92.127289
 30
0.0
 10
214.383839
 20
-91.555664
 30
0.0
 10
214.078881
 20
-91.027461
 30
0.0
 10
213.583839
 20
-90.741648
 30
0.0
  0
SPLINE
  5
194
100
AcDbEntity
  8
0
 62
7
100
AcDbSpline
 70
8
 71
3
 72
8
 73
4
 74
0
 40
0
 40
0
 40
0
 40
0
 40
1
 40
1
 40
1
 40
1
 10
213.583839
 20
-90.741648
 30
0.0
 10
213.088797
 20
-90.455836
 30
0.0
 10
212.478881
 20
-90.455836
 30
0.0
 10
211.983839
 20
-90.741648
 30
0.0
  0
SPLINE
  5
195
100
AcDbEntity
  8
0
 62
7
100
AcDbSpline
 70
8
 71
3
 72
8
 73
4
 74
0
 40
0
 40
0
 40
0
 40
0
 40
1
 40
1
 40
1
 40
1
 10
211.983839
 20
-90.741648
 30
0.0
 10
211.488797
 20
-91.027461
 30
0.0
 10
211.183839
 20
-91.555664
 30
0.0
 10
211.183839
 20
-92.127289
 30
0.0
  0
SPLINE
  5
196
100
AcDbEntity
  8
0
 62
7
100
AcDbSpline
 70
8
 71
3
 72
8
 73
4
 74
0
 40
0
 40
0
 40
0
 40
0
 40
1
 40
1
 40
1
 40
1
 10
211.183839
 20
-92.127289
 30
0.0
 10
211.183839
 20
-92.698914
 30
0.0
 10
211.488797
 20
-93.227117
 30
0.0
 10
211.983839
 20
-93.512930
 30
0.0
  0
SPLINE
  5
197
100
AcDbEntity
  8
0
 62
7
100
AcDbSpline
 70
8
 71
3
 72
8
 73
4
 74
0
 40
0
 40
0
 40
0
 40
0
 40
1
 40
1
 40
1
 40
1
 10
211.983839
 20
-93.512930
 30
0.0
 10
212.478881
 20
-93.798742
 30
0.0
 10
213.088797
 20
-93.798742
 30
0.0
 10
213.583839
 20
-93.512930
 30
0.0
  0
SPLINE
  5
198
100
AcDbEntity
  8
0
 62
7
100
AcDbSpline
 70
8
 71
3
 72
8
 73
4
 74
0
 40
0
 40
0
 40
0
 40
0
 40
1
 40
1
 40
1
 40
1
 10
213.583839
 20
-93.512930
 30
0.0
 10
214.078881
 20
-93.227117
 30
0.0
 10
214.383839
 20
-92.698914
 30
0.0
 10
214.383839
 20
-92.127289
 30
0.0
  0
LWPOLYLINE
  5
199
100
AcDbEntity
  8
0
 62
7
100
AcDbPolyline
 90
1
 70
1
 10
409.970339
 20
-92.127289
 30
0.0
  0
SPLINE
  5
19a
100
AcDbEntity
  8
0
 62
7
100
AcDbSpline
 70
8
 71
3
 72
8
 73
4
 74
0
 40
0
 40
0
 40
0
 40
0
 40
1
 40
1
 40
1
 40
1
 10
18.797339
 20
-92.127289
 30
0.0
 10
18.797339
 20
-91.555664
 30
0.0
 10
18.492381
 20
-91.027461
 30
0.0
 10
17.997339
 20
-90.741648
 30
0.0
  0
SPLINE
  5
19b
100
AcDbEntity
  8
0
 62
7
100
AcDbSpline
 70
8
 71
3
 72
8
 73
4
 74
0
 40
0
 40
0
 40
0
 40
0
 40
1
 40
1
 40
1
 40
1
 10
17.997339
 20
-90.741648
 30
0.0
 10
17.502297
 20
-90.455836
 30
0.0
 10
16.892381
 20
-90.455836
 30
0.0
 10
16.397339
 20
-90.741648
 30
0.0
  0
SPLINE
  5
19c
100
AcDbEntity
  8
0
 62
7
100
AcDbSpline
 70
8
 71
3
 72
8
 73
4
 74
0
 40
0
 40
0
 40
0
 40
0
 40
1
 40
1
 40
1
 40
1
 10
16.397339
 20
-90.741648
 30
0.0
 10
15.902297
 20
-91.027461
 30
0.0
 10
15.597339
 20
-91.555664
 30
0.0
 10
15.597339
 20
-92.127289
 30
0.0
  0
SPLINE
  5
19d
100
AcDbEntity
  8
0
 62
7
100
AcDbSpline
 70
8
 71
3
 72
8
 73
4
 74
0
 40
0
 40
0
 40
0
 40
0
 40
1
 40
1
 40
1
 40
1
 10
15.597339
 20
-92.127289
 30
0.0
 10
15.597339
 20
-92.698914
 30
0.0
 10
15.902297
 20
-93.227117
 30
0.0
 10
16.397339
 20
-93.512930
 30
0.0
  0
SPLINE
  5
19e
100
AcDbEntity
  8
0
 62
7
100
AcDbSpline
 70
8
 71
3
 72
8
 73
4
 74
0
 40
0
 40
0
 40
0
 40
0
 40
1
 40
1
 40
1
 40
1
 10
16.397339
 20
-93.512930
 30
0.0
 10
16.892381
 20
-93.798742
 30
0.0
 10
17.502297
 20
-93.798742
 30
0.0
 10
17.997339
 20
-93.512930
 30
0.0
  0
SPLINE
  5
19f
100
AcDbEntity
  8
0
 62
7
100
AcDbSpline
 70
8
 71
3
 72
8
 73
4
 74
0
 40
0
 40
0
 40
0
 40
0
 40
1
 40
1
 40
1
 40
1
 10
17.997339
 20
-93.512930
 30
0.0
 10
18.492381
 20
-93.227117
 30
0.0
 10
18.797339
 20
-92.698914
 30
0.0
 10
18.797339
 20
-92.127289
 30
0.0
  0
LWPOLYLINE
  5
1a0
100
AcDbEntity
  8
0
 62
7
100
AcDbPolyline
 90
1
 70
1
 10
214.383839
 20
-92.127289
 30
0.0
  0
LWPOLYLINE
  5
1a1
100
AcDbEntity
  8
0
 62
7
100
AcDbPolyline
 90
1
 70
1
 10
18.797339
 20
-92.127289
 30
0.0
  0
ENDSEC
  0
SECTION
  2
OBJECTS
  0
DICTIONARY
  5
C
330
0
100
AcDbDictionary
  3
ACAD_GROUP
350
D
  3
ACAD_MLINESTYLE
350
17
  0
DICTIONARY
  5
D
330
C
100
AcDbDictionary
  0
DICTIONARY
  5
1A
330
C
100
AcDbDictionary
  0
DICTIONARY
  5
17
330
C
100
AcDbDictionary
  3
STANDARD
350
18
  0
DICTIONARY
  5
19
330
C
100
AcDbDictionary
  0
ENDSEC
  0
EOF
