0
SECTION
2
HEADER
9
$INSUNITS
70
4
9
$ACADVER
1
AC1014
9
$HANDSEED
5
FFFF
0
ENDSEC
0
SECTION
2
TABLES
0
TABLE
2
VPORT
5
8
100
AcDbSymbolTable
0
ENDTAB
0
TABLE
2
LTYPE
5
5
100
AcDbSymbolTable
0
LTYPE
5
14
100
AcDbSymbolTableRecord
100
AcDbLinetypeTableRecord
2
BYBLOCK
70
0
0
LTYPE
5
15
100
AcDbSymbolTableRecord
100
AcDbLinetypeTableRecord
2
BYLAYER
70
0
0
ENDTAB
0
TABLE
2
LAYER
5
2
100
AcDbSymbolTable
70
2
0
LAYER
5
50
100
AcDbSymbolTableRecord
100
AcDbLayerTableRecord
2
0
70
0
6
CONTINUOUS
0
ENDTAB
0
TABLE
2
STYLE
5
3
100
AcDbSymbolTable
70
1
0
STYLE
5
11
100
AcDbSymbolTableRecord
100
AcDbTextStyleTableRecord
2
STANDARD
70
0
0
ENDTAB
0
TABLE
2
VIEW
5
6
100
AcDbSymbolTable
70
0
0
ENDTAB
0
TABLE
2
UCS
5
7
100
AcDbSymbolTable
70
0
0
ENDTAB
0
TABLE
2
APPID
5
9
100
AcDbSymbolTable
70
2
0
APPID
5
12
100
AcDbSymbolTableRecord
100
AcDbRegAppTableRecord
2
ACAD
70
0
0
ENDTAB
0
TABLE
2
DIMSTYLE
5
A
100
AcDbSymbolTable
70
1
0
ENDTAB
0
TABLE
2
BLOCK_RECORD
5
1
100
AcDbSymbolTable
70
1
0
BLOCK_RECORD
5
1F
100
AcDbSymbolTableRecord
100
AcDbBlockTableRecord
2
*MODEL_SPACE
0
BLOCK_RECORD
5
1B
100
AcDbSymbolTableRecord
100
AcDbBlockTableRecord
2
*PAPER_SPACE
0
ENDTAB
0
ENDSEC
0
SECTION
2
BLOCKS
0
BLOCK
5
20
100
AcDbEntity
100
AcDbBlockBegin
2
*MODEL_SPACE
0
ENDBLK
5
21
100
AcDbEntity
100
AcDbBlockEnd
0
BLOCK
5
1C
100
AcDbEntity
100
AcDbBlockBegin
2
*PAPER_SPACE
0
ENDBLK
5
1D
100
AcDbEntity
100
AcDbBlockEnd
0
ENDSEC
0
SECTION
2
ENTITIES
0
CIRCLE
5
100
100
AcDbEntity
8
0
100
AcDbCircle
10
0
20
0
30
0
40
67.5
0
CIRCLE
5
101
100
AcDbEntity
8
0
100
AcDbCircle
10
0
20
-5.500000074505806
30
0
40
0.97500000000000009
0
CIRCLE
5
102
100
AcDbEntity
8
0
100
AcDbCircle
10
4.7631397853383337
20
2.7500000372529021
30
0
40
0.97500000000000009
0
CIRCLE
5
103
100
AcDbEntity
8
0
100
AcDbCircle
10
0
20
0
30
0
40
2.4750000000000001
0
CIRCLE
5
104
100
AcDbEntity
8
0
100
AcDbCircle
10
-4.7631397853383319
20
2.7500000372529056
30
0
40
0.97500000000000009
0
LINE
5
105
100
AcDbEntity
8
0
100
AcDbLine
10
14.624787304311377
20
-2.4355824061905422
30
0
11
14.624787304311376
21
2.4501414166768107
31
0
0
ARC
5
106
100
AcDbEntity
8
0
100
AcDbCircle
10
12.626963393172444
20
-7.2908008179641133
30
0
40
5.2501853496751503
100
AcDbArc
50
59.51855408664823
51
67.633827704190878
0
LINE
5
107
100
AcDbEntity
8
0
100
AcDbLine
10
15.29016881762626
20
-2.7662253601887272
30
0
11
52.134316121000026
21
-24.082106595001807
31
0
0
LINE
5
108
100
AcDbEntity
8
0
100
AcDbLine
10
54.732392332353335
20
-25.582106595001779
30
0
11
52.134316121000026
21
-24.082106595001807
31
0
0
ARC
5
109
100
AcDbEntity
8
0
100
AcDbCircle
10
54.232392332353321
20
-26.448131998786209
30
0
40
1.0000000000000142
100
AcDbArc
50
-30.000000000000625
51
59.999999999999062
0
LINE
5
110
100
AcDbEntity
8
0
100
AcDbLine
10
50.848417736137776
20
-34.30934793095399
30
0
11
55.098417736137762
21
-26.948131998786224
31
0
0
ARC
5
111
100
AcDbEntity
8
0
100
AcDbCircle
10
49.982392332353349
20
-33.809347930953997
30
0
40
0.99999999999998757
100
AcDbArc
50
239.99999999999912
51
330.00000000000006
0
LINE
5
112
100
AcDbEntity
8
0
100
AcDbLine
10
46.884316121000047
20
-33.175373334738417
30
0
11
49.482392332353342
21
-34.675373334738417
31
0
0
LINE
5
113
100
AcDbEntity
8
0
100
AcDbLine
10
46.884316121000047
20
-33.175373334738417
30
0
11
10.040168817626267
21
-11.859492099925335
31
0
0
ARC
5
114
100
AcDbEntity
8
0
100
AcDbCircle
10
12.626963393172444
20
-7.2908008179641133
30
0
40
5.2501853496875306
100
AcDbArc
50
149.63895325280686
51
240.48144591335182
0
ARC
5
115
100
AcDbEntity
8
0
100
AcDbCircle
10
0.0039633321072807953
20
0.10353802223268559
30
0
40
9.3791132468034846
100
AcDbArc
50
329.6389532528068
51
358.18182086263829
0
ARC
5
116
100
AcDbEntity
8
0
100
AcDbCircle
10
14.624787304311383
20
-0.00053702570306013442
30
0
40
5.2500000000000089
100
AcDbArc
50
177.07203439189738
51
182.11228513784269
0
ARC
5
117
100
AcDbEntity
8
0
100
AcDbCircle
10
0.0039633321072807953
20
0.10353802223268559
30
0
40
9.3791132468034828
100
AcDbArc
50
1.0024986671015004
51
29.654479585910455
0
ARC
5
118
100
AcDbEntity
8
0
100
AcDbCircle
10
12.717320588945388
20
7.3417283615299409
30
0
40
5.2503382852237888
100
AcDbArc
50
119.23683745763115
51
209.65447958591045
0
LINE
5
119
100
AcDbEntity
8
0
100
AcDbLine
10
10.04070584332932
20
11.858561944122654
30
0
11
47.014522371981073
21
33.156925537041545
31
0
0
LINE
5
120
100
AcDbEntity
8
0
100
AcDbLine
10
49.612598583334353
20
34.656925537041545
30
0
11
47.014522371981073
21
33.156925537041545
31
0
0
ARC
5
121
100
AcDbEntity
8
0
100
AcDbCircle
10
50.112598583334361
20
33.790900133257118
30
0
40
0.99999999999998423
100
AcDbArc
50
29.999999999999062
51
120.0000000000007
0
LINE
5
122
100
AcDbEntity
8
0
100
AcDbLine
10
55.22862398711883
20
26.929684201089348
30
0
11
50.978623987118795
21
34.290900133257097
31
0
0
ARC
5
123
100
AcDbEntity
8
0
100
AcDbCircle
10
54.362598583334396
20
26.429684201089351
30
0
40
0.99999999999998601
100
AcDbArc
50
-59.999999999999119
51
29.999999999999972
0
LINE
5
124
100
AcDbEntity
8
0
100
AcDbLine
10
52.264522371981087
20
24.063658797304935
30
0
11
54.862598583334403
21
25.563658797304932
31
0
0
LINE
5
125
100
AcDbEntity
8
0
100
AcDbLine
10
52.264522371981087
20
24.063658797304935
30
0
11
14.624787304311377
21
2.3817000957696912
31
0
0
LWPOLYLINE
5
126
100
AcDbEntity
8
0
100
AcDbPolyline
90
6
70
1
43
0.0
10
57.24299546415061
20
5.2233317712516536
10
60.242995464150582
20
5.2233317712516714
42
-0.41421356237309453
10
61.242995464150567
20
4.223331771251666
10
61.242995464150589
20
-4.2766682287483695
42
-0.41421356237309515
10
60.242995464150596
20
-5.2766682287483491
10
57.24299546415061
20
-5.2766682287483491
0
ENDSEC
0
SECTION
2
OBJECTS
0
DICTIONARY
5
C
100
AcDbDictionary
3
ACAD_GROUP
350
D
3
ACAD_MLINESTYLE
350
17
0
DICTIONARY
5
D
100
AcDbDictionary
0
DICTIONARY
5
1A
330
C
100
AcDbDictionary
0
DICTIONARY
5
17
100
AcDbDictionary
0
ENDSEC
0
EOF
