  0
SECTION
  2
HEADER
  9
$ACADVER
  1
AC1009
  9
$DWGCODEPAGE
  3
ansi_1252
  9
$INSBASE
 10
0.0
 20
0.0
 30
0.0
  9
$EXTMIN
 10
-27.6616684757353
 20
-46.80834332220781
 30
0.0
  9
$EXTMAX
 10
163.1958531389364
 20
64.60405798627477
 30
0.0
  9
$LIMMIN
 10
0.0
 20
0.0
  9
$LIMMAX
 10
12.0
 20
9.0
  9
$ORTHOMODE
 70
     0
  9
$REGENMODE
 70
     1
  9
$FILLMODE
 70
     1
  9
$QTEXTMODE
 70
     0
  9
$MIRRTEXT
 70
     1
  9
$DRAGMODE
 70
     2
  9
$LTSCALE
 40
1.0
  9
$OSMODE
 70
    37
  9
$ATTMODE
 70
     1
  9
$TEXTSIZE
 40
0.2
  9
$TRACEWID
 40
0.05
  9
$TEXTSTYLE
  7
STANDARD
  9
$CLAYER
  8
CORTE_EXTERNO
  9
$CELTYPE
  6
BYLAYER
  9
$CECOLOR
 62
   256
  9
$DIMSCALE
 40
1.0
  9
$DIMASZ
 40
0.18
  9
$DIMEXO
 40
0.0625
  9
$DIMDLI
 40
0.38
  9
$DIMRND
 40
0.0
  9
$DIMDLE
 40
0.0
  9
$DIMEXE
 40
0.18
  9
$DIMTP
 40
0.0
  9
$DIMTM
 40
0.0
  9
$DIMTXT
 40
0.18
  9
$DIMCEN
 40
0.09
  9
$DIMTSZ
 40
0.0
  9
$DIMTOL
 70
     0
  9
$DIMLIM
 70
     0
  9
$DIMTIH
 70
     1
  9
$DIMTOH
 70
     1
  9
$DIMSE1
 70
     0
  9
$DIMSE2
 70
     0
  9
$DIMTAD
 70
     0
  9
$DIMZIN
 70
     0
  9
$DIMBLK
  1

  9
$DIMASO
 70
     1
  9
$DIMSHO
 70
     1
  9
$DIMPOST
  1

  9
$DIMAPOST
  1

  9
$DIMALT
 70
     0
  9
$DIMALTD
 70
     2
  9
$DIMALTF
 40
25.4
  9
$DIMLFAC
 40
1.0
  9
$DIMTOFL
 70
     0
  9
$DIMTVP
 40
0.0
  9
$DIMTIX
 70
     0
  9
$DIMSOXD
 70
     0
  9
$DIMSAH
 70
     0
  9
$DIMBLK1
  1

  9
$DIMBLK2
  1

  9
$DIMSTYLE
  2
STANDARD_ACAD
  9
$DIMCLRD
 70
     0
  9
$DIMCLRE
 70
     0
  9
$DIMCLRT
 70
     0
  9
$DIMTFAC
 40
1.0
  9
$DIMGAP
 40
0.09
  9
$LUNITS
 70
     2
  9
$LUPREC
 70
     3
  9
$SKETCHINC
 40
0.1
  9
$FILLETRAD
 40
0.0
  9
$AUNITS
 70
     0
  9
$AUPREC
 70
     0
  9
$MENU
  1
.
  9
$ELEVATION
 40
0.0
  9
$PELEVATION
 40
0.0
  9
$THICKNESS
 40
0.0
  9
$LIMCHECK
 70
     0
  9
$CHAMFERA
 40
0.0
  9
$CHAMFERB
 40
0.0
  9
$SKPOLY
 70
     0
  9
$TDCREATE
 40
2460816.866946505
  9
$TDUPDATE
 40
2460816.866959896
  9
$TDINDWG
 40
0.0000000116
  9
$TDUSRTIMER
 40
0.0000000116
  9
$USRTIMER
 70
     1
  9
$ANGBASE
 50
0.0
  9
$ANGDIR
 70
     0
  9
$PDMODE
 70
     0
  9
$PDSIZE
 40
0.0
  9
$PLINEWID
 40
0.0
  9
$COORDS
 70
     1
  9
$SPLFRAME
 70
     0
  9
$SPLINETYPE
 70
     6
  9
$SPLINESEGS
 70
     8
  9
$ATTDIA
 70
     0
  9
$ATTREQ
 70
     1
  9
$HANDLING
 70
     1
  9
$HANDSEED
  5
213
  9
$SURFTAB1
 70
     6
  9
$SURFTAB2
 70
     6
  9
$SURFTYPE
 70
     6
  9
$SURFU
 70
     6
  9
$SURFV
 70
     6
  9
$UCSNAME
  2

  9
$UCSORG
 10
0.0
 20
0.0
 30
0.0
  9
$UCSXDIR
 10
1.0
 20
0.0
 30
0.0
  9
$UCSYDIR
 10
0.0
 20
1.0
 30
0.0
  9
$PUCSNAME
  2

  9
$PUCSORG
 10
0.0
 20
0.0
 30
0.0
  9
$PUCSXDIR
 10
1.0
 20
0.0
 30
0.0
  9
$PUCSYDIR
 10
0.0
 20
1.0
 30
0.0
  9
$USERI1
 70
     0
  9
$USERI2
 70
     0
  9
$USERI3
 70
     0
  9
$USERI4
 70
     0
  9
$USERI5
 70
     0
  9
$USERR1
 40
0.0
  9
$USERR2
 40
0.0
  9
$USERR3
 40
0.0
  9
$USERR4
 40
0.0
  9
$USERR5
 40
0.0
  9
$WORLDVIEW
 70
     1
  9
$SHADEDGE
 70
     3
  9
$SHADEDIF
 70
    70
  9
$TILEMODE
 70
     1
  9
$MAXACTVP
 70
    64
  9
$PLIMCHECK
 70
     0
  9
$PEXTMIN
 10
1.000000000000000E+20
 20
1.000000000000000E+20
 30
1.000000000000000E+20
  9
$PEXTMAX
 10
-1.000000000000000E+20
 20
-1.000000000000000E+20
 30
-1.000000000000000E+20
  9
$PLIMMIN
 10
0.0
 20
0.0
  9
$PLIMMAX
 10
12.0
 20
9.0
  9
$UNITMODE
 70
     0
  9
$VISRETAIN
 70
     1
  9
$PLINEGEN
 70
     0
  9
$PSLTSCALE
 70
     1
  0
ENDSEC
  0
SECTION
  2
TABLES
  0
TABLE
  2
VPORT
 70
     1
  0
VPORT
  2
*ACTIVE
 70
     0
 10
0.0
 20
0.0
 11
1.0
 21
1.0
 12
10.42990654205607
 22
4.5
 13
0.0
 23
0.0
 14
0.5
 24
0.5
 15
0.5
 25
0.5
 16
0.0
 26
0.0
 36
1.0
 17
0.0
 27
0.0
 37
0.0
 40
9.0
 41
1.972972972850329
 42
50.0
 43
0.0
 44
0.0
 50
0.0
 51
0.0
 71
     0
 72
   100
 73
     1
 74
     3
 75
     0
 76
     0
 77
     0
 78
     0
  0
ENDTAB
  0
TABLE
  2
LTYPE
 70
     1
  0
LTYPE
  2
CONTINUOUS
 70
     0
  3
Solid line
 72
    65
 73
     0
 40
0.0
  0
ENDTAB
  0
TABLE
  2
LAYER
 70
     3
  0
LAYER
  2
0
 70
     0
 62
     7
  6
CONTINUOUS
  0
LAYER
  2
CORTE_INTERNO
 70
     0
 62
     1
  6
CONTINUOUS
  0
LAYER
  2
CORTE_EXTERNO
 70
     0
 62
     7
  6
CONTINUOUS
  0
ENDTAB
  0
TABLE
  2
STYLE
 70
     1
  0
STYLE
  2
STANDARD
 70
     0
 40
0.0
 41
1.0
 50
0.0
 71
     0
 42
0.2
  3
txt
  4

  0
ENDTAB
  0
TABLE
  2
VIEW
 70
     0
  0
ENDTAB
  0
TABLE
  2
UCS
 70
     0
  0
ENDTAB
  0
TABLE
  2
APPID
 70
     2
  0
APPID
  2
ACAD
 70
     0
  0
APPID
  2
RHINO
 70
     0
  0
ENDTAB
  0
TABLE
  2
DIMSTYLE
 70
     1
  0
DIMSTYLE
  2
STANDARD_ACAD
 70
     0
  3

  4

  5

  6

  7

 40
1.0
 41
0.18
 42
0.0625
 43
0.38
 44
0.18
 45
0.0
 46
0.0
 47
0.0
 48
0.0
140
0.18
141
0.09
142
0.0
143
25.4
144
1.0
145
0.0
146
1.0
147
0.09
 71
     0
 72
     0
 73
     1
 74
     1
 75
     0
 76
     0
 77
     0
 78
     0
170
     0
171
     2
172
     0
173
     0
174
     0
175
     0
176
     0
177
     0
178
     0
  0
ENDTAB
  0
ENDSEC
  0
SECTION
  2
BLOCKS
  0
BLOCK
  8
0
  2
$MODEL_SPACE
 70
     0
 10
0.0
 20
0.0
 30
0.0
  3
$MODEL_SPACE
  1

  0
ENDBLK
  5
21
  8
0
  0
BLOCK
 67
     1
  8
0
  2
$PAPER_SPACE
 70
     0
 10
0.0
 20
0.0
 30
0.0
  3
$PAPER_SPACE
  1

  0
ENDBLK
  5
1D
 67
     1
  8
0
  0
ENDSEC
  0
SECTION
  2
ENTITIES
  0
POLYLINE
  5
60
  8
CORTE_INTERNO
 66
     1
 10
0.0
 20
0.0
 30
0.0
 70
     1
  0
VERTEX
  5
61
  8
CORTE_INTERNO
 10
95.13833152426585
 20
-39.80834332220781
 30
0.0
  0
VERTEX
  5
62
  8
CORTE_INTERNO
 10
97.63833152426585
 20
-39.80834332220781
 30
0.0
  0
VERTEX
  5
63
  8
CORTE_INTERNO
 10
97.63833152426584
 20
-36.80834332220781
 30
0.0
  0
VERTEX
  5
64
  8
CORTE_INTERNO
 10
95.13833152426584
 20
-36.80834332220781
 30
0.0
  0
SEQEND
  5
65
  8
CORTE_INTERNO
  0
POLYLINE
  5
66
  8
CORTE_INTERNO
 66
     1
 10
0.0
 20
0.0
 30
0.0
 70
     1
  0
VERTEX
  5
67
  8
CORTE_INTERNO
 10
117.4383315242659
 20
-36.80834332220778
 30
0.0
  0
VERTEX
  5
68
  8
CORTE_INTERNO
 10
117.4383315242659
 20
-39.80834332220778
 30
0.0
  0
VERTEX
  5
69
  8
CORTE_INTERNO
 10
114.9383315242658
 20
-39.80834332220778
 30
0.0
  0
VERTEX
  5
6A
  8
CORTE_INTERNO
 10
114.9383315242658
 20
-36.80834332220778
 30
0.0
  0
SEQEND
  5
6B
  8
CORTE_INTERNO
  0
CIRCLE
  5
6D
  8
CORTE_EXTERNO
 10
115.9383315242658
 20
-38.3083433222078
 30
0.0
 40
8.5
  0
CIRCLE
  5
6E
  8
CORTE_EXTERNO
 10
96.63833152426588
 20
-38.30834332220781
 30
0.0
 40
8.5
  0
POLYLINE
  5
6F
  8
CORTE_INTERNO
 66
     1
 10
0.0
 20
0.0
 30
0.0
 70
     1
  0
VERTEX
  5
70
  8
CORTE_INTERNO
 10
56.53833152426547
 20
-39.80834332220313
 30
0.0
  0
VERTEX
  5
71
  8
CORTE_INTERNO
 10
59.03833152426547
 20
-39.80834332220313
 30
0.0
  0
VERTEX
  5
72
  8
CORTE_INTERNO
 10
59.03833152426546
 20
-36.80834332220313
 30
0.0
  0
VERTEX
  5
73
  8
CORTE_INTERNO
 10
56.53833152426546
 20
-36.80834332220313
 30
0.0
  0
SEQEND
  5
74
  8
CORTE_INTERNO
  0
POLYLINE
  5
75
  8
CORTE_INTERNO
 66
     1
 10
0.0
 20
0.0
 30
0.0
 70
     1
  0
VERTEX
  5
76
  8
CORTE_INTERNO
 10
78.83833152426548
 20
-36.8083433222031
 30
0.0
  0
VERTEX
  5
77
  8
CORTE_INTERNO
 10
78.8383315242655
 20
-39.8083433222031
 30
0.0
  0
VERTEX
  5
78
  8
CORTE_INTERNO
 10
76.33833152426547
 20
-39.8083433222031
 30
0.0
  0
VERTEX
  5
79
  8
CORTE_INTERNO
 10
76.33833152426546
 20
-36.8083433222031
 30
0.0
  0
SEQEND
  5
7A
  8
CORTE_INTERNO
  0
CIRCLE
  5
7B
  8
CORTE_EXTERNO
 10
77.33833152426547
 20
-38.30834332220311
 30
0.0
 40
8.5
  0
CIRCLE
  5
7C
  8
CORTE_EXTERNO
 10
58.0383315242655
 20
-38.30834332220313
 30
0.0
 40
8.5
  0
POLYLINE
  5
7D
  8
CORTE_INTERNO
 66
     1
 10
0.0
 20
0.0
 30
0.0
 70
     1
  0
VERTEX
  5
7E
  8
CORTE_INTERNO
 10
17.9383315242651
 20
-39.80834332219845
 30
0.0
  0
VERTEX
  5
7F
  8
CORTE_INTERNO
 10
20.4383315242651
 20
-39.80834332219845
 30
0.0
  0
VERTEX
  5
80
  8
CORTE_INTERNO
 10
20.43833152426508
 20
-36.80834332219845
 30
0.0
  0
VERTEX
  5
81
  8
CORTE_INTERNO
 10
17.93833152426508
 20
-36.80834332219845
 30
0.0
  0
SEQEND
  5
82
  8
CORTE_INTERNO
  0
POLYLINE
  5
83
  8
CORTE_INTERNO
 66
     1
 10
0.0
 20
0.0
 30
0.0
 70
     1
  0
VERTEX
  5
84
  8
CORTE_INTERNO
 10
40.23833152426511
 20
-36.80834332219842
 30
0.0
  0
VERTEX
  5
85
  8
CORTE_INTERNO
 10
40.23833152426512
 20
-39.80834332219842
 30
0.0
  0
VERTEX
  5
86
  8
CORTE_INTERNO
 10
37.73833152426509
 20
-39.80834332219842
 30
0.0
  0
VERTEX
  5
87
  8
CORTE_INTERNO
 10
37.73833152426508
 20
-36.80834332219842
 30
0.0
  0
SEQEND
  5
88
  8
CORTE_INTERNO
  0
CIRCLE
  5
89
  8
CORTE_EXTERNO
 10
38.73833152426509
 20
-38.30834332219843
 30
0.0
 40
8.5
  0
CIRCLE
  5
8A
  8
CORTE_EXTERNO
 10
19.43833152426512
 20
-38.30834332219845
 30
0.0
 40
8.5
  0
POLYLINE
  5
8B
  8
CORTE_INTERNO
 66
     1
 10
0.0
 20
0.0
 30
0.0
 70
     1
  0
VERTEX
  5
8C
  8
CORTE_INTERNO
 10
-20.66166847573528
 20
-39.80834332219376
 30
0.0
  0
VERTEX
  5
8D
  8
CORTE_INTERNO
 10
-18.16166847573528
 20
-39.80834332219376
 30
0.0
  0
VERTEX
  5
8E
  8
CORTE_INTERNO
 10
-18.1616684757353
 20
-36.80834332219376
 30
0.0
  0
VERTEX
  5
8F
  8
CORTE_INTERNO
 10
-20.6616684757353
 20
-36.80834332219376
 30
0.0
  0
SEQEND
  5
90
  8
CORTE_INTERNO
  0
POLYLINE
  5
91
  8
CORTE_INTERNO
 66
     1
 10
0.0
 20
0.0
 30
0.0
 70
     1
  0
VERTEX
  5
92
  8
CORTE_INTERNO
 10
1.638331524264729
 20
-36.80834332219374
 30
0.0
  0
VERTEX
  5
93
  8
CORTE_INTERNO
 10
1.638331524264743
 20
-39.80834332219374
 30
0.0
  0
VERTEX
  5
94
  8
CORTE_INTERNO
 10
-0.8616684757352857
 20
-39.80834332219374
 30
0.0
  0
VERTEX
  5
95
  8
CORTE_INTERNO
 10
-0.8616684757352999
 20
-36.80834332219374
 30
0.0
  0
SEQEND
  5
96
  8
CORTE_INTERNO
  0
CIRCLE
  5
97
  8
CORTE_EXTERNO
 10
0.1383315242647143
 20
-38.30834332219375
 30
0.0
 40
8.5
  0
CIRCLE
  5
98
  8
CORTE_EXTERNO
 10
-19.16166847573525
 20
-38.30834332219376
 30
0.0
 40
8.5
  0
POLYLINE
  5
99
  8
CORTE_INTERNO
 66
     1
 10
0.0
 20
0.0
 30
0.0
 70
     1
  0
VERTEX
  5
9A
  8
CORTE_INTERNO
 10
95.13833152426446
 20
-19.52110197736589
 30
0.0
  0
VERTEX
  5
9B
  8
CORTE_INTERNO
 10
97.63833152426446
 20
-19.52110197736589
 30
0.0
  0
VERTEX
  5
9C
  8
CORTE_INTERNO
 10
97.63833152426446
 20
-16.52110197736589
 30
0.0
  0
VERTEX
  5
9D
  8
CORTE_INTERNO
 10
95.13833152426444
 20
-16.52110197736589
 30
0.0
  0
SEQEND
  5
9E
  8
CORTE_INTERNO
  0
POLYLINE
  5
9F
  8
CORTE_INTERNO
 66
     1
 10
0.0
 20
0.0
 30
0.0
 70
     1
  0
VERTEX
  5
A0
  8
CORTE_INTERNO
 10
117.4383315242645
 20
-16.52110197736586
 30
0.0
  0
VERTEX
  5
A1
  8
CORTE_INTERNO
 10
117.4383315242645
 20
-19.52110197736586
 30
0.0
  0
VERTEX
  5
A2
  8
CORTE_INTERNO
 10
114.9383315242645
 20
-19.52110197736586
 30
0.0
  0
VERTEX
  5
A3
  8
CORTE_INTERNO
 10
114.9383315242645
 20
-16.52110197736586
 30
0.0
  0
SEQEND
  5
A4
  8
CORTE_INTERNO
  0
POLYLINE
  5
A5
  8
CORTE_EXTERNO
 66
     1
 10
0.0
 20
0.0
 30
0.0
 70
     1
  0
VERTEX
  5
A6
  8
CORTE_EXTERNO
 10
88.93833152426446
 20
-9.521101977365898
 30
0.0
 42
0.4142135623731059
  0
VERTEX
  5
A7
  8
CORTE_EXTERNO
 10
88.13833152426446
 20
-10.32110197736591
 30
0.0
  0
VERTEX
  5
A8
  8
CORTE_EXTERNO
 10
88.13833152426449
 20
-25.7211019773659
 30
0.0
 42
0.4142135623730914
  0
VERTEX
  5
A9
  8
CORTE_EXTERNO
 10
88.93833152426448
 20
-26.52110197736591
 30
0.0
  0
VERTEX
  5
AA
  8
CORTE_EXTERNO
 10
104.3383315242645
 20
-26.5211019773659
 30
0.0
 42
0.414213562373091
  0
VERTEX
  5
AB
  8
CORTE_EXTERNO
 10
105.1383315242645
 20
-25.72110197736589
 30
0.0
  0
VERTEX
  5
AC
  8
CORTE_EXTERNO
 10
105.1383315242645
 20
-10.3211019773659
 30
0.0
 42
0.4142135623731079
  0
VERTEX
  5
AD
  8
CORTE_EXTERNO
 10
104.3383315242645
 20
-9.52110197736587
 30
0.0
  0
SEQEND
  5
AE
  8
CORTE_EXTERNO
  0
POLYLINE
  5
AF
  8
CORTE_EXTERNO
 66
     1
 10
0.0
 20
0.0
 30
0.0
 70
     1
  0
VERTEX
  5
B0
  8
CORTE_EXTERNO
 10
108.2383315242644
 20
-9.52110197736587
 30
0.0
 42
0.4142135623731059
  0
VERTEX
  5
B1
  8
CORTE_EXTERNO
 10
107.4383315242644
 20
-10.32110197736589
 30
0.0
  0
VERTEX
  5
B2
  8
CORTE_EXTERNO
 10
107.4383315242645
 20
-25.72110197736588
 30
0.0
 42
0.414213562373092
  0
VERTEX
  5
B3
  8
CORTE_EXTERNO
 10
108.2383315242645
 20
-26.52110197736588
 30
0.0
  0
VERTEX
  5
B4
  8
CORTE_EXTERNO
 10
123.6383315242645
 20
-26.52110197736586
 30
0.0
 42
0.4142135623730832
  0
VERTEX
  5
B5
  8
CORTE_EXTERNO
 10
124.4383315242645
 20
-25.72110197736585
 30
0.0
  0
VERTEX
  5
B6
  8
CORTE_EXTERNO
 10
124.4383315242644
 20
-10.32110197736586
 30
0.0
 42
0.4142135623731
  0
VERTEX
  5
B7
  8
CORTE_EXTERNO
 10
123.6383315242644
 20
-9.521101977365841
 30
0.0
  0
SEQEND
  5
B8
  8
CORTE_EXTERNO
  0
POLYLINE
  5
B9
  8
CORTE_INTERNO
 66
     1
 10
0.0
 20
0.0
 30
0.0
 70
     1
  0
VERTEX
  5
BA
  8
CORTE_INTERNO
 10
56.53833152426454
 20
-19.52110197736586
 30
0.0
  0
VERTEX
  5
BB
  8
CORTE_INTERNO
 10
59.03833152426454
 20
-19.52110197736586
 30
0.0
  0
VERTEX
  5
BC
  8
CORTE_INTERNO
 10
59.03833152426454
 20
-16.52110197736586
 30
0.0
  0
VERTEX
  5
BD
  8
CORTE_INTERNO
 10
56.53833152426452
 20
-16.52110197736586
 30
0.0
  0
SEQEND
  5
BE
  8
CORTE_INTERNO
  0
POLYLINE
  5
BF
  8
CORTE_INTERNO
 66
     1
 10
0.0
 20
0.0
 30
0.0
 70
     1
  0
VERTEX
  5
C0
  8
CORTE_INTERNO
 10
78.83833152426455
 20
-16.52110197736583
 30
0.0
  0
VERTEX
  5
C1
  8
CORTE_INTERNO
 10
78.83833152426455
 20
-19.52110197736583
 30
0.0
  0
VERTEX
  5
C2
  8
CORTE_INTERNO
 10
76.33833152426453
 20
-19.52110197736583
 30
0.0
  0
VERTEX
  5
C3
  8
CORTE_INTERNO
 10
76.33833152426453
 20
-16.52110197736583
 30
0.0
  0
SEQEND
  5
C4
  8
CORTE_INTERNO
  0
POLYLINE
  5
C5
  8
CORTE_EXTERNO
 66
     1
 10
0.0
 20
0.0
 30
0.0
 70
     1
  0
VERTEX
  5
C6
  8
CORTE_EXTERNO
 10
50.33833152426453
 20
-9.52110197736587
 30
0.0
 42
0.4142135623731013
  0
VERTEX
  5
C7
  8
CORTE_EXTERNO
 10
49.53833152426454
 20
-10.32110197736589
 30
0.0
  0
VERTEX
  5
C8
  8
CORTE_EXTERNO
 10
49.53833152426456
 20
-25.72110197736588
 30
0.0
 42
0.4142135623730928
  0
VERTEX
  5
C9
  8
CORTE_EXTERNO
 10
50.33833152426455
 20
-26.52110197736588
 30
0.0
  0
VERTEX
  5
CA
  8
CORTE_EXTERNO
 10
65.73833152426457
 20
-26.52110197736586
 30
0.0
 42
0.4142135623730951
  0
VERTEX
  5
CB
  8
CORTE_EXTERNO
 10
66.53833152426456
 20
-25.72110197736586
 30
0.0
  0
VERTEX
  5
CC
  8
CORTE_EXTERNO
 10
66.53833152426455
 20
-10.32110197736587
 30
0.0
 42
0.414213562373102
  0
VERTEX
  5
CD
  8
CORTE_EXTERNO
 10
65.73833152426454
 20
-9.521101977365841
 30
0.0
  0
SEQEND
  5
CE
  8
CORTE_EXTERNO
  0
POLYLINE
  5
CF
  8
CORTE_EXTERNO
 66
     1
 10
0.0
 20
0.0
 30
0.0
 70
     1
  0
VERTEX
  5
D0
  8
CORTE_EXTERNO
 10
69.63833152426452
 20
-9.521101977365841
 30
0.0
 42
0.4142135623731028
  0
VERTEX
  5
D1
  8
CORTE_EXTERNO
 10
68.83833152426452
 20
-10.32110197736586
 30
0.0
  0
VERTEX
  5
D2
  8
CORTE_EXTERNO
 10
68.83833152426455
 20
-25.72110197736585
 30
0.0
 42
0.414213562373092
  0
VERTEX
  5
D3
  8
CORTE_EXTERNO
 10
69.63833152426456
 20
-26.52110197736585
 30
0.0
  0
VERTEX
  5
D4
  8
CORTE_EXTERNO
 10
85.03833152426456
 20
-26.52110197736583
 30
0.0
 42
0.4142135623730801
  0
VERTEX
  5
D5
  8
CORTE_EXTERNO
 10
85.83833152426455
 20
-25.72110197736582
 30
0.0
  0
VERTEX
  5
D6
  8
CORTE_EXTERNO
 10
85.83833152426453
 20
-10.32110197736583
 30
0.0
 42
0.4142135623730933
  0
VERTEX
  5
D7
  8
CORTE_EXTERNO
 10
85.03833152426452
 20
-9.521101977365813
 30
0.0
  0
SEQEND
  5
D8
  8
CORTE_EXTERNO
  0
POLYLINE
  5
D9
  8
CORTE_INTERNO
 66
     1
 10
0.0
 20
0.0
 30
0.0
 70
     1
  0
VERTEX
  5
DA
  8
CORTE_INTERNO
 10
17.93833152426462
 20
-19.52110197736583
 30
0.0
  0
VERTEX
  5
DB
  8
CORTE_INTERNO
 10
20.43833152426462
 20
-19.52110197736583
 30
0.0
  0
VERTEX
  5
DC
  8
CORTE_INTERNO
 10
20.43833152426462
 20
-16.52110197736583
 30
0.0
  0
VERTEX
  5
DD
  8
CORTE_INTERNO
 10
17.9383315242646
 20
-16.52110197736583
 30
0.0
  0
SEQEND
  5
DE
  8
CORTE_INTERNO
  0
POLYLINE
  5
DF
  8
CORTE_INTERNO
 66
     1
 10
0.0
 20
0.0
 30
0.0
 70
     1
  0
VERTEX
  5
E0
  8
CORTE_INTERNO
 10
40.23833152426463
 20
-16.5211019773658
 30
0.0
  0
VERTEX
  5
E1
  8
CORTE_INTERNO
 10
40.23833152426463
 20
-19.5211019773658
 30
0.0
  0
VERTEX
  5
E2
  8
CORTE_INTERNO
 10
37.73833152426462
 20
-19.5211019773658
 30
0.0
  0
VERTEX
  5
E3
  8
CORTE_INTERNO
 10
37.73833152426462
 20
-16.5211019773658
 30
0.0
  0
SEQEND
  5
E4
  8
CORTE_INTERNO
  0
POLYLINE
  5
E5
  8
CORTE_EXTERNO
 66
     1
 10
0.0
 20
0.0
 30
0.0
 70
     1
  0
VERTEX
  5
E6
  8
CORTE_EXTERNO
 10
11.73833152426461
 20
-9.521101977365841
 30
0.0
 42
0.4142135623730999
  0
VERTEX
  5
E7
  8
CORTE_EXTERNO
 10
10.93833152426462
 20
-10.32110197736586
 30
0.0
  0
VERTEX
  5
E8
  8
CORTE_EXTERNO
 10
10.93833152426465
 20
-25.72110197736585
 30
0.0
 42
0.4142135623730932
  0
VERTEX
  5
E9
  8
CORTE_EXTERNO
 10
11.73833152426464
 20
-26.52110197736585
 30
0.0
  0
VERTEX
  5
EA
  8
CORTE_EXTERNO
 10
27.13833152426465
 20
-26.52110197736585
 30
0.0
 42
0.4142135623730896
  0
VERTEX
  5
EB
  8
CORTE_EXTERNO
 10
27.93833152426465
 20
-25.72110197736583
 30
0.0
  0
VERTEX
  5
EC
  8
CORTE_EXTERNO
 10
27.93833152426462
 20
-10.32110197736584
 30
0.0
 42
0.4142135623731057
  0
VERTEX
  5
ED
  8
CORTE_EXTERNO
 10
27.13833152426463
 20
-9.521101977365813
 30
0.0
  0
SEQEND
  5
EE
  8
CORTE_EXTERNO
  0
POLYLINE
  5
EF
  8
CORTE_EXTERNO
 66
     1
 10
0.0
 20
0.0
 30
0.0
 70
     1
  0
VERTEX
  5
F0
  8
CORTE_EXTERNO
 10
31.0383315242646
 20
-9.521101977365813
 30
0.0
 42
0.4142135623731005
  0
VERTEX
  5
F1
  8
CORTE_EXTERNO
 10
30.2383315242646
 20
-10.32110197736583
 30
0.0
  0
VERTEX
  5
F2
  8
CORTE_EXTERNO
 10
30.23833152426463
 20
-25.72110197736582
 30
0.0
 42
0.414213562373089
  0
VERTEX
  5
F3
  8
CORTE_EXTERNO
 10
31.03833152426464
 20
-26.52110197736582
 30
0.0
  0
VERTEX
  5
F4
  8
CORTE_EXTERNO
 10
46.43833152426465
 20
-26.5211019773658
 30
0.0
 42
0.414213562373086
  0
VERTEX
  5
F5
  8
CORTE_EXTERNO
 10
47.23833152426463
 20
-25.72110197736579
 30
0.0
  0
VERTEX
  5
F6
  8
CORTE_EXTERNO
 10
47.2383315242646
 20
-10.3211019773658
 30
0.0
 42
0.4142135623731081
  0
VERTEX
  5
F7
  8
CORTE_EXTERNO
 10
46.43833152426461
 20
-9.521101977365785
 30
0.0
  0
SEQEND
  5
F8
  8
CORTE_EXTERNO
  0
POLYLINE
  5
F9
  8
CORTE_INTERNO
 66
     1
 10
0.0
 20
0.0
 30
0.0
 70
     1
  0
VERTEX
  5
FA
  8
CORTE_INTERNO
 10
-20.6616684757353
 20
-19.5211019773658
 30
0.0
  0
VERTEX
  5
FB
  8
CORTE_INTERNO
 10
-18.1616684757353
 20
-19.5211019773658
 30
0.0
  0
VERTEX
  5
FC
  8
CORTE_INTERNO
 10
-18.1616684757353
 20
-16.5211019773658
 30
0.0
  0
VERTEX
  5
FD
  8
CORTE_INTERNO
 10
-20.66166847573531
 20
-16.5211019773658
 30
0.0
  0
SEQEND
  5
FE
  8
CORTE_INTERNO
  0
POLYLINE
  5
FF
  8
CORTE_INTERNO
 66
     1
 10
0.0
 20
0.0
 30
0.0
 70
     1
  0
VERTEX
  5
100
  8
CORTE_INTERNO
 10
1.638331524264714
 20
-16.52110197736577
 30
0.0
  0
VERTEX
  5
101
  8
CORTE_INTERNO
 10
1.638331524264714
 20
-19.52110197736577
 30
0.0
  0
VERTEX
  5
102
  8
CORTE_INTERNO
 10
-0.8616684757352999
 20
-19.52110197736577
 30
0.0
  0
VERTEX
  5
103
  8
CORTE_INTERNO
 10
-0.8616684757352999
 20
-16.52110197736577
 30
0.0
  0
SEQEND
  5
104
  8
CORTE_INTERNO
  0
POLYLINE
  5
105
  8
CORTE_EXTERNO
 66
     1
 10
0.0
 20
0.0
 30
0.0
 70
     1
  0
VERTEX
  5
106
  8
CORTE_EXTERNO
 10
-26.8616684757353
 20
-9.521101977365813
 30
0.0
 42
0.4142135623731005
  0
VERTEX
  5
107
  8
CORTE_EXTERNO
 10
-27.6616684757353
 20
-10.32110197736583
 30
0.0
  0
VERTEX
  5
108
  8
CORTE_EXTERNO
 10
-27.66166847573527
 20
-25.72110197736582
 30
0.0
 42
0.4142135623730959
  0
VERTEX
  5
109
  8
CORTE_EXTERNO
 10
-26.86166847573528
 20
-26.52110197736582
 30
0.0
  0
VERTEX
  5
10A
  8
CORTE_EXTERNO
 10
-11.46166847573527
 20
-26.52110197736582
 30
0.0
 42
0.4142135623730903
  0
VERTEX
  5
10B
  8
CORTE_EXTERNO
 10
-10.66166847573527
 20
-25.72110197736581
 30
0.0
  0
VERTEX
  5
10C
  8
CORTE_EXTERNO
 10
-10.6616684757353
 20
-10.32110197736581
 30
0.0
 42
0.4142135623731051
  0
VERTEX
  5
10D
  8
CORTE_EXTERNO
 10
-11.46166847573529
 20
-9.521101977365785
 30
0.0
  0
SEQEND
  5
10E
  8
CORTE_EXTERNO
  0
POLYLINE
  5
10F
  8
CORTE_EXTERNO
 66
     1
 10
0.0
 20
0.0
 30
0.0
 70
     1
  0
VERTEX
  5
110
  8
CORTE_EXTERNO
 10
-7.561668475735318
 20
-9.521101977365785
 30
0.0
 42
0.4142135623731001
  0
VERTEX
  5
111
  8
CORTE_EXTERNO
 10
-8.361668475735318
 20
-10.3211019773658
 30
0.0
  0
VERTEX
  5
112
  8
CORTE_EXTERNO
 10
-8.361668475735286
 20
-25.72110197736579
 30
0.0
 42
0.4142135623730896
  0
VERTEX
  5
113
  8
CORTE_EXTERNO
 10
-7.561668475735277
 20
-26.52110197736579
 30
0.0
  0
VERTEX
  5
114
  8
CORTE_EXTERNO
 10
7.838331524264731
 20
-26.52110197736577
 30
0.0
 42
0.414213562373086
  0
VERTEX
  5
115
  8
CORTE_EXTERNO
 10
8.638331524264718
 20
-25.72110197736576
 30
0.0
  0
VERTEX
  5
116
  8
CORTE_EXTERNO
 10
8.638331524264686
 20
-10.32110197736577
 30
0.0
 42
0.4142135623730999
  0
VERTEX
  5
117
  8
CORTE_EXTERNO
 10
7.838331524264691
 20
-9.521101977365756
 30
0.0
  0
SEQEND
  5
118
  8
CORTE_EXTERNO
  0
POLYLINE
  5
119
  8
CORTE_INTERNO
 66
     1
 10
0.0
 20
0.0
 30
0.0
 70
     1
  0
VERTEX
  5
11A
  8
CORTE_INTERNO
 10
137.0458531389364
 20
12.09753254665483
 30
0.0
  0
VERTEX
  5
11B
  8
CORTE_INTERNO
 10
139.5458531389364
 20
12.09753254665483
 30
0.0
  0
VERTEX
  5
11C
  8
CORTE_INTERNO
 10
139.5458531389364
 20
15.09753254665483
 30
0.0
  0
VERTEX
  5
11D
  8
CORTE_INTERNO
 10
137.0458531389364
 20
15.09753254665483
 30
0.0
  0
SEQEND
  5
11E
  8
CORTE_INTERNO
  0
POLYLINE
  5
11F
  8
CORTE_INTERNO
 66
     1
 10
0.0
 20
0.0
 30
0.0
 70
     1
  0
VERTEX
  5
120
  8
CORTE_INTERNO
 10
159.3458531389364
 20
15.09753254665483
 30
0.0
  0
VERTEX
  5
121
  8
CORTE_INTERNO
 10
159.3458531389364
 20
12.09753254665483
 30
0.0
  0
VERTEX
  5
122
  8
CORTE_INTERNO
 10
156.8458531389364
 20
12.09753254665483
 30
0.0
  0
VERTEX
  5
123
  8
CORTE_INTERNO
 10
156.8458531389364
 20
15.09753254665483
 30
0.0
  0
SEQEND
  5
124
  8
CORTE_INTERNO
  0
CIRCLE
  5
125
  8
CORTE_EXTERNO
 10
148.1958531389364
 20
13.59753254665483
 30
0.0
 40
15.0
  0
POLYLINE
  5
126
  8
CORTE_INTERNO
 66
     1
 10
0.0
 20
0.0
 30
0.0
 70
     1
  0
VERTEX
  5
127
  8
CORTE_INTERNO
 10
104.8743488160019
 20
12.09753254665484
 30
0.0
  0
VERTEX
  5
128
  8
CORTE_INTERNO
 10
107.3743488160019
 20
12.09753254665484
 30
0.0
  0
VERTEX
  5
129
  8
CORTE_INTERNO
 10
107.3743488160019
 20
15.09753254665484
 30
0.0
  0
VERTEX
  5
12A
  8
CORTE_INTERNO
 10
104.8743488160019
 20
15.09753254665484
 30
0.0
  0
SEQEND
  5
12B
  8
CORTE_INTERNO
  0
POLYLINE
  5
12C
  8
CORTE_INTERNO
 66
     1
 10
0.0
 20
0.0
 30
0.0
 70
     1
  0
VERTEX
  5
12D
  8
CORTE_INTERNO
 10
127.1743488160019
 20
15.09753254665484
 30
0.0
  0
VERTEX
  5
12E
  8
CORTE_INTERNO
 10
127.1743488160019
 20
12.09753254665484
 30
0.0
  0
VERTEX
  5
12F
  8
CORTE_INTERNO
 10
124.6743488160019
 20
12.09753254665484
 30
0.0
  0
VERTEX
  5
130
  8
CORTE_INTERNO
 10
124.6743488160019
 20
15.09753254665484
 30
0.0
  0
SEQEND
  5
131
  8
CORTE_INTERNO
  0
CIRCLE
  5
132
  8
CORTE_EXTERNO
 10
116.0243488160019
 20
13.59753254665484
 30
0.0
 40
15.0
  0
POLYLINE
  5
133
  8
CORTE_INTERNO
 66
     1
 10
0.0
 20
0.0
 30
0.0
 70
     1
  0
VERTEX
  5
134
  8
CORTE_INTERNO
 10
72.70284449306743
 20
12.09753254665485
 30
0.0
  0
VERTEX
  5
135
  8
CORTE_INTERNO
 10
75.20284449306743
 20
12.09753254665485
 30
0.0
  0
VERTEX
  5
136
  8
CORTE_INTERNO
 10
75.20284449306743
 20
15.09753254665485
 30
0.0
  0
VERTEX
  5
137
  8
CORTE_INTERNO
 10
72.70284449306742
 20
15.09753254665485
 30
0.0
  0
SEQEND
  5
138
  8
CORTE_INTERNO
  0
POLYLINE
  5
139
  8
CORTE_INTERNO
 66
     1
 10
0.0
 20
0.0
 30
0.0
 70
     1
  0
VERTEX
  5
13A
  8
CORTE_INTERNO
 10
95.00284449306744
 20
15.09753254665485
 30
0.0
  0
VERTEX
  5
13B
  8
CORTE_INTERNO
 10
95.00284449306744
 20
12.09753254665485
 30
0.0
  0
VERTEX
  5
13C
  8
CORTE_INTERNO
 10
92.50284449306743
 20
12.09753254665485
 30
0.0
  0
VERTEX
  5
13D
  8
CORTE_INTERNO
 10
92.50284449306743
 20
15.09753254665485
 30
0.0
  0
SEQEND
  5
13E
  8
CORTE_INTERNO
  0
CIRCLE
  5
13F
  8
CORTE_EXTERNO
 10
83.85284449306744
 20
13.59753254665485
 30
0.0
 40
15.0
  0
POLYLINE
  5
140
  8
CORTE_INTERNO
 66
     1
 10
0.0
 20
0.0
 30
0.0
 70
     1
  0
VERTEX
  5
141
  8
CORTE_INTERNO
 10
40.53134017013296
 20
12.09753254665485
 30
0.0
  0
VERTEX
  5
142
  8
CORTE_INTERNO
 10
43.03134017013296
 20
12.09753254665485
 30
0.0
  0
VERTEX
  5
143
  8
CORTE_INTERNO
 10
43.03134017013296
 20
15.09753254665485
 30
0.0
  0
VERTEX
  5
144
  8
CORTE_INTERNO
 10
40.53134017013295
 20
15.09753254665485
 30
0.0
  0
SEQEND
  5
145
  8
CORTE_INTERNO
  0
POLYLINE
  5
146
  8
CORTE_INTERNO
 66
     1
 10
0.0
 20
0.0
 30
0.0
 70
     1
  0
VERTEX
  5
147
  8
CORTE_INTERNO
 10
62.83134017013298
 20
15.09753254665485
 30
0.0
  0
VERTEX
  5
148
  8
CORTE_INTERNO
 10
62.83134017013298
 20
12.09753254665485
 30
0.0
  0
VERTEX
  5
149
  8
CORTE_INTERNO
 10
60.33134017013296
 20
12.09753254665485
 30
0.0
  0
VERTEX
  5
14A
  8
CORTE_INTERNO
 10
60.33134017013296
 20
15.09753254665485
 30
0.0
  0
SEQEND
  5
14B
  8
CORTE_INTERNO
  0
CIRCLE
  5
14C
  8
CORTE_EXTERNO
 10
51.68134017013297
 20
13.59753254665485
 30
0.0
 40
15.0
  0
CIRCLE
  5
14D
  8
CORTE_EXTERNO
 10
-12.66166847573528
 20
13.59753254665454
 30
0.0
 40
15.0
  0
POLYLINE
  5
14E
  8
CORTE_INTERNO
 66
     1
 10
0.0
 20
0.0
 30
0.0
 70
     1
  0
VERTEX
  5
14F
  8
CORTE_INTERNO
 10
-1.511668475735263
 20
15.09753254665454
 30
0.0
  0
VERTEX
  5
150
  8
CORTE_INTERNO
 10
-1.511668475735263
 20
12.09753254665454
 30
0.0
  0
VERTEX
  5
151
  8
CORTE_INTERNO
 10
-4.011668475735277
 20
12.09753254665454
 30
0.0
  0
VERTEX
  5
152
  8
CORTE_INTERNO
 10
-4.011668475735277
 20
15.09753254665454
 30
0.0
  0
SEQEND
  5
153
  8
CORTE_INTERNO
  0
POLYLINE
  5
154
  8
CORTE_INTERNO
 66
     1
 10
0.0
 20
0.0
 30
0.0
 70
     1
  0
VERTEX
  5
155
  8
CORTE_INTERNO
 10
-23.81166847573527
 20
12.09753254665454
 30
0.0
  0
VERTEX
  5
156
  8
CORTE_INTERNO
 10
-21.31166847573527
 20
12.09753254665454
 30
0.0
  0
VERTEX
  5
157
  8
CORTE_INTERNO
 10
-21.31166847573527
 20
15.09753254665454
 30
0.0
  0
VERTEX
  5
158
  8
CORTE_INTERNO
 10
-23.81166847573529
 20
15.09753254665454
 30
0.0
  0
SEQEND
  5
159
  8
CORTE_INTERNO
  0
POLYLINE
  5
15A
  8
CORTE_INTERNO
 66
     1
 10
0.0
 20
0.0
 30
0.0
 70
     1
  0
VERTEX
  5
15B
  8
CORTE_INTERNO
 10
8.3598358471985
 20
12.09753254665486
 30
0.0
  0
VERTEX
  5
15C
  8
CORTE_INTERNO
 10
10.8598358471985
 20
12.09753254665486
 30
0.0
  0
VERTEX
  5
15D
  8
CORTE_INTERNO
 10
10.8598358471985
 20
15.09753254665486
 30
0.0
  0
VERTEX
  5
15E
  8
CORTE_INTERNO
 10
8.359835847198486
 20
15.09753254665486
 30
0.0
  0
SEQEND
  5
15F
  8
CORTE_INTERNO
  0
POLYLINE
  5
160
  8
CORTE_INTERNO
 66
     1
 10
0.0
 20
0.0
 30
0.0
 70
     1
  0
VERTEX
  5
161
  8
CORTE_INTERNO
 10
30.65983584719851
 20
15.09753254665486
 30
0.0
  0
VERTEX
  5
162
  8
CORTE_INTERNO
 10
30.65983584719851
 20
12.09753254665486
 30
0.0
  0
VERTEX
  5
163
  8
CORTE_INTERNO
 10
28.1598358471985
 20
12.09753254665486
 30
0.0
  0
VERTEX
  5
164
  8
CORTE_INTERNO
 10
28.1598358471985
 20
15.09753254665486
 30
0.0
  0
SEQEND
  5
165
  8
CORTE_INTERNO
  0
CIRCLE
  5
166
  8
CORTE_EXTERNO
 10
19.5098358471985
 20
13.59753254665486
 30
0.0
 40
15.0
  0
POLYLINE
  5
167
  8
CORTE_INTERNO
 66
     1
 10
0.0
 20
0.0
 30
0.0
 70
     1
  0
VERTEX
  5
168
  8
CORTE_INTERNO
 10
137.0458531389334
 20
48.10405798627468
 30
0.0
  0
VERTEX
  5
169
  8
CORTE_INTERNO
 10
139.5458531389334
 20
48.10405798627468
 30
0.0
  0
VERTEX
  5
16A
  8
CORTE_INTERNO
 10
139.5458531389334
 20
51.10405798627468
 30
0.0
  0
VERTEX
  5
16B
  8
CORTE_INTERNO
 10
137.0458531389334
 20
51.10405798627468
 30
0.0
  0
SEQEND
  5
16C
  8
CORTE_INTERNO
  0
POLYLINE
  5
16D
  8
CORTE_INTERNO
 66
     1
 10
0.0
 20
0.0
 30
0.0
 70
     1
  0
VERTEX
  5
16E
  8
CORTE_INTERNO
 10
159.3458531389334
 20
51.10405798627468
 30
0.0
  0
VERTEX
  5
16F
  8
CORTE_INTERNO
 10
159.3458531389334
 20
48.10405798627468
 30
0.0
  0
VERTEX
  5
170
  8
CORTE_INTERNO
 10
156.8458531389334
 20
48.10405798627468
 30
0.0
  0
VERTEX
  5
171
  8
CORTE_INTERNO
 10
156.8458531389334
 20
51.10405798627468
 30
0.0
  0
SEQEND
  5
172
  8
CORTE_INTERNO
  0
POLYLINE
  5
173
  8
CORTE_EXTERNO
 66
     1
 10
0.0
 20
0.0
 30
0.0
 70
     1
  0
VERTEX
  5
174
  8
CORTE_EXTERNO
 10
133.9958531389333
 20
34.60405798627471
 30
0.0
  0
VERTEX
  5
175
  8
CORTE_EXTERNO
 10
162.3958531389334
 20
34.60405798627468
 30
0.0
 42
0.4142135623731079
  0
VERTEX
  5
176
  8
CORTE_EXTERNO
 10
163.1958531389334
 20
35.40405798627471
 30
0.0
  0
VERTEX
  5
177
  8
CORTE_EXTERNO
 10
163.1958531389334
 20
63.80405798627469
 30
0.0
 42
0.4142135623730994
  0
VERTEX
  5
178
  8
CORTE_EXTERNO
 10
162.3958531389334
 20
64.60405798627467
 30
0.0
  0
VERTEX
  5
179
  8
CORTE_EXTERNO
 10
133.9958531389334
 20
64.60405798627468
 30
0.0
 42
0.4142135623730944
  0
VERTEX
  5
17A
  8
CORTE_EXTERNO
 10
133.1958531389334
 20
63.80405798627469
 30
0.0
  0
VERTEX
  5
17B
  8
CORTE_EXTERNO
 10
133.1958531389334
 20
35.40405798627472
 30
0.0
 42
0.414213562373091
  0
SEQEND
  5
17C
  8
CORTE_EXTERNO
  0
POLYLINE
  5
17D
  8
CORTE_INTERNO
 66
     1
 10
0.0
 20
0.0
 30
0.0
 70
     1
  0
VERTEX
  5
17E
  8
CORTE_INTERNO
 10
104.8743488159997
 20
48.10405798627469
 30
0.0
  0
VERTEX
  5
17F
  8
CORTE_INTERNO
 10
107.3743488159997
 20
48.10405798627469
 30
0.0
  0
VERTEX
  5
180
  8
CORTE_INTERNO
 10
107.3743488159997
 20
51.10405798627469
 30
0.0
  0
VERTEX
  5
181
  8
CORTE_INTERNO
 10
104.8743488159996
 20
51.10405798627469
 30
0.0
  0
SEQEND
  5
182
  8
CORTE_INTERNO
  0
POLYLINE
  5
183
  8
CORTE_INTERNO
 66
     1
 10
0.0
 20
0.0
 30
0.0
 70
     1
  0
VERTEX
  5
184
  8
CORTE_INTERNO
 10
127.1743488159997
 20
51.10405798627469
 30
0.0
  0
VERTEX
  5
185
  8
CORTE_INTERNO
 10
127.1743488159997
 20
48.10405798627469
 30
0.0
  0
VERTEX
  5
186
  8
CORTE_INTERNO
 10
124.6743488159997
 20
48.10405798627469
 30
0.0
  0
VERTEX
  5
187
  8
CORTE_INTERNO
 10
124.6743488159997
 20
51.10405798627469
 30
0.0
  0
SEQEND
  5
188
  8
CORTE_INTERNO
  0
POLYLINE
  5
189
  8
CORTE_EXTERNO
 66
     1
 10
0.0
 20
0.0
 30
0.0
 70
     1
  0
VERTEX
  5
18A
  8
CORTE_EXTERNO
 10
101.8243488159996
 20
34.60405798627472
 30
0.0
  0
VERTEX
  5
18B
  8
CORTE_EXTERNO
 10
130.2243488159996
 20
34.60405798627469
 30
0.0
 42
0.4142135623731042
  0
VERTEX
  5
18C
  8
CORTE_EXTERNO
 10
131.0243488159996
 20
35.40405798627472
 30
0.0
  0
VERTEX
  5
18D
  8
CORTE_EXTERNO
 10
131.0243488159997
 20
63.8040579862747
 30
0.0
 42
0.4142135623731085
  0
VERTEX
  5
18E
  8
CORTE_EXTERNO
 10
130.2243488159997
 20
64.60405798627467
 30
0.0
  0
VERTEX
  5
18F
  8
CORTE_EXTERNO
 10
101.8243488159997
 20
64.60405798627467
 30
0.0
 42
0.4142135623731085
  0
VERTEX
  5
190
  8
CORTE_EXTERNO
 10
101.0243488159997
 20
63.8040579862747
 30
0.0
  0
VERTEX
  5
191
  8
CORTE_EXTERNO
 10
101.0243488159997
 20
35.40405798627473
 30
0.0
 42
0.414213562373094
  0
SEQEND
  5
192
  8
CORTE_EXTERNO
  0
POLYLINE
  5
193
  8
CORTE_INTERNO
 66
     1
 10
0.0
 20
0.0
 30
0.0
 70
     1
  0
VERTEX
  5
194
  8
CORTE_INTERNO
 10
72.70284449306592
 20
48.1040579862747
 30
0.0
  0
VERTEX
  5
195
  8
CORTE_INTERNO
 10
75.20284449306592
 20
48.1040579862747
 30
0.0
  0
VERTEX
  5
196
  8
CORTE_INTERNO
 10
75.20284449306592
 20
51.1040579862747
 30
0.0
  0
VERTEX
  5
197
  8
CORTE_INTERNO
 10
72.70284449306591
 20
51.1040579862747
 30
0.0
  0
SEQEND
  5
198
  8
CORTE_INTERNO
  0
POLYLINE
  5
199
  8
CORTE_INTERNO
 66
     1
 10
0.0
 20
0.0
 30
0.0
 70
     1
  0
VERTEX
  5
19A
  8
CORTE_INTERNO
 10
95.00284449306594
 20
51.1040579862747
 30
0.0
  0
VERTEX
  5
19B
  8
CORTE_INTERNO
 10
95.00284449306594
 20
48.1040579862747
 30
0.0
  0
VERTEX
  5
19C
  8
CORTE_INTERNO
 10
92.50284449306592
 20
48.1040579862747
 30
0.0
  0
VERTEX
  5
19D
  8
CORTE_INTERNO
 10
92.50284449306592
 20
51.1040579862747
 30
0.0
  0
SEQEND
  5
19E
  8
CORTE_INTERNO
  0
POLYLINE
  5
19F
  8
CORTE_EXTERNO
 66
     1
 10
0.0
 20
0.0
 30
0.0
 70
     1
  0
VERTEX
  5
1A0
  8
CORTE_EXTERNO
 10
69.6528444930659
 20
34.60405798627473
 30
0.0
  0
VERTEX
  5
1A1
  8
CORTE_EXTERNO
 10
98.05284449306592
 20
34.6040579862747
 30
0.0
 42
0.414213562373092
  0
VERTEX
  5
1A2
  8
CORTE_EXTERNO
 10
98.85284449306592
 20
35.40405798627472
 30
0.0
  0
VERTEX
  5
1A3
  8
CORTE_EXTERNO
 10
98.85284449306593
 20
63.80405798627471
 30
0.0
 42
0.4142135623731037
  0
VERTEX
  5
1A4
  8
CORTE_EXTERNO
 10
98.05284449306592
 20
64.60405798627468
 30
0.0
  0
VERTEX
  5
1A5
  8
CORTE_EXTERNO
 10
69.65284449306593
 20
64.60405798627471
 30
0.0
 42
0.4142135623730877
  0
VERTEX
  5
1A6
  8
CORTE_EXTERNO
 10
68.85284449306593
 20
63.80405798627471
 30
0.0
  0
VERTEX
  5
1A7
  8
CORTE_EXTERNO
 10
68.85284449306593
 20
35.40405798627474
 30
0.0
 42
0.414213562373096
  0
SEQEND
  5
1A8
  8
CORTE_EXTERNO
  0
POLYLINE
  5
1A9
  8
CORTE_INTERNO
 66
     1
 10
0.0
 20
0.0
 30
0.0
 70
     1
  0
VERTEX
  5
1AA
  8
CORTE_INTERNO
 10
40.5313401701322
 20
48.1040579862747
 30
0.0
  0
VERTEX
  5
1AB
  8
CORTE_INTERNO
 10
43.0313401701322
 20
48.1040579862747
 30
0.0
  0
VERTEX
  5
1AC
  8
CORTE_INTERNO
 10
43.0313401701322
 20
51.1040579862747
 30
0.0
  0
VERTEX
  5
1AD
  8
CORTE_INTERNO
 10
40.53134017013218
 20
51.1040579862747
 30
0.0
  0
SEQEND
  5
1AE
  8
CORTE_INTERNO
  0
POLYLINE
  5
1AF
  8
CORTE_INTERNO
 66
     1
 10
0.0
 20
0.0
 30
0.0
 70
     1
  0
VERTEX
  5
1B0
  8
CORTE_INTERNO
 10
62.83134017013221
 20
51.1040579862747
 30
0.0
  0
VERTEX
  5
1B1
  8
CORTE_INTERNO
 10
62.83134017013221
 20
48.1040579862747
 30
0.0
  0
VERTEX
  5
1B2
  8
CORTE_INTERNO
 10
60.33134017013219
 20
48.1040579862747
 30
0.0
  0
VERTEX
  5
1B3
  8
CORTE_INTERNO
 10
60.33134017013219
 20
51.1040579862747
 30
0.0
  0
SEQEND
  5
1B4
  8
CORTE_INTERNO
  0
POLYLINE
  5
1B5
  8
CORTE_EXTERNO
 66
     1
 10
0.0
 20
0.0
 30
0.0
 70
     1
  0
VERTEX
  5
1B6
  8
CORTE_EXTERNO
 10
37.48134017013217
 20
34.60405798627473
 30
0.0
  0
VERTEX
  5
1B7
  8
CORTE_EXTERNO
 10
65.88134017013219
 20
34.60405798627469
 30
0.0
 42
0.4142135623730871
  0
VERTEX
  5
1B8
  8
CORTE_EXTERNO
 10
66.68134017013219
 20
35.40405798627473
 30
0.0
  0
VERTEX
  5
1B9
  8
CORTE_EXTERNO
 10
66.6813401701322
 20
63.80405798627471
 30
0.0
 42
0.4142135623730979
  0
VERTEX
  5
1BA
  8
CORTE_EXTERNO
 10
65.88134017013219
 20
64.60405798627468
 30
0.0
  0
VERTEX
  5
1BB
  8
CORTE_EXTERNO
 10
37.4813401701322
 20
64.60405798627471
 30
0.0
 42
0.4142135623730914
  0
VERTEX
  5
1BC
  8
CORTE_EXTERNO
 10
36.6813401701322
 20
63.80405798627471
 30
0.0
  0
VERTEX
  5
1BD
  8
CORTE_EXTERNO
 10
36.68134017013221
 20
35.40405798627474
 30
0.0
 42
0.4142135623730951
  0
SEQEND
  5
1BE
  8
CORTE_EXTERNO
  0
POLYLINE
  5
1BF
  8
CORTE_INTERNO
 66
     1
 10
0.0
 20
0.0
 30
0.0
 70
     1
  0
VERTEX
  5
1C0
  8
CORTE_INTERNO
 10
8.359835847198468
 20
48.10405798627471
 30
0.0
  0
VERTEX
  5
1C1
  8
CORTE_INTERNO
 10
10.85983584719847
 20
48.10405798627471
 30
0.0
  0
VERTEX
  5
1C2
  8
CORTE_INTERNO
 10
10.85983584719847
 20
51.10405798627471
 30
0.0
  0
VERTEX
  5
1C3
  8
CORTE_INTERNO
 10
8.359835847198454
 20
51.10405798627471
 30
0.0
  0
SEQEND
  5
1C4
  8
CORTE_INTERNO
  0
POLYLINE
  5
1C5
  8
CORTE_INTERNO
 66
     1
 10
0.0
 20
0.0
 30
0.0
 70
     1
  0
VERTEX
  5
1C6
  8
CORTE_INTERNO
 10
30.65983584719848
 20
51.10405798627471
 30
0.0
  0
VERTEX
  5
1C7
  8
CORTE_INTERNO
 10
30.65983584719848
 20
48.10405798627471
 30
0.0
  0
VERTEX
  5
1C8
  8
CORTE_INTERNO
 10
28.15983584719847
 20
48.10405798627471
 30
0.0
  0
VERTEX
  5
1C9
  8
CORTE_INTERNO
 10
28.15983584719847
 20
51.10405798627471
 30
0.0
  0
SEQEND
  5
1CA
  8
CORTE_INTERNO
  0
POLYLINE
  5
1CB
  8
CORTE_EXTERNO
 66
     1
 10
0.0
 20
0.0
 30
0.0
 70
     1
  0
VERTEX
  5
1CC
  8
CORTE_EXTERNO
 10
5.309835847198443
 20
34.60405798627474
 30
0.0
  0
VERTEX
  5
1CD
  8
CORTE_EXTERNO
 10
33.70983584719846
 20
34.60405798627471
 30
0.0
 42
0.4142135623730964
  0
VERTEX
  5
1CE
  8
CORTE_EXTERNO
 10
34.50983584719846
 20
35.40405798627474
 30
0.0
  0
VERTEX
  5
1CF
  8
CORTE_EXTERNO
 10
34.50983584719847
 20
63.80405798627472
 30
0.0
 42
0.4142135623731036
  0
VERTEX
  5
1D0
  8
CORTE_EXTERNO
 10
33.70983584719847
 20
64.6040579862747
 30
0.0
  0
VERTEX
  5
1D1
  8
CORTE_EXTERNO
 10
5.309835847198471
 20
64.60405798627471
 30
0.0
 42
0.4142135623730949
  0
VERTEX
  5
1D2
  8
CORTE_EXTERNO
 10
4.509835847198471
 20
63.80405798627472
 30
0.0
  0
VERTEX
  5
1D3
  8
CORTE_EXTERNO
 10
4.509835847198488
 20
35.40405798627475
 30
0.0
 42
0.4142135623730934
  0
SEQEND
  5
1D4
  8
CORTE_EXTERNO
  0
POLYLINE
  5
1D5
  8
CORTE_INTERNO
 66
     1
 10
0.0
 20
0.0
 30
0.0
 70
     1
  0
VERTEX
  5
1D6
  8
CORTE_INTERNO
 10
-23.81166847573522
 20
48.10405798627477
 30
0.0
  0
VERTEX
  5
1D7
  8
CORTE_INTERNO
 10
-21.31166847573522
 20
48.10405798627477
 30
0.0
  0
VERTEX
  5
1D8
  8
CORTE_INTERNO
 10
-21.31166847573522
 20
51.10405798627477
 30
0.0
  0
VERTEX
  5
1D9
  8
CORTE_INTERNO
 10
-23.81166847573523
 20
51.10405798627477
 30
0.0
  0
SEQEND
  5
1DA
  8
CORTE_INTERNO
  0
POLYLINE
  5
1DB
  8
CORTE_INTERNO
 66
     1
 10
0.0
 20
0.0
 30
0.0
 70
     1
  0
VERTEX
  5
1DC
  8
CORTE_INTERNO
 10
-1.51166847573521
 20
51.10405798627477
 30
0.0
  0
VERTEX
  5
1DD
  8
CORTE_INTERNO
 10
-1.51166847573521
 20
48.10405798627477
 30
0.0
  0
VERTEX
  5
1DE
  8
CORTE_INTERNO
 10
-4.011668475735224
 20
48.10405798627477
 30
0.0
  0
VERTEX
  5
1DF
  8
CORTE_INTERNO
 10
-4.011668475735224
 20
51.10405798627477
 30
0.0
  0
SEQEND
  5
1E0
  8
CORTE_INTERNO
  0
POLYLINE
  5
1E1
  8
CORTE_EXTERNO
 66
     1
 10
0.0
 20
0.0
 30
0.0
 70
     1
  0
VERTEX
  5
1E2
  8
CORTE_EXTERNO
 10
-26.86166847573525
 20
34.6040579862748
 30
0.0
  0
VERTEX
  5
1E3
  8
CORTE_EXTERNO
 10
1.53833152426478
 20
34.60405798627476
 30
0.0
 42
0.4142135623730926
  0
VERTEX
  5
1E4
  8
CORTE_EXTERNO
 10
2.33833152426478
 20
35.40405798627479
 30
0.0
  0
VERTEX
  5
1E5
  8
CORTE_EXTERNO
 10
2.338331524264792
 20
63.80405798627478
 30
0.0
 42
0.4142135623731016
  0
VERTEX
  5
1E6
  8
CORTE_EXTERNO
 10
1.538331524264787
 20
64.60405798627475
 30
0.0
  0
VERTEX
  5
1E7
  8
CORTE_EXTERNO
 10
-26.86166847573522
 20
64.60405798627477
 30
0.0
 42
0.4142135623730965
  0
VERTEX
  5
1E8
  8
CORTE_EXTERNO
 10
-27.66166847573522
 20
63.80405798627478
 30
0.0
  0
VERTEX
  5
1E9
  8
CORTE_EXTERNO
 10
-27.6616684757352
 20
35.40405798627481
 30
0.0
 42
0.4142135623730931
  0
SEQEND
  5
1EA
  8
CORTE_EXTERNO
  0
POLYLINE
  5
1EB
  8
CORTE_EXTERNO
 66
     1
 10
0.0
 20
0.0
 30
0.0
 70
     1
  0
VERTEX
  5
1EC
  8
CORTE_EXTERNO
 10
142.4349906607879
 20
-44.13341240917993
 30
0.0
 42
-0.4142135623730962
  0
VERTEX
  5
1ED
  8
CORTE_EXTERNO
 10
130.5849906607878
 20
-32.28341240917992
 30
0.0
  0
VERTEX
  5
1EE
  8
CORTE_EXTERNO
 10
130.5849906607878
 20
-23.72341240917994
 30
0.0
  0
VERTEX
  5
1EF
  8
CORTE_EXTERNO
 10
130.6749906607878
 20
-23.63341240917994
 30
0.0
  0
VERTEX
  5
1F0
  8
CORTE_EXTERNO
 10
130.8849906607878
 20
-23.63341240917995
 30
0.0
 42
2.414213562372426
  0
VERTEX
  5
1F1
  8
CORTE_EXTERNO
 10
130.9849906607878
 20
-23.53341240917995
 30
0.0
  0
VERTEX
  5
1F2
  8
CORTE_EXTERNO
 10
130.9849906607878
 20
-20.73341240917994
 30
0.0
 42
2.414213562373339
  0
VERTEX
  5
1F3
  8
CORTE_EXTERNO
 10
130.8849906607878
 20
-20.63341240917995
 30
0.0
  0
VERTEX
  5
1F4
  8
CORTE_EXTERNO
 10
130.8749906607878
 20
-20.63341240917993
 30
0.0
  0
VERTEX
  5
1F5
  8
CORTE_EXTERNO
 10
130.7849906607878
 20
-20.54341240917993
 30
0.0
  0
VERTEX
  5
1F6
  8
CORTE_EXTERNO
 10
130.7849906607877
 20
-19.63341240917992
 30
0.0
 42
-0.4142135623731313
  0
VERTEX
  5
1F7
  8
CORTE_EXTERNO
 10
131.2849906607877
 20
-19.13341240917995
 30
0.0
  0
VERTEX
  5
1F8
  8
CORTE_EXTERNO
 10
133.2849906607878
 20
-19.13341240917995
 30
0.0
 42
-0.4142135623731097
  0
VERTEX
  5
1F9
  8
CORTE_EXTERNO
 10
133.7849906607879
 20
-19.63341240917991
 30
0.0
  0
VERTEX
  5
1FA
  8
CORTE_EXTERNO
 10
133.7849906607878
 20
-32.28341240917992
 30
0.0
 42
0.9999999999999999
  0
VERTEX
  5
1FB
  8
CORTE_EXTERNO
 10
151.0849906607879
 20
-32.28341240917992
 30
0.0
  0
VERTEX
  5
1FC
  8
CORTE_EXTERNO
 10
151.0849906607878
 20
-19.63341240917992
 30
0.0
 42
-0.4142135623731313
  0
VERTEX
  5
1FD
  8
CORTE_EXTERNO
 10
151.5849906607879
 20
-19.13341240917995
 30
0.0
  0
VERTEX
  5
1FE
  8
CORTE_EXTERNO
 10
153.5849906607879
 20
-19.13341240917995
 30
0.0
 42
-0.4142135623731097
  0
VERTEX
  5
1FF
  8
CORTE_EXTERNO
 10
154.084990660788
 20
-19.63341240917991
 30
0.0
  0
VERTEX
  5
200
  8
CORTE_EXTERNO
 10
154.0849906607879
 20
-20.54341240917993
 30
0.0
  0
VERTEX
  5
201
  8
CORTE_EXTERNO
 10
153.9949906607879
 20
-20.63341240917993
 30
0.0
  0
VERTEX
  5
202
  8
CORTE_EXTERNO
 10
153.9849906607879
 20
-20.63341240917995
 30
0.0
 42
2.414213562373557
  0
VERTEX
  5
203
  8
CORTE_EXTERNO
 10
153.8849906607878
 20
-20.73341240917995
 30
0.0
  0
VERTEX
  5
204
  8
CORTE_EXTERNO
 10
153.8849906607879
 20
-23.53341240917998
 30
0.0
 42
2.414213562372767
  0
VERTEX
  5
205
  8
CORTE_EXTERNO
 10
153.9849906607879
 20
-23.63341240917995
 30
0.0
  0
VERTEX
  5
206
  8
CORTE_EXTERNO
 10
154.1949906607879
 20
-23.63341240917993
 30
0.0
  0
VERTEX
  5
207
  8
CORTE_EXTERNO
 10
154.2849906607879
 20
-23.72341240917994
 30
0.0
  0
VERTEX
  5
208
  8
CORTE_EXTERNO
 10
154.2849906607879
 20
-32.28341240917992
 30
0.0
 42
-0.4142135623730945
  0
SEQEND
  5
209
  8
CORTE_EXTERNO
  0
LINE
  5
20A
  8
CORTE_EXTERNO
 10
154.2849906607879
 20
-32.28341240917994
 30
0.0
 11
154.2849906607879
 21
-28.00341240917995
 31
0.0
  0
LINE
  5
20B
  8
CORTE_EXTERNO
 10
130.5849906607878
 20
-32.28341240917994
 30
0.0
 11
130.5849906607878
 21
-28.00341240917995
 31
0.0
  0
ENDSEC
  0
EOF
