ISO-10303-21;
HEADER;
/* Generated by software containing ST-Developer
 * from STEP Tools, Inc. (www.steptools.com) 
 */

FILE_DESCRIPTION(
/* description */ (''),
/* implementation_level */ '2;1');

FILE_NAME(
/* name */ 'stick.step',
/* time_stamp */ '2025-08-23T12:19:45-04:00',
/* author */ (''),
/* organization */ (''),
/* preprocessor_version */ 'ST-DEVELOPER v20.1',
/* originating_system */ 'Autodesk Translation Framework v14.10.0.0',
/* authorisation */ '');

FILE_SCHEMA (('AUTOMOTIVE_DESIGN { 1 0 10303 214 3 1 1 }'));
ENDSEC;

DATA;
#10=MECHANICAL_DESIGN_GEOMETRIC_PRESENTATION_REPRESENTATION('',(#13),#326);
#11=SHAPE_REPRESENTATION_RELATIONSHIP('SRR','None',#333,#12);
#12=ADVANCED_BREP_SHAPE_REPRESENTATION('',(#14),#325);
#13=STYLED_ITEM('',(#343),#14);
#14=MANIFOLD_SOLID_BREP('Body7',#174);
#15=CONICAL_SURFACE('',#204,0.95,1.02974425867665);
#16=CONICAL_SURFACE('',#208,0.95,1.02974425867665);
#17=FACE_BOUND('',#57,.T.);
#18=FACE_BOUND('',#66,.T.);
#19=FACE_BOUND('',#68,.T.);
#20=PLANE('',#195);
#21=PLANE('',#212);
#22=PLANE('',#213);
#23=LINE('',#284,#30);
#24=LINE('',#298,#31);
#25=LINE('',#301,#32);
#26=LINE('',#307,#33);
#27=LINE('',#311,#34);
#28=LINE('',#316,#35);
#29=LINE('',#320,#36);
#30=VECTOR('',#226,5.1);
#31=VECTOR('',#245,3.1);
#32=VECTOR('',#248,3.1);
#33=VECTOR('',#255,0.95);
#34=VECTOR('',#260,1.9);
#35=VECTOR('',#265,0.95);
#36=VECTOR('',#270,1.9);
#37=CYLINDRICAL_SURFACE('',#192,5.1);
#38=CYLINDRICAL_SURFACE('',#200,3.1);
#39=CYLINDRICAL_SURFACE('',#202,3.1);
#40=CYLINDRICAL_SURFACE('',#206,1.9);
#41=CYLINDRICAL_SURFACE('',#210,1.9);
#42=FACE_OUTER_BOUND('',#54,.T.);
#43=FACE_OUTER_BOUND('',#55,.T.);
#44=FACE_OUTER_BOUND('',#56,.T.);
#45=FACE_OUTER_BOUND('',#58,.T.);
#46=FACE_OUTER_BOUND('',#59,.T.);
#47=FACE_OUTER_BOUND('',#60,.T.);
#48=FACE_OUTER_BOUND('',#61,.T.);
#49=FACE_OUTER_BOUND('',#62,.T.);
#50=FACE_OUTER_BOUND('',#63,.T.);
#51=FACE_OUTER_BOUND('',#64,.T.);
#52=FACE_OUTER_BOUND('',#65,.T.);
#53=FACE_OUTER_BOUND('',#67,.T.);
#54=EDGE_LOOP('',(#118,#119,#120,#121));
#55=EDGE_LOOP('',(#122,#123,#124,#125,#126));
#56=EDGE_LOOP('',(#127));
#57=EDGE_LOOP('',(#128));
#58=EDGE_LOOP('',(#129,#130,#131,#132,#133));
#59=EDGE_LOOP('',(#134,#135,#136,#137));
#60=EDGE_LOOP('',(#138,#139,#140,#141));
#61=EDGE_LOOP('',(#142,#143,#144));
#62=EDGE_LOOP('',(#145,#146,#147,#148));
#63=EDGE_LOOP('',(#149,#150,#151));
#64=EDGE_LOOP('',(#152,#153,#154,#155));
#65=EDGE_LOOP('',(#156));
#66=EDGE_LOOP('',(#157));
#67=EDGE_LOOP('',(#158));
#68=EDGE_LOOP('',(#159));
#69=CIRCLE('',#189,4.1);
#70=CIRCLE('',#190,1.);
#71=CIRCLE('',#191,5.1);
#72=CIRCLE('',#193,5.1);
#73=CIRCLE('',#194,5.1);
#74=CIRCLE('',#196,3.1);
#75=CIRCLE('',#198,3.1);
#76=CIRCLE('',#199,3.);
#77=CIRCLE('',#201,3.1);
#78=CIRCLE('',#203,3.1);
#79=CIRCLE('',#205,1.9);
#80=CIRCLE('',#207,1.9);
#81=CIRCLE('',#209,1.9);
#82=CIRCLE('',#211,1.9);
#83=VERTEX_POINT('',#277);
#84=VERTEX_POINT('',#279);
#85=VERTEX_POINT('',#283);
#86=VERTEX_POINT('',#285);
#87=VERTEX_POINT('',#289);
#88=VERTEX_POINT('',#292);
#89=VERTEX_POINT('',#296);
#90=VERTEX_POINT('',#300);
#91=VERTEX_POINT('',#304);
#92=VERTEX_POINT('',#306);
#93=VERTEX_POINT('',#309);
#94=VERTEX_POINT('',#313);
#95=VERTEX_POINT('',#315);
#96=VERTEX_POINT('',#318);
#97=EDGE_CURVE('',#83,#83,#69,.T.);
#98=EDGE_CURVE('',#83,#84,#70,.T.);
#99=EDGE_CURVE('',#84,#84,#71,.T.);
#100=EDGE_CURVE('',#84,#85,#23,.T.);
#101=EDGE_CURVE('',#85,#86,#72,.T.);
#102=EDGE_CURVE('',#86,#85,#73,.T.);
#103=EDGE_CURVE('',#87,#87,#74,.T.);
#104=EDGE_CURVE('',#88,#88,#75,.T.);
#105=EDGE_CURVE('',#88,#86,#76,.T.);
#106=EDGE_CURVE('',#89,#89,#77,.T.);
#107=EDGE_CURVE('',#89,#88,#24,.T.);
#108=EDGE_CURVE('',#87,#90,#25,.T.);
#109=EDGE_CURVE('',#90,#90,#78,.T.);
#110=EDGE_CURVE('',#91,#91,#79,.T.);
#111=EDGE_CURVE('',#91,#92,#26,.T.);
#112=EDGE_CURVE('',#93,#93,#80,.T.);
#113=EDGE_CURVE('',#93,#91,#27,.T.);
#114=EDGE_CURVE('',#94,#94,#81,.T.);
#115=EDGE_CURVE('',#94,#95,#28,.T.);
#116=EDGE_CURVE('',#96,#96,#82,.T.);
#117=EDGE_CURVE('',#96,#94,#29,.T.);
#118=ORIENTED_EDGE('',*,*,#97,.T.);
#119=ORIENTED_EDGE('',*,*,#98,.T.);
#120=ORIENTED_EDGE('',*,*,#99,.T.);
#121=ORIENTED_EDGE('',*,*,#98,.F.);
#122=ORIENTED_EDGE('',*,*,#99,.F.);
#123=ORIENTED_EDGE('',*,*,#100,.T.);
#124=ORIENTED_EDGE('',*,*,#101,.T.);
#125=ORIENTED_EDGE('',*,*,#102,.T.);
#126=ORIENTED_EDGE('',*,*,#100,.F.);
#127=ORIENTED_EDGE('',*,*,#97,.F.);
#128=ORIENTED_EDGE('',*,*,#103,.F.);
#129=ORIENTED_EDGE('',*,*,#104,.T.);
#130=ORIENTED_EDGE('',*,*,#105,.T.);
#131=ORIENTED_EDGE('',*,*,#101,.F.);
#132=ORIENTED_EDGE('',*,*,#102,.F.);
#133=ORIENTED_EDGE('',*,*,#105,.F.);
#134=ORIENTED_EDGE('',*,*,#106,.F.);
#135=ORIENTED_EDGE('',*,*,#107,.T.);
#136=ORIENTED_EDGE('',*,*,#104,.F.);
#137=ORIENTED_EDGE('',*,*,#107,.F.);
#138=ORIENTED_EDGE('',*,*,#103,.T.);
#139=ORIENTED_EDGE('',*,*,#108,.T.);
#140=ORIENTED_EDGE('',*,*,#109,.T.);
#141=ORIENTED_EDGE('',*,*,#108,.F.);
#142=ORIENTED_EDGE('',*,*,#110,.F.);
#143=ORIENTED_EDGE('',*,*,#111,.T.);
#144=ORIENTED_EDGE('',*,*,#111,.F.);
#145=ORIENTED_EDGE('',*,*,#112,.F.);
#146=ORIENTED_EDGE('',*,*,#113,.T.);
#147=ORIENTED_EDGE('',*,*,#110,.T.);
#148=ORIENTED_EDGE('',*,*,#113,.F.);
#149=ORIENTED_EDGE('',*,*,#114,.F.);
#150=ORIENTED_EDGE('',*,*,#115,.T.);
#151=ORIENTED_EDGE('',*,*,#115,.F.);
#152=ORIENTED_EDGE('',*,*,#116,.F.);
#153=ORIENTED_EDGE('',*,*,#117,.T.);
#154=ORIENTED_EDGE('',*,*,#114,.T.);
#155=ORIENTED_EDGE('',*,*,#117,.F.);
#156=ORIENTED_EDGE('',*,*,#109,.F.);
#157=ORIENTED_EDGE('',*,*,#116,.T.);
#158=ORIENTED_EDGE('',*,*,#106,.T.);
#159=ORIENTED_EDGE('',*,*,#112,.T.);
#160=TOROIDAL_SURFACE('',#188,4.1,1.);
#161=TOROIDAL_SURFACE('',#197,6.1,3.);
#162=ADVANCED_FACE('',(#42),#160,.T.);
#163=ADVANCED_FACE('',(#43),#37,.T.);
#164=ADVANCED_FACE('',(#44,#17),#20,.T.);
#165=ADVANCED_FACE('',(#45),#161,.F.);
#166=ADVANCED_FACE('',(#46),#38,.T.);
#167=ADVANCED_FACE('',(#47),#39,.T.);
#168=ADVANCED_FACE('',(#48),#15,.F.);
#169=ADVANCED_FACE('',(#49),#40,.F.);
#170=ADVANCED_FACE('',(#50),#16,.F.);
#171=ADVANCED_FACE('',(#51),#41,.F.);
#172=ADVANCED_FACE('',(#52,#18),#21,.F.);
#173=ADVANCED_FACE('',(#53,#19),#22,.T.);
#174=CLOSED_SHELL('',(#162,#163,#164,#165,#166,#167,#168,#169,#170,#171,
#172,#173));
#175=DERIVED_UNIT_ELEMENT(#177,1.);
#176=DERIVED_UNIT_ELEMENT(#328,-3.);
#177=(
MASS_UNIT()
NAMED_UNIT(*)
SI_UNIT(.KILO.,.GRAM.)
);
#178=DERIVED_UNIT((#175,#176));
#179=MEASURE_REPRESENTATION_ITEM('density measure',
POSITIVE_RATIO_MEASURE(7850.),#178);
#180=PROPERTY_DEFINITION_REPRESENTATION(#185,#182);
#181=PROPERTY_DEFINITION_REPRESENTATION(#186,#183);
#182=REPRESENTATION('material name',(#184),#325);
#183=REPRESENTATION('density',(#179),#325);
#184=DESCRIPTIVE_REPRESENTATION_ITEM('Steel','Steel');
#185=PROPERTY_DEFINITION('material property','material name',#335);
#186=PROPERTY_DEFINITION('material property','density of part',#335);
#187=AXIS2_PLACEMENT_3D('',#275,#214,#215);
#188=AXIS2_PLACEMENT_3D('',#276,#216,#217);
#189=AXIS2_PLACEMENT_3D('',#278,#218,#219);
#190=AXIS2_PLACEMENT_3D('',#280,#220,#221);
#191=AXIS2_PLACEMENT_3D('',#281,#222,#223);
#192=AXIS2_PLACEMENT_3D('',#282,#224,#225);
#193=AXIS2_PLACEMENT_3D('',#286,#227,#228);
#194=AXIS2_PLACEMENT_3D('',#287,#229,#230);
#195=AXIS2_PLACEMENT_3D('',#288,#231,#232);
#196=AXIS2_PLACEMENT_3D('',#290,#233,#234);
#197=AXIS2_PLACEMENT_3D('',#291,#235,#236);
#198=AXIS2_PLACEMENT_3D('',#293,#237,#238);
#199=AXIS2_PLACEMENT_3D('',#294,#239,#240);
#200=AXIS2_PLACEMENT_3D('',#295,#241,#242);
#201=AXIS2_PLACEMENT_3D('',#297,#243,#244);
#202=AXIS2_PLACEMENT_3D('',#299,#246,#247);
#203=AXIS2_PLACEMENT_3D('',#302,#249,#250);
#204=AXIS2_PLACEMENT_3D('',#303,#251,#252);
#205=AXIS2_PLACEMENT_3D('',#305,#253,#254);
#206=AXIS2_PLACEMENT_3D('',#308,#256,#257);
#207=AXIS2_PLACEMENT_3D('',#310,#258,#259);
#208=AXIS2_PLACEMENT_3D('',#312,#261,#262);
#209=AXIS2_PLACEMENT_3D('',#314,#263,#264);
#210=AXIS2_PLACEMENT_3D('',#317,#266,#267);
#211=AXIS2_PLACEMENT_3D('',#319,#268,#269);
#212=AXIS2_PLACEMENT_3D('',#321,#271,#272);
#213=AXIS2_PLACEMENT_3D('',#322,#273,#274);
#214=DIRECTION('axis',(0.,0.,1.));
#215=DIRECTION('refdir',(1.,0.,0.));
#216=DIRECTION('center_axis',(-1.,-1.3477180064162E-20,-2.46519032881566E-31));
#217=DIRECTION('ref_axis',(0.,0.,1.));
#218=DIRECTION('center_axis',(1.,1.3477180064162E-20,2.46519032881566E-31));
#219=DIRECTION('ref_axis',(-4.34785331049982E-27,3.22590242971372E-7,0.999999999999948));
#220=DIRECTION('center_axis',(1.3477180064162E-20,-1.,0.));
#221=DIRECTION('ref_axis',(0.,0.,-1.));
#222=DIRECTION('center_axis',(-1.,-1.3477180064162E-20,-2.46519032881566E-31));
#223=DIRECTION('ref_axis',(0.,3.22590242971372E-7,0.999999999999948));
#224=DIRECTION('center_axis',(-1.,0.,0.));
#225=DIRECTION('ref_axis',(0.,3.22590243028343E-7,0.999999999999948));
#226=DIRECTION('',(1.,0.,0.));
#227=DIRECTION('center_axis',(-1.,-1.3477180064162E-20,-2.46519032881566E-31));
#228=DIRECTION('ref_axis',(0.,3.22590243028343E-7,0.999999999999948));
#229=DIRECTION('center_axis',(-1.,-1.3477180064162E-20,-2.46519032881566E-31));
#230=DIRECTION('ref_axis',(0.,3.22590243028343E-7,0.999999999999948));
#231=DIRECTION('center_axis',(-1.,-1.3477180064162E-20,-2.46519032881566E-31));
#232=DIRECTION('ref_axis',(-4.34795479054533E-27,3.22590243028581E-7,0.999999999999948));
#233=DIRECTION('center_axis',(-1.,-1.3477180064162E-20,-2.46519032881566E-31));
#234=DIRECTION('ref_axis',(0.,0.,-1.));
#235=DIRECTION('center_axis',(-1.,-1.34771800641606E-20,4.34760699847201E-27));
#236=DIRECTION('ref_axis',(0.,-3.22590260047896E-7,-0.999999999999948));
#237=DIRECTION('center_axis',(-1.,-1.34771800641606E-20,4.34760699847201E-27));
#238=DIRECTION('ref_axis',(2.08891957695099E-35,-3.22590259881028E-7,-0.999999999999948));
#239=DIRECTION('center_axis',(-1.34771800641613E-20,0.999999999999948,-3.2259025975509E-7));
#240=DIRECTION('ref_axis',(0.,3.2259025975509E-7,0.999999999999948));
#241=DIRECTION('center_axis',(1.,0.,0.));
#242=DIRECTION('ref_axis',(0.,0.,-1.));
#243=DIRECTION('center_axis',(1.,0.,0.));
#244=DIRECTION('ref_axis',(0.,0.,-1.));
#245=DIRECTION('',(-1.,0.,0.));
#246=DIRECTION('center_axis',(1.,0.,0.));
#247=DIRECTION('ref_axis',(0.,0.,-1.));
#248=DIRECTION('',(-1.,0.,0.));
#249=DIRECTION('center_axis',(1.,0.,0.));
#250=DIRECTION('ref_axis',(0.,0.,-1.));
#251=DIRECTION('center_axis',(1.,0.,0.));
#252=DIRECTION('ref_axis',(0.,1.,0.));
#253=DIRECTION('center_axis',(-1.,0.,0.));
#254=DIRECTION('ref_axis',(0.,1.,0.));
#255=DIRECTION('',(-0.515038074910054,0.857167300702112,-1.04972719113862E-16));
#256=DIRECTION('center_axis',(-1.,0.,0.));
#257=DIRECTION('ref_axis',(0.,1.,0.));
#258=DIRECTION('center_axis',(-1.,0.,0.));
#259=DIRECTION('ref_axis',(0.,1.,0.));
#260=DIRECTION('',(-1.,0.,0.));
#261=DIRECTION('center_axis',(-1.,0.,0.));
#262=DIRECTION('ref_axis',(0.,-1.,0.));
#263=DIRECTION('center_axis',(1.,0.,0.));
#264=DIRECTION('ref_axis',(0.,-1.,0.));
#265=DIRECTION('',(0.515038074910054,-0.857167300702112,-1.04972719113862E-16));
#266=DIRECTION('center_axis',(1.,0.,0.));
#267=DIRECTION('ref_axis',(0.,-1.,0.));
#268=DIRECTION('center_axis',(1.,0.,0.));
#269=DIRECTION('ref_axis',(0.,-1.,0.));
#270=DIRECTION('',(1.,0.,0.));
#271=DIRECTION('center_axis',(1.,0.,0.));
#272=DIRECTION('ref_axis',(0.,0.,-1.));
#273=DIRECTION('center_axis',(1.,0.,0.));
#274=DIRECTION('ref_axis',(0.,0.,-1.));
#275=CARTESIAN_POINT('',(0.,0.,0.));
#276=CARTESIAN_POINT('Origin',(20.200000000001,27.,-4.7499999999693));
#277=CARTESIAN_POINT('',(19.200000000001,26.99999867738,-8.84999999996909));
#278=CARTESIAN_POINT('Origin',(19.200000000001,27.,-4.7499999999693));
#279=CARTESIAN_POINT('',(20.200000000001,26.9999983547897,-9.84999999996904));
#280=CARTESIAN_POINT('Origin',(20.200000000001,27.,-8.8499999999693));
#281=CARTESIAN_POINT('Origin',(20.200000000001,27.,-4.7499999999693));
#282=CARTESIAN_POINT('Origin',(31.000000000001,27.,-4.7499999999693));
#283=CARTESIAN_POINT('',(25.0000000000011,26.9999983547897,-9.84999999996904));
#284=CARTESIAN_POINT('',(31.000000000001,26.9999983547897,-9.84999999996904));
#285=CARTESIAN_POINT('',(25.000000000001,27.0000016452103,0.35000000003043));
#286=CARTESIAN_POINT('Origin',(25.000000000001,27.,-4.7499999999693));
#287=CARTESIAN_POINT('Origin',(25.000000000001,27.,-4.7499999999693));
#288=CARTESIAN_POINT('Origin',(19.200000000001,27.,-4.7499999999693));
#289=CARTESIAN_POINT('',(19.200000000001,27.,-1.64999999996931));
#290=CARTESIAN_POINT('Origin',(19.200000000001,27.,-4.74999999996931));
#291=CARTESIAN_POINT('Origin',(27.8284271247472,27.,-4.7499999999693));
#292=CARTESIAN_POINT('',(27.8284271247472,27.0000010000298,-1.64999999996947));
#293=CARTESIAN_POINT('Origin',(27.8284271247472,27.,-4.7499999999693));
#294=CARTESIAN_POINT('Origin',(27.8284271247472,27.0000019678006,1.35000000003038));
#295=CARTESIAN_POINT('Origin',(-34.999999999999,27.,-4.74999999996931));
#296=CARTESIAN_POINT('',(31.000000000001,27.,-1.64999999996931));
#297=CARTESIAN_POINT('Origin',(31.000000000001,27.,-4.74999999996931));
#298=CARTESIAN_POINT('',(-34.999999999999,27.,-1.64999999996931));
#299=CARTESIAN_POINT('Origin',(-34.999999999999,27.,-4.74999999996931));
#300=CARTESIAN_POINT('',(-30.999999999999,27.,-1.64999999996931));
#301=CARTESIAN_POINT('',(-34.999999999999,27.,-1.64999999996931));
#302=CARTESIAN_POINT('Origin',(-30.999999999999,27.,-4.74999999996931));
#303=CARTESIAN_POINT('Origin',(4.32918241192486,27.,-4.74999999996658));
#304=CARTESIAN_POINT('',(4.90000000000105,25.1,-4.74999999996658));
#305=CARTESIAN_POINT('Origin',(4.90000000000105,27.,-4.74999999996658));
#306=CARTESIAN_POINT('',(3.75836482384868,27.,-4.74999999996658));
#307=CARTESIAN_POINT('',(4.32918241192486,26.05,-4.74999999996658));
#308=CARTESIAN_POINT('Origin',(19.900000000001,27.,-4.74999999996658));
#309=CARTESIAN_POINT('',(31.000000000001,25.1,-4.74999999996658));
#310=CARTESIAN_POINT('Origin',(31.000000000001,27.,-4.74999999996658));
#311=CARTESIAN_POINT('',(19.900000000001,25.1,-4.74999999996658));
#312=CARTESIAN_POINT('Origin',(-4.42918241192278,27.,-4.74999999996931));
#313=CARTESIAN_POINT('',(-4.99999999999896,28.9,-4.74999999996931));
#314=CARTESIAN_POINT('Origin',(-4.99999999999896,27.,-4.74999999996931));
#315=CARTESIAN_POINT('',(-3.8583648238466,27.,-4.74999999996931));
#316=CARTESIAN_POINT('',(-4.42918241192278,27.95,-4.74999999996931));
#317=CARTESIAN_POINT('Origin',(-19.999999999999,27.,-4.74999999996931));
#318=CARTESIAN_POINT('',(-30.999999999999,28.9,-4.74999999996931));
#319=CARTESIAN_POINT('Origin',(-30.999999999999,27.,-4.74999999996931));
#320=CARTESIAN_POINT('',(-19.999999999999,28.9,-4.74999999996931));
#321=CARTESIAN_POINT('Origin',(-30.999999999999,27.,-4.74999999996931));
#322=CARTESIAN_POINT('Origin',(31.000000000001,27.,-4.74999999996931));
#323=UNCERTAINTY_MEASURE_WITH_UNIT(LENGTH_MEASURE(0.01),#327,
'DISTANCE_ACCURACY_VALUE',
'Maximum model space distance between geometric entities at asserted c
onnectivities');
#324=UNCERTAINTY_MEASURE_WITH_UNIT(LENGTH_MEASURE(0.01),#327,
'DISTANCE_ACCURACY_VALUE',
'Maximum model space distance between geometric entities at asserted c
onnectivities');
#325=(
GEOMETRIC_REPRESENTATION_CONTEXT(3)
GLOBAL_UNCERTAINTY_ASSIGNED_CONTEXT((#323))
GLOBAL_UNIT_ASSIGNED_CONTEXT((#327,#329,#330))
REPRESENTATION_CONTEXT('','3D')
);
#326=(
GEOMETRIC_REPRESENTATION_CONTEXT(3)
GLOBAL_UNCERTAINTY_ASSIGNED_CONTEXT((#324))
GLOBAL_UNIT_ASSIGNED_CONTEXT((#327,#329,#330))
REPRESENTATION_CONTEXT('','3D')
);
#327=(
LENGTH_UNIT()
NAMED_UNIT(*)
SI_UNIT(.MILLI.,.METRE.)
);
#328=(
LENGTH_UNIT()
NAMED_UNIT(*)
SI_UNIT($,.METRE.)
);
#329=(
NAMED_UNIT(*)
PLANE_ANGLE_UNIT()
SI_UNIT($,.RADIAN.)
);
#330=(
NAMED_UNIT(*)
SI_UNIT($,.STERADIAN.)
SOLID_ANGLE_UNIT()
);
#331=SHAPE_DEFINITION_REPRESENTATION(#332,#333);
#332=PRODUCT_DEFINITION_SHAPE('',$,#335);
#333=SHAPE_REPRESENTATION('',(#187),#325);
#334=PRODUCT_DEFINITION_CONTEXT('part definition',#339,'design');
#335=PRODUCT_DEFINITION('FusionComponent','FusionComponent',#336,#334);
#336=PRODUCT_DEFINITION_FORMATION('',$,#341);
#337=PRODUCT_RELATED_PRODUCT_CATEGORY('FusionComponent',
'FusionComponent',(#341));
#338=APPLICATION_PROTOCOL_DEFINITION('international standard',
'automotive_design',2009,#339);
#339=APPLICATION_CONTEXT(
'Core Data for Automotive Mechanical Design Process');
#340=PRODUCT_CONTEXT('part definition',#339,'mechanical');
#341=PRODUCT('FusionComponent','FusionComponent',$,(#340));
#342=PRESENTATION_STYLE_ASSIGNMENT((#344));
#343=PRESENTATION_STYLE_ASSIGNMENT((#345));
#344=SURFACE_STYLE_USAGE(.BOTH.,#346);
#345=SURFACE_STYLE_USAGE(.BOTH.,#347);
#346=SURFACE_SIDE_STYLE('',(#348));
#347=SURFACE_SIDE_STYLE('',(#349));
#348=SURFACE_STYLE_FILL_AREA(#350);
#349=SURFACE_STYLE_FILL_AREA(#351);
#350=FILL_AREA_STYLE('Steel - Satin',(#352));
#351=FILL_AREA_STYLE('ABS (White)',(#353));
#352=FILL_AREA_STYLE_COLOUR('Steel - Satin',#354);
#353=FILL_AREA_STYLE_COLOUR('ABS (White)',#355);
#354=COLOUR_RGB('Steel - Satin',0.627450980392157,0.627450980392157,0.627450980392157);
#355=COLOUR_RGB('ABS (White)',0.964705882352941,0.964705882352941,0.952941176470588);
ENDSEC;
END-ISO-10303-21;
