0
SECTION
2
HEADER
9
$INSUNITS
70
4
9
$ACADVER
1
AC1014
9
$HANDSEED
5
FFFF
0
ENDSEC
0
SECTION
2
TABLES
0
TABLE
2
VPORT
5
8
100
AcDbSymbolTable
0
ENDTAB
0
TABLE
2
LTYPE
5
5
100
AcDbSymbolTable
0
LTYPE
5
14
100
AcDbSymbolTableRecord
100
AcDbLinetypeTableRecord
2
BYBLOCK
70
0
0
LTYPE
5
15
100
AcDbSymbolTableRecord
100
AcDbLinetypeTableRecord
2
BYLAYER
70
0
0
ENDTAB
0
TABLE
2
LAYER
5
2
100
AcDbSymbolTable
70
2
0
LAYER
5
50
100
AcDbSymbolTableRecord
100
AcDbLayerTableRecord
2
0
70
0
6
CONTINUOUS
0
ENDTAB
0
TABLE
2
STYLE
5
3
100
AcDbSymbolTable
70
1
0
STYLE
5
11
100
AcDbSymbolTableRecord
100
AcDbTextStyleTableRecord
2
STANDARD
70
0
0
ENDTAB
0
TABLE
2
VIEW
5
6
100
AcDbSymbolTable
70
0
0
ENDTAB
0
TABLE
2
UCS
5
7
100
AcDbSymbolTable
70
0
0
ENDTAB
0
TABLE
2
APPID
5
9
100
AcDbSymbolTable
70
2
0
APPID
5
12
100
AcDbSymbolTableRecord
100
AcDbRegAppTableRecord
2
ACAD
70
0
0
ENDTAB
0
TABLE
2
DIMSTYLE
5
A
100
AcDbSymbolTable
70
1
0
ENDTAB
0
TABLE
2
BLOCK_RECORD
5
1
100
AcDbSymbolTable
70
1
0
BLOCK_RECORD
5
1F
100
AcDbSymbolTableRecord
100
AcDbBlockTableRecord
2
*MODEL_SPACE
0
BLOCK_RECORD
5
1B
100
AcDbSymbolTableRecord
100
AcDbBlockTableRecord
2
*PAPER_SPACE
0
ENDTAB
0
ENDSEC
0
SECTION
2
BLOCKS
0
BLOCK
5
20
100
AcDbEntity
100
AcDbBlockBegin
2
*MODEL_SPACE
0
ENDBLK
5
21
100
AcDbEntity
100
AcDbBlockEnd
0
BLOCK
5
1C
100
AcDbEntity
100
AcDbBlockBegin
2
*PAPER_SPACE
0
ENDBLK
5
1D
100
AcDbEntity
100
AcDbBlockEnd
0
ENDSEC
0
SECTION
2
ENTITIES
0
LWPOLYLINE
5
100
100
AcDbEntity
8
0
100
AcDbPolyline
90
3
70
1
43
0.0
10
3.9941141067875363
20
0.0099991260388687664
10
7.9758997178707194
20
16.351945604435123
10
0.010000117878626313
20
16.351945604435116
0
LWPOLYLINE
5
101
100
AcDbEntity
8
0
100
AcDbPolyline
90
4
70
1
43
0.0
10
5.4439480576159127
20
13.890832691969962
10
5.4439832777582193
20
10.990832692183856
10
2.5439832780055385
20
10.990797472041542
10
2.5439480578632319
20
13.890797471827652
0
LWPOLYLINE
5
102
100
AcDbEntity
8
0
100
AcDbPolyline
90
3
70
1
43
0.0
10
20.960524017906458
20
17.073967942817234
10
12.995899584323645
20
17.073967942817205
10
16.978211801115066
20
0.0099977336158918462
0
LWPOLYLINE
5
103
100
AcDbEntity
8
0
100
AcDbPolyline
90
4
70
1
43
0.0
10
15.529089358257082
20
11.47725126476991
10
15.529127144404963
20
14.377251264523778
10
18.429127144158759
20
14.377213478375896
10
18.429089358010877
20
11.477213478622037
0
LWPOLYLINE
5
104
100
AcDbEntity
8
0
100
AcDbPolyline
90
3
70
1
43
0.0
10
25.980524311973817
20
0.0099977211182977754
10
39.691349434201044
20
0.0099977211182977754
10
32.835936873087434
20
16.04386685831015
0
LWPOLYLINE
5
105
100
AcDbEntity
8
0
100
AcDbPolyline
90
4
70
1
43
0.0
10
34.286765868087677
20
3.8961996704554736
10
31.386765868258305
20
3.8962309422038999
10
31.386797140006735
20
6.7962309420352796
10
34.286797139836111
20
6.7961996702868444
0
LWPOLYLINE
5
106
100
AcDbEntity
8
0
100
AcDbPolyline
90
3
70
1
43
0.0
10
44.711349548139793
20
17.046155827146407
10
51.565015304216899
20
0.010002289612609516
10
58.418681060294006
20
17.046155827146407
0
LWPOLYLINE
5
107
100
AcDbEntity
8
0
100
AcDbPolyline
90
4
70
1
43
0.0
10
50.114308336407561
20
9.9293433409506715
10
50.114276888544005
20
12.82934334078015
10
53.014276888373445
20
12.829374788643699
10
53.014308336236994
20
9.9293747888142025
0
LWPOLYLINE
5
108
100
AcDbEntity
8
0
100
AcDbPolyline
90
3
70
1
43
0.0
10
72.431699972460905
20
15.992822449507633
10
63.438680918531745
20
0.0099977467573708623
10
81.424719026390022
20
0.0099977467573708623
0
LWPOLYLINE
5
109
100
AcDbEntity
8
0
100
AcDbPolyline
90
4
70
1
43
0.0
10
73.882270554429724
20
3.8872892831070693
10
70.982270554676717
20
3.8873252702390193
10
70.982306541808668
20
6.7873252700157316
10
73.882306541561675
20
6.7872892828837728
0
LWPOLYLINE
5
110
100
AcDbEntity
8
0
100
AcDbPolyline
90
3
70
1
43
0.0
10
95.435362835224879
20
0.010002061854637034
10
104.42600644499203
20
16.955627307286107
10
86.444719225457732
20
16.9556273072861
0
LWPOLYLINE
5
111
100
AcDbEntity
8
0
100
AcDbPolyline
90
4
70
1
43
0.0
10
93.984883661267929
20
13.447153293905068
10
96.884883661020709
20
13.447188728695725
10
96.884919095811341
20
10.5471887289122
10
93.98491909605859
20
10.547153294121561
0
LWPOLYLINE
5
112
100
AcDbEntity
8
0
100
AcDbPolyline
90
3
70
1
43
0.0
10
109.44600611828494
20
0.0099993131206499442
10
130.35550691521709
20
0.0099993131206588259
10
119.90075651675102
20
16.083722286994906
0
LWPOLYLINE
5
113
100
AcDbEntity
8
0
100
AcDbPolyline
90
4
70
1
43
0.0
10
121.35028248483765
20
4.6161861624252243
10
118.4502824850088
20
4.6161562836629866
10
118.45025260624654
20
7.5161562835090745
10
121.3502526060754
20
7.5161861622713211
0
LWPOLYLINE
5
114
100
AcDbEntity
8
0
100
AcDbPolyline
90
3
70
1
43
0.0
10
145.82816519065148
20
0.0099990152151896439
10
156.2808236591726
20
16.782392009374476
10
135.37550672213041
20
16.782392009374476
0
LWPOLYLINE
5
115
100
AcDbEntity
8
0
100
AcDbPolyline
90
4
70
1
43
0.0
10
147.27781019385796
20
9.7399910381278243
10
144.37781019402911
20
9.7399612307233507
10
144.37778038662464
20
12.639961230570167
10
147.27778038645349
20
12.639991037974649
0
LWPOLYLINE
5
116
100
AcDbEntity
8
0
100
AcDbPolyline
90
3
70
1
43
0.0
10
172.52585103562217
20
16.272447663606215
10
161.30082375455879
20
0.0099998214830332444
10
183.7508783166856
20
0.0099998214830421261
0
LWPOLYLINE
5
117
100
AcDbEntity
8
0
100
AcDbPolyline
90
4
70
1
43
0.0
10
171.07566946453238
20
3.9849014188518339
10
171.07564004288989
20
6.8849014187026025
10
173.97564004274068
20
6.884930840345076
10
173.97566946438315
20
3.9849308404943251
0
LWPOLYLINE
5
118
100
AcDbEntity
8
0
100
AcDbPolyline
90
3
70
1
43
0.0
10
211.21919656292783
20
16.53694091226583
10
188.77087894531425
20
16.53694091226583
10
199.99503775412106
20
0.0099994609411480084
0
LWPOLYLINE
5
119
100
AcDbEntity
8
0
100
AcDbPolyline
90
4
70
1
43
0.0
10
198.54493671257143
20
12.474332009197347
10
201.44493671242213
20
12.474361434530717
10
201.4449661377555
20
9.574361434679993
10
198.54496613790477
20
9.5743320093466231
0
LWPOLYLINE
5
120
100
AcDbEntity
8
0
100
AcDbPolyline
90
3
70
1
43
0.0
10
238.71913369214238
20
0.010000045969569271
10
227.47916529470945
20
16.526142498525253
10
216.23919689727646
20
0.010000045969569271
0
LWPOLYLINE
5
121
100
AcDbEntity
8
0
100
AcDbPolyline
90
4
70
1
43
0.0
10
226.02930653494224
20
4.0691881999667778
10
226.02933110607569
20
6.9691881998626926
10
228.92933110597158
20
6.9691636287292358
10
228.92930653483813
20
4.0691636288333122
0
LWPOLYLINE
5
122
100
AcDbEntity
8
0
100
AcDbPolyline
90
3
70
1
43
0.0
10
254.98023485952868
20
0.0099995215534409709
10
266.22133562097787
20
16.184244081448945
10
243.73913409807955
20
16.184244081448952
0
LWPOLYLINE
5
123
100
AcDbEntity
8
0
100
AcDbPolyline
90
4
70
1
43
0.0
10
253.53018345349537
20
9.3387288721774517
10
253.53016038198626
20
12.238728872085677
10
256.4301603818945
20
12.238751943594806
10
256.43018345340357
20
9.3387519436866064
0
LWPOLYLINE
5
124
100
AcDbEntity
8
0
100
AcDbPolyline
90
3
70
1
43
0.0
10
281.43813850218316
20
16.866503122190849
10
271.24133550382709
20
0.0099994199851582977
10
291.63494150053924
20
0.0099994199851494159
0
LWPOLYLINE
5
125
100
AcDbEntity
8
0
100
AcDbPolyline
90
4
70
1
43
0.0
10
279.9880288229877
20
4.1799386935337912
10
279.98804607549164
20
7.0799386934824993
10
282.88804607544029
20
7.079921440978576
10
282.88802882293635
20
4.1799214410298857
0
LWPOLYLINE
5
126
100
AcDbEntity
8
0
100
AcDbPolyline
90
3
70
1
43
0.0
10
317.05451603727562
20
15.849729144106458
10
296.65494172032703
20
15.849729144106458
10
306.8546114447571
20
0.0099988865725642029
0
LWPOLYLINE
5
127
100
AcDbEntity
8
0
100
AcDbPolyline
90
4
70
1
43
0.0
10
308.30456763199641
20
9.1172240311625821
10
305.40456763201041
20
9.117234291384797
10
305.40457789200474
20
12.017234291366625
10
308.30457789221856
20
12.01722403114443
0
LWPOLYLINE
5
128
100
AcDbEntity
8
0
100
AcDbPolyline
90
3
70
1
43
0.0
10
322.07451615376038
20
0.0099994255800339715
10
337.68921463491029
20
0.0099994255800384124
10
329.88175185163698
20
17.175862826220904
0
LWPOLYLINE
5
129
100
AcDbEntity
8
0
100
AcDbPolyline
90
4
70
1
43
0.0
10
331.33181877524135
20
7.1750606814216678
10
331.33182921574303
20
4.2750606814404524
10
328.43182921576181
20
4.2750502409388069
10
328.43181877526013
20
7.1750502409200134
0
LWPOLYLINE
5
130
100
AcDbEntity
8
0
100
AcDbPolyline
90
3
70
1
43
0.0
10
350.51937158252326
20
0.010000003402759194
10
358.32935686174926
20
15.854009513480772
10
342.70921460743341
20
15.854009513480772
0
LWPOLYLINE
5
131
100
AcDbEntity
8
0
100
AcDbPolyline
90
4
70
1
43
0.0
10
351.96930257727848
20
12.027047846062239
10
351.96930081898392
20
9.1270478460627746
10
349.06930081898452
20
9.1270496043573424
10
349.06930257727902
20
12.027049604356801
0
LWPOLYLINE
5
132
100
AcDbEntity
8
0
100
AcDbPolyline
90
3
70
1
43
0.0
10
371.91924933379056
20
0.0099999148164497953
10
367.63439256389927
20
17.232408783085763
10
363.34935720511118
20
0.0099999148164453544
0
LWPOLYLINE
5
133
100
AcDbEntity
8
0
100
AcDbPolyline
90
4
70
1
43
0.0
10
369.08443472814349
20
2.7650082244366825
10
366.18443472815164
20
2.7650151044145144
10
366.18444160812948
20
5.6650151044063524
10
369.08444160812132
20
5.6650082244285116
0
LWPOLYLINE
5
134
100
AcDbEntity
8
0
100
AcDbPolyline
90
3
70
1
43
0.0
10
376.93924934452332
20
16.300451458437237
10
381.22505810792461
20
0.0099999936940129916
10
385.51092457892105
20
16.300451458437266
0
LWPOLYLINE
5
135
100
AcDbEntity
8
0
100
AcDbPolyline
90
4
70
1
43
0.0
10
379.77518867124735
20
13.852410786286518
10
382.67518867117326
20
13.852390054139683
10
382.67516793902644
20
10.952390054213797
10
379.77516793910047
20
10.95241078636063
0
LWPOLYLINE
5
136
100
AcDbEntity
8
0
100
AcDbPolyline
90
101
70
1
43
0.0
10
423.13238765984528
20
85.602465739140257
42
0.41421356237312867
10
423.4127420113449
20
86.32800101574324
10
422.60332214752049
20
88.156891248656734
42
0.41421356237309886
10
421.87778687091748
20
88.437245600156245
10
419.63739633559845
20
87.445706266971399
10
418.27774243075146
20
90.517854428703259
10
416.61765342516156
20
93.856310876047843
10
418.81139697648536
20
94.947177151548658
42
0.41421356237309082
10
419.05898167105789
20
95.684538541244009
10
418.16847858901639
20
97.475349603549176
42
0.4142135623730866
10
417.43111719932102
20
97.722934298121686
10
415.23737364799723
20
96.632068022620842
10
412.41315134173442
20
102.31160877936884
10
406.79435606221887
20
109.36410341308988
10
403.54187992857123
20
112.78735784702427
10
405.3180289406759
20
114.47489886483669
42
0.414213562373069
10
405.33792053123136
20
115.25246193277727
10
403.96033602689454
20
116.70237949367909
42
0.41421356237310913
10
403.18277295895405
20
116.72227108423449
10
401.40662394684932
20
115.03473006642207
10
399.64578433677508
20
116.88802637205049
10
397.53478361303735
20
117.85230845103064
10
398.55274286557233
20
120.08081893118963
42
0.414213562373066
10
398.28098646753426
20
120.80961825893729
10
396.46179423883297
20
121.6406054038637
42
0.41421356237309581
10
395.73299491108543
20
121.36884900582564
10
394.71503565855045
20
119.14033852566666
10
391.8090297903293
20
120.46777027338072
10
390.53092438561259
20
117.66974934860761
10
399.7138538797679
20
102.14418180916567
42
0.26513071078292555
10
400.44546117874182
20
101.72690661789291
10
403.68917793791172
20
101.72690661789292
10
403.68917793930893
20
98.826906617762063
10
401.30411805436728
20
98.82690661776202
42
0.56213780005092318
10
400.54925625793555
20
97.586159041585532
10
412.22103033590338
20
75.038159040531895
42
0.28029678299494193
10
412.97589213233516
20
74.578906616708423
10
416.18917795486567
20
74.578906616708437
10
416.18917795545917
20
71.678906616577549
10
413.40159396909456
20
71.678906616577549
42
0.45315660039816463
10
412.5588888651896
20
70.71778457622338
10
414.84790727704137
20
53.358784575396221
42
0.37631415599117163
10
415.69061238094639
20
52.619906615750395
10
418.68917795905497
20
52.619906615750374
10
418.68917795943668
20
49.719906615619507
10
415.47569877445665
20
49.719906615619493
42
0.28020164133603664
10
414.72097490172047
20
49.260920523200973
10
398.04991681908837
20
17.082920521727274
42
0.56225389456054486
10
398.80464069182449
20
15.841906614145785
10
401.18917796192329
20
15.841906614145758
10
401.18917796214532
20
12.941906614014858
10
397.85145383883105
20
12.941906614014901
42
0.21587106624348915
10
397.21262188263745
20
12.652614855211613
10
390.53351656358979
20
5.0429069838177636
10
391.11644304865854
20
2.0241779068964911
10
395.45143887623198
20
2.8612798183845434
10
395.91596043403939
20
0.4557196502881497
42
0.41421356237308338
10
396.56026449495664
20
0.019976288794677638
10
398.52398708115777
20
0.39917756047417474
42
0.41421356237311713
10
398.95973044265128
20
1.0434816213914164
10
398.49520888484386
20
3.4490417894877998
10
400.76146768991828
20
3.8866637972387097
10
402.93677620764402
20
5.3381138444856857
10
404.29659868379622
20
3.3001288510789428
42
0.41421356237308243
10
405.05937178920749
20
3.1478882859809771
10
406.72303300831504
20
4.2579474501868866
42
0.41421356237310941
10
406.87527357341304
20
5.0207205555981442
10
405.51545109726078
20
7.0587055490048733
10
409.86970336997047
20
9.9640312145142715
10
416.05967321299465
20
15.334287572160129
10
419.36084827570136
20
21.042249528249318
10
421.48169579706246
20
19.81566655464491
42
0.41421356237308782
10
422.23315978572828
20
20.016419820467863
10
423.23445200907878
20
21.747723919538217
42
0.4142135623731103
10
423.03369874325585
20
22.499187908203982
10
420.9128512218947
20
23.725770881808344
10
422.75898135975268
20
26.917858666526861
10
424.04492615215213
20
30.731829598466625
10
426.36651643216049
20
29.949066178415173
42
0.41421356237308449
10
427.06341216074532
20
30.294517106160633
10
427.70240270772609
20
32.189692844943004
42
0.41421356237309653
10
427.3569517799807
20
32.886588573527867
10
425.03536149997228
20
33.669351993579269
10
427.30864569010362
20
40.411663072907551
10
427.89657875084094
20
44.970856612001924
10
427.22875346529128
20
52.111943765335781
10
429.66810968695916
20
52.340069221630294
42
0.4142135623730715
10
430.1645084302063
20
52.93889163913213
10
429.97828356792502
20
54.930202840493784
42
0.41421356237307416
10
429.37946115042325
20
55.426601583740869
10
426.9401049287552
20
55.198476127446369
10
426.57579377157788
20
59.094072446764557
10
426.22024002638477
20
62.902419432230673
10
428.65963172748621
20
63.130165186520841
42
0.41421356237310536
10
429.1561236747296
20
63.728910329567974
10
428.97020877326827
20
65.720250493732436
42
0.41421356237312379
10
428.37146363022106
20
66.216742440975793
10
425.93207192911962
20
65.988996686685653
10
425.27849241864078
20
72.989506702081627
10
423.93007072234718
20
77.746376401370185
10
420.89199712452626
20
84.610926405955453
0
LWPOLYLINE
5
137
100
AcDbEntity
8
0
100
AcDbPolyline
90
86
70
1
43
0.0
10
465.19284948107304
20
29.887047503764855
42
0.4142135623730776
10
465.8230385497086
20
30.342966068611965
10
466.13989401114225
20
32.31770722039861
42
0.41421356237307694
10
465.68397544629511
20
32.947896289034226
10
463.26491753535652
20
33.33604422929038
10
463.86652022775428
20
37.085418118345025
10
464.2024419217604
20
40.981969217366384
10
466.64338795623382
20
40.771535244850561
42
0.41421356237310097
10
467.2385957129049
20
41.272262442432883
10
467.41037854761169
20
43.264871450166225
42
0.41421356237308005
10
466.90965135002932
20
43.860079206837284
10
464.46870531555595
20
44.070513179353092
10
465.08442241078444
20
51.212573864646494
10
464.64635057603391
20
55.741191468574421
10
462.78962939134601
20
62.628006908423316
10
465.15516551290716
20
63.265767723768093
42
0.41421356237310791
10
465.54303343879246
20
63.939977240216407
10
465.02241236504165
20
65.871027135368379
42
0.41421356237309048
10
464.34820284859336
20
66.258895061253696
10
461.98266672703221
20
65.62113424590892
10
460.94335204629203
20
69.476084816414954
10
459.75243044324418
20
73.770357144174724
10
462.1133230024555
20
74.425098561728589
42
0.41421356237306972
10
462.49633652405208
20
75.102077617737123
10
461.96185373421213
20
77.029336849746414
42
0.41421356237311735
10
461.28487467820366
20
77.412350371342995
10
458.92398211899234
20
76.757608953789131
10
457.30066947658736
20
82.611014032462521
10
454.66456972641777
20
87.976317916265259
10
451.44144807307248
20
92.989268158111031
10
453.50223981808375
20
94.3142728311946
42
0.41421356237310303
10
453.66741650770024
20
95.07434957811391
10
452.58578003987685
20
96.756628553633348
42
0.41421356237308421
10
451.82570329295754
20
96.921805243249764
10
449.76491154794633
20
95.596800570166153
10
447.56383542756174
20
99.020154156137835
10
445.16813957518417
20
101.89124479610989
10
447.04927586581687
20
103.4609028021942
42
0.41421356237311324
10
447.11919956234817
20
104.23557090962052
10
445.83784608799357
20
105.77119237136142
42
0.41421356237310469
10
445.06317798056733
20
105.8411160678927
10
443.18204168993464
20
104.27145806180839
10
439.61848639332982
20
108.54215471428634
10
437.25889243745115
20
106.57326199641344
10
437.17817062032077
20
96.902869048370945
42
0.41666049619549705
10
438.02814100885871
20
96.045774077707563
10
440.92143529081795
20
96.045774077707549
10
440.9214352921216
20
93.145774077585429
10
438.53637540742898
20
93.145774077585457
42
0.56213780003746583
10
437.78151361098116
20
91.905026501439707
10
449.45328768774289
20
69.357026500456726
42
0.28029678300597588
10
450.20814948419064
20
68.897774076602389
10
453.42143530774104
20
68.897774076602417
10
453.42143530774104
20
65.997774076480297
10
450.6338513208691
20
65.997774076480283
42
0.45315660039404337
10
449.79114621696255
20
65.036652036137639
10
452.08016462856597
20
47.677652035365867
42
0.37631415599507478
10
452.92286973247252
20
46.938774075708515
10
455.92143531054489
20
46.938774075708523
10
455.92143531090102
20
44.038774075586417
10
452.70795612594077
20
44.038774075586403
42
0.28020164133456738
10
451.95323225320669
20
43.579787983171975
10
435.28217417040628
20
11.401787981796954
42
0.56225389456231067
10
436.03689804314035
20
10.160774074211382
10
438.42143531322102
20
10.160774074211382
10
438.42143531342811
20
7.2607740740892721
10
436.56924498778261
20
7.2607740740892632
42
0.65675282244240918
10
435.94941941810242
20
5.8291244689397468
10
439.12353010408799
20
2.4466843421844664
10
440.95338199685011
20
0.009999890752885876
10
445.67997629767558
20
3.5594818610599366
10
447.15117934881982
20
1.6003847265860172
42
0.41421356237308454
10
447.92124673742796
20
1.4908574833895494
10
449.5205097043455
20
2.6918395659562613
42
0.41421356237307
10
449.63003694754195
20
3.4619069545644376
10
448.15883389639771
20
5.4210040890383269
10
451.10473142714574
20
7.6332544973156322
10
453.58048840380479
20
10.929140596057913
10
455.53939167120848
20
9.4576794212541273
42
0.41421356237308937
10
456.30947348476525
20
9.5671051971439205
10
457.51066628052348
20
11.166209905228598
42
0.41421356237310164
10
457.40124050463373
20
11.936291718785416
10
455.44233723722994
20
13.407752893589201
10
459.33828876567594
20
18.594292850878219
10
461.66633967894745
20
23.373213028266377
10
462.77379157013445
20
30.275195444021055
0
CIRCLE
5
138
100
AcDbEntity
8
0
100
AcDbCircle
10
494.89137993837244
20
22.468968867887455
30
0
40
14.949999999999999
210
0
220
-0
230
1
0
LWPOLYLINE
5
139
100
AcDbEntity
8
0
100
AcDbPolyline
90
144
70
1
43
0.0
10
517.11352667851872
20
26.300247278471293
42
0.44114769571433354
10
516.42916942773513
20
26.738059811407737
10
513.4262843154263
20
25.933419802747832
10
512.67569222795589
20
28.73460018232624
10
515.67873548511773
20
29.539282566791822
42
0.44112324763811217
10
516.05250686023692
20
30.260580215788853
42
0.019935504032619213
10
515.3647022268724
20
31.921247665680728
42
0.44114812695780653
10
514.59034857549636
20
32.167015754075564
10
511.8980477193964
20
30.612582517420158
10
510.44802490283587
20
33.124043015260611
10
513.14047254920274
20
34.678561003094266
42
0.44112281640600054
10
513.31482042902553
20
35.472020067023976
42
0.019934692068520124
10
512.22068433667278
20
36.898026670497103
42
0.44114769571433432
10
511.40910730576189
20
36.935004820723435
10
509.2108525181863
20
34.736723576168231
10
507.16023051276812
20
36.787320901730425
10
509.35860106990106
20
38.9857179172364
42
0.44112324763817229
10
509.3216477514631
20
39.797265692517371
42
0.019935504032618519
10
507.89565774118284
20
40.89154357467946
42
0.44114812695775368
10
507.10216376338059
20
40.71720815698086
10
505.54777944569514
20
38.024879057500442
10
503.0362926015664
20
39.474856240951112
10
504.59076166776293
20
42.167332132238386
42
0.44112281640601247
10
504.34502182882056
20
42.941661778375924
42
0.019934692068519076
10
502.68446887590915
20
43.629551676771612
42
0.44114769571433959
10
501.96313347489922
20
43.255787178797149
10
501.15852960714557
20
40.252892382561697
10
498.35734019411291
20
41.003450756721882
10
499.16198643576882
20
44.006503698320429
42
0.44112324763810051
10
498.72421003560697
20
44.690848028879522
42
0.019935504032619213
10
496.94212752008042
20
44.925525468491188
42
0.44114812695780026
10
496.34210928640294
20
44.3777995790837
10
496.34213752978337
20
41.268982024742854
10
493.4421375297722
20
41.268955678454589
10
493.44210928485182
20
44.377942732484748
42
0.44112281640602385
10
492.84212751853704
20
44.925661957472101
42
0.019934692068518729
10
491.06010152778867
20
44.691115608033755
42
0.44114769571438195
10
490.62228899485217
20
44.006758357250121
10
491.4269290035121
20
41.003873244941346
10
488.62574862393365
20
40.253281157470873
10
487.82106623946811
20
43.256324414632758
42
0.44112324763811495
10
487.09976859047111
20
43.630095789751863
42
0.019935504032618519
10
485.43910114057923
20
42.94229115638737
42
0.4411481269578178
10
485.1933330521843
20
42.167937505011309
10
486.74776628883978
20
39.475636648911362
10
484.23630579099927
20
38.025613832350828
10
482.68178780316561
20
40.718061478717715
42
0.44112281640599432
10
481.88832873923593
20
40.892409358540498
42
0.019934692068519774
10
480.4623221357628
20
39.798273266187735
42
0.44114769571430734
10
480.42534398553647
20
38.986696235276867
10
482.62362523009165
20
36.788441447701324
10
480.57302790452951
20
34.737819442283104
10
478.37463088902354
20
36.936189999416065
42
0.4411232476381261
10
477.56308311374255
20
36.899236680978127
42
0.019935504032619563
10
476.46880523158046
20
35.473246670697861
42
0.44114812695780437
10
476.64314064927908
20
34.679752692895562
10
479.33546974875946
20
33.125368375210137
10
477.88549256530877
20
30.613881531081422
10
475.19301667402152
20
32.168350597277936
42
0.44112281640600953
10
474.41868702788395
20
31.922610758335569
42
0.019934692068520821
10
473.73079712948828
20
30.262057805424067
42
0.44114769571434387
10
474.10456162746277
20
29.540722404414154
10
477.10745642369824
20
28.736118536660562
10
476.35689804953807
20
25.934929123627892
10
473.35384510793949
20
26.739575365283805
42
0.44112324763814137
10
472.66950077738039
20
26.301798965121932
42
0.019935504032619213
10
472.43482333776876
20
24.51971644959535
42
0.44114812695779249
10
472.98254922717626
20
23.919698215917894
10
476.09136678151708
20
23.919726459298374
10
476.09139312780536
20
21.019726459287163
10
472.98240607377517
20
21.019698214366787
42
0.44112281640602014
10
472.43468684878786
20
20.419716448052032
42
0.019934692068519774
10
472.66923319822615
20
18.637690457303616
42
0.44114769571437051
10
473.35359044900986
20
18.199877924367168
10
476.35647556131858
20
19.004517933027078
10
477.1070676487891
20
16.203337553448669
10
474.10402439162715
20
15.398655168983089
42
0.44112324763811217
10
473.73025301650807
20
14.677357519986058
42
0.019935504032619213
10
474.41805764987248
20
13.016690070094182
42
0.4411481269578042
10
475.19241130124863
20
12.770921981699344
10
477.88471215734859
20
14.325355218354742
10
479.33473497390906
20
11.813894720514293
10
476.64228732754219
20
10.259376732680632
42
0.44112281640600309
10
476.46793944771946
20
9.4659176687509206
42
0.019934692068518032
10
477.5620755400721
20
8.0399110652778916
42
0.44114769571439244
10
478.37365257098304
20
8.0029329150514794
10
480.57190735855863
20
10.201214159606673
10
482.62252936397681
20
8.1506168340444738
10
480.42415880684388
20
5.9522198185385005
42
0.4411232476381145
10
480.46111212528183
20
5.1406720432575304
42
0.019935504032619213
10
481.88710213556203
20
4.0463941610954475
42
0.44114812695775091
10
482.68059611336435
20
4.2207295787940424
10
484.23498043104979
20
6.913058678274469
10
486.74646727517853
20
5.4630814948237916
10
485.191998208982
20
2.7706056035365312
42
0.44112281640601297
10
485.43773804792437
20
1.9962759573989874
42
0.019934692068519774
10
487.09829100083584
20
1.3083860590032836
42
0.44114769571433937
10
487.81962640184577
20
1.6821505569777662
10
488.62423026959937
20
4.6850453532132104
10
491.42541968263203
20
3.9344869790530268
10
490.62077344097611
20
0.93143403745447717
42
0.44112324763809624
10
491.05854984113796
20
0.24708970689538923
42
0.019935504032619213
10
492.84063235666451
20
0.012412267283727907
42
0.44114812695780503
10
493.44065059034199
20
0.56013815669122113
10
493.4406223469615
20
3.6689557110320625
10
496.34062234697274
20
3.6689820573203269
10
496.34065059189311
20
0.55999500329015905
42
0.44112281640598583
10
496.94063235820784
20
0.012275778302810458
42
0.019934692068521168
10
498.72265834895637
20
0.24682212774117746
42
0.44114769571433993
10
499.16047088189271
20
0.93117937852478239
10
498.35583087323289
20
3.934064490833562
10
501.15701125281129
20
4.6846565783040361
10
501.96169363727682
20
1.6816133211421525
42
0.44112324763814564
10
502.68299128627393
20
1.3078419460230473
42
0.019935504032617471
10
504.34365873616571
20
1.9956465793875067
42
0.4411481269578259
10
504.58942682456063
20
2.7700002307636074
10
503.03499358790521
20
5.462301086863544
10
505.54645408574567
20
6.9123239034240829
10
507.10097207357927
20
4.2198762570571935
42
0.44112281640601048
10
507.894431137509
20
4.0455283772344064
42
0.019934692068519774
10
509.32043774098202
20
5.1396644695871334
42
0.44114769571435164
10
509.35741589120846
20
5.9512415004980435
10
507.15913464665329
20
8.1494962880735837
10
509.20973197221542
20
10.200118293491807
10
511.4081289877214
20
8.0017477363588423
42
0.44112324763813321
10
512.21967676300233
20
8.0387010547967801
42
0.019935504032619213
10
513.31395464516447
20
9.4646910650770444
42
0.4411481269577473
10
513.1396192274658
20
10.258185042879335
10
510.44729012798547
20
11.812569360564771
10
511.89726731143617
20
14.324056204693484
10
514.58974320272341
20
12.769587138496977
42
0.4411228164060107
10
515.36407284886093
20
13.015326977439337
42
0.019934692068520124
10
516.05196274725665
20
14.67587993035078
42
0.4411476957143744
10
515.6781982492821
20
15.397215331360755
10
512.67530345304669
20
16.201819199114336
10
513.42586182720686
20
19.003008612147013
10
516.42891476880538
20
18.198362370491097
42
0.44112324763814226
10
517.11325909936454
20
18.636138770652973
42
0.019935504032618519
10
517.34793653897623
20
20.418221286179495
42
0.44114812695782851
10
516.80021064956873
20
21.018239519857019
10
513.69139309522791
20
21.018211276476535
10
513.69136674893957
20
23.918211276487749
10
516.80035380296977
20
23.918239521408118
42
0.44112281640602019
10
517.34807302795707
20
24.518221287722881
42
0.019934692068519774
0
CIRCLE
5
140
100
AcDbEntity
8
0
100
AcDbCircle
10
557.36235001720377
20
35.002001210943853
30
0
40
27.450000000000003
210
0
220
-0
230
1
0
LWPOLYLINE
5
141
100
AcDbEntity
8
0
100
AcDbPolyline
90
144
70
1
43
0.0
10
546.34377866960949
20
68.275017086544509
42
0.036464829382204147
10
541.62681468165306
20
66.321251324949372
42
0.43131207800675042
10
541.39742316328295
20
65.554789435266386
10
542.9684183909169
20
62.833802971165412
10
540.45695789307638
20
61.383780154604864
10
538.88592348068983
20
64.104834487264412
42
0.43130045966445707
10
538.10746690826932
20
64.289404244693173
42
0.0364636279741321
10
534.05703445911649
20
61.181473450429074
42
0.43131188005381249
10
534.0338320229248
20
60.381757537892646
10
536.25553413378486
20
58.160082165889563
10
534.20493680822256
20
56.109460160471315
10
531.98318117060148
20
58.331189058591306
42
0.43130065761516162
10
531.18347937897533
20
58.307992545939754
42
0.036464829382204723
10
528.07535161746637
20
54.257499769375876
42
0.43131207800664378
10
528.25992367998663
20
53.479028542692788
10
530.98093868839226
20
51.908082755244735
10
529.53096150494162
20
49.396595911116009
10
526.80987862726545
20
50.967580882083553
42
0.43130045966447667
10
526.04343058109191
20
50.738194694576926
42
0.036463627974131718
10
524.08961858094494
20
46.021431448963952
42
0.43131188005386412
10
524.46938263804145
20
45.317255934800855
10
527.50427079168924
20
44.50407967911395
10
526.75371241752907
20
41.702890266081269
10
523.71875114528791
20
42.516086113364622
42
0.43130065761516101
10
523.03778733461354
20
42.096146448316119
42
0.036464829382204342
10
522.37131612322094
20
37.034252925211995
42
0.43131207800668792
10
522.92039583153394
20
36.452363098049261
10
526.06233684661606
20
36.452391642353909
10
526.06236319290429
20
33.552391642342698
10
522.9203438095501
20
33.552363097326079
42
0.43130045966445019
10
522.37127342463623
20
32.970484808581318
42
0.036463627974131524
10
523.03760422109644
20
27.908742014170205
42
0.43131188005384086
10
523.71857729906776
20
27.488790158730254
10
526.75345566561475
20
28.30200294037499
10
527.50404775308527
20
25.500822560796582
10
524.46909626818081
20
24.687590186675401
42
0.4313006576151388
10
524.0893341416031
20
23.983429863349492
42
0.036464829382204723
10
526.04309990319837
20
19.266465875393081
42
0.43131207800666282
10
526.80956179288125
20
19.03707435702297
10
529.53054825698223
20
20.608069584656945
10
530.98057107354282
20
18.096609086816503
10
528.25951674088321
20
16.525574674429862
42
0.43130045966447145
10
528.07494698345454
20
15.747118102009335
42
0.036463627974131524
10
531.18287777771855
20
11.696685652856647
42
0.43131188005386245
10
531.98259369025504
20
11.673483216664877
10
534.20426906225805
20
13.895185327524885
10
536.25489106767634
20
11.844588001962686
10
534.03316216955636
20
9.6228323643415727
42
0.43130065761518871
10
534.05635868220793
20
8.823130572715483
42
0.036464829382204529
10
538.10685145877176
20
5.7150028112064488
42
0.43131207800668409
10
538.88532268545487
20
5.8995748737267162
10
540.45626847290293
20
8.620589882132359
10
542.96775531703156
20
7.1706126986816932
10
541.39677034606405
20
4.4495298210055312
42
0.43130045966449548
10
541.62615653357068
20
3.6830817748320044
42
0.0364636279741321
10
546.34291977918372
20
1.729269774684985
42
0.43131188005384713
10
547.04709529334673
20
2.1090338317814528
10
547.86027154903377
20
5.1439219854292739
10
550.66146096206637
20
4.393363611269101
10
549.84826511478309
20
1.3584023390279443
42
0.43130065761515335
10
550.26820477983154
20
0.67743852835359331
42
0.036464829382205105
10
555.33009830293577
20
0.010967316961032411
42
0.43131207800665572
10
555.91198813009839
20
0.56004702527403527
10
555.91195958579374
20
3.7019880403560679
10
558.81195958580497
20
3.7020143866443433
10
558.81198813082153
20
0.55999500329015905
42
0.43130045966444824
10
559.39386641956628
20
0.01092461837625347
42
0.036463627974132287
10
564.45560921397748
20
0.6772554148365505
42
0.4313118800538196
10
564.87556106941736
20
1.3582284928078536
10
564.06234828777269
20
4.3931068593547895
10
566.86352866735103
20
5.1436989468252703
10
567.67676104147222
20
2.1087474619208013
42
0.43130065761514497
10
568.38092136479816
20
1.7289853353432028
42
0.036464829382204911
10
573.09788535275459
20
3.6827510969383637
42
0.4313120780066993
10
573.3272768711247
20
4.4492129866212959
10
571.75628164349075
20
7.1701994507222899
10
574.26774214133115
20
8.6202222672828341
10
575.83877655371782
20
5.8991679346232928
42
0.43130045966445446
10
576.61723312613833
20
5.7145981771945298
42
0.036463627974131524
10
580.66766557529104
20
8.8225289714586062
42
0.43131188005384746
10
580.69086801148285
20
9.6222448839950516
10
578.46916590062278
20
11.843920255998132
10
580.51976322618498
20
13.894542261416367
10
582.74151886380605
20
11.672813363296388
42
0.43130065761513259
10
583.5412206554322
20
11.696009875947935
42
0.036464829382204723
10
586.64934841694117
20
15.746502652511813
42
0.43131207800667004
10
586.46477635442102
20
16.52497387919491
10
583.74376134601539
20
18.095919666642967
10
585.19373852946592
20
20.607406510771686
10
587.9148214071422
20
19.036421539804138
42
0.43130045966447561
10
588.68126945331574
20
19.265807727310765
42
0.036463627974131718
10
590.6350814534627
20
23.982570972923774
42
0.43131188005384818
10
590.25531739636619
20
24.686746487086843
10
587.22042924271841
20
25.499922742773748
10
587.97098761687857
20
28.301112155806422
10
591.00594888911974
20
27.487916308523069
42
0.43130065761516456
10
591.68691269979399
20
27.907855973571568
42
0.036464829382204911
10
592.3533839111866
20
32.969749496675774
42
0.43131207800665183
10
591.80430420287371
20
33.551639323838437
10
588.66236318779158
20
33.551610779533789
10
588.66233684150325
20
36.451610779545
10
591.80435622485754
20
36.451639324561626
42
0.4313004596644478
10
592.35342660977142
20
37.03351761330638
42
0.036463627974131524
10
591.68709581331109
20
42.09526040771749
42
0.43131188005384252
10
591.00612273533989
20
42.515212263157451
10
587.9712443687929
20
41.701999481512715
10
587.22065228132237
20
44.50317986109112
10
590.25560376622684
20
45.316412235212304
42
0.43130065761514208
10
590.63536589280443
20
46.020572558538213
42
0.036464829382204911
10
588.68160013120928
20
50.737536546494617
42
0.43131207800665627
10
587.91513824152639
20
50.966928064864724
10
585.19415177742542
20
49.395932837230738
10
583.74412896086483
20
51.907393335071184
10
586.46518329352443
20
53.478427747457822
42
0.43130045966447045
10
586.64975305095311
20
54.256884319878353
42
0.036463627974131906
10
583.54182225668899
20
58.307316769031075
42
0.43131188005381765
10
582.7421063441526
20
58.330519205222835
10
580.5204309721496
20
56.108817094362813
10
578.46980896673131
20
58.159414419925
10
580.69153786485128
20
60.381170057546107
42
0.4313006576151634
10
580.66834135219972
20
61.180871849172206
42
0.036464829382204723
10
576.61784857563589
20
64.288999610681245
42
0.43131207800667509
10
575.83937734895278
20
64.10442754816097
10
574.26843156150471
20
61.383412539755341
10
571.75694471737597
20
62.833389723206004
10
573.3279296883436
20
65.554472600882164
42
0.43130045966449237
10
573.09854350083685
20
66.320920647055686
42
0.036463627974131906
10
568.38178025522393
20
68.274732647202697
42
0.43131188005381604
10
567.6776047410608
20
67.894968590106259
10
566.86442848537388
20
64.860080436458418
10
564.06323907234128
20
65.610638810618596
10
564.87643491962456
20
68.645600082859758
42
0.43130065761515335
10
564.45649525457611
20
69.326563893534114
42
0.036464829382205105
10
559.39460173147188
20
69.993035104926676
42
0.43131207800666066
10
558.81271190430925
20
69.44395539661366
10
558.81274044861379
20
66.302014381531635
10
555.91274044860268
20
66.301988035243355
10
555.912711903586
20
69.44400741859755
42
0.43130045966448638
10
555.33083361484125
20
69.993077803511454
42
0.03646362797413133
10
550.26909082043016
20
69.326747007051154
42
0.43131188005385573
10
549.84913896499029
20
68.645773929079851
10
550.66235174663495
20
65.610895562532917
10
547.86117136705661
20
64.860303475062423
10
547.04793899293531
20
67.895254959966906
42
0.4313006576151473
0
LWPOLYLINE
5
142
100
AcDbEntity
8
0
100
AcDbPolyline
90
144
70
1
43
0.0
10
666.32718551713026
20
17.000679096598855
42
0.43013976395740289
10
666.14143601358467
20
17.777333553230452
10
663.41699342190896
20
19.350324218915077
10
664.86701623846955
20
21.86178471675553
10
667.5914147940598
20
20.28881947585003
42
0.43014729607871538
10
668.35690249509094
20
20.516281476862464
42
0.038429200369016571
10
670.56249289386847
20
25.841122196113353
42
0.43013989228815952
10
670.18205760679052
20
26.543236344317258
10
667.14332654255463
20
27.357481478045411
10
667.89391863002504
20
30.158661857623819
10
670.9326022518768
20
29.3444294363502
42
0.43014716774699974
10
671.61313376337739
20
29.762265507674783
42
0.038427881392889086
10
672.36537455816824
20
35.476319932725609
42
0.43013976395728926
10
671.81618354104171
20
36.056047670358062
10
668.67025171265595
20
36.056076250918913
10
668.67027805894418
20
38.956076250930124
10
671.81615903857175
20
38.956047670831232
42
0.43014729607873819
10
672.36535983344311
20
39.535779392619183
42
0.038429200369016203
10
671.61303678950185
20
45.250021925984953
42
0.43013989228814503
10
670.93251309229458
20
45.667852971147155
10
667.89377222853329
20
44.853644409745613
10
667.14321385437313
20
47.654833822778293
10
670.18190727559727
20
48.469029672296287
42
0.43014716774690126
10
670.56234681697038
20
49.171152080431213
42
0.038427881392888726
10
668.35677924249683
20
54.495788768527504
42
0.43013976395734638
10
667.59130200131858
20
54.723252208032363
10
664.86683082908212
20
53.150311045331236
10
663.41685364563148
20
55.661797889459962
10
666.14128078132069
20
57.234713628182092
42
0.43014729607877639
10
666.32703676056383
20
58.011376424065801
42
0.038429200369016203
10
662.81838462597545
20
62.583894099375556
42
0.43013989228816252
10
662.02011829373544
20
62.605484550372111
10
659.79559579090107
20
60.380988820338935
10
657.74499846533899
20
62.431610825757176
10
659.96948623767264
20
64.65607182570767
42
0.43014716774699158
10
659.94789534103847
20
65.454347438405364
42
0.038427881392888906
10
655.37549944773286
20
68.96283428898262
42
0.43013976395728731
10
654.59884499110149
20
68.777084785436955
10
653.02585432541673
20
66.052642193761272
10
650.51439382757633
20
67.502665010321834
10
652.08735906848187
20
70.227063565912175
42
0.4301472960787025
10
651.85989706746932
20
70.992551266943295
42
0.038429200369016023
10
646.53505634821852
20
73.19814166572074
42
0.43013989228816157
10
645.8329422000146
20
72.817706378642953
10
645.01869706628645
20
69.778975314406978
10
642.217516686708
20
70.529567401877472
10
643.03174910798157
20
73.568251023729204
42
0.4301471677470321
10
642.6139130366571
20
74.248782535229878
42
0.038427881392888906
10
636.89985861160619
20
75.001023330020715
42
0.43013976395730213
10
636.32013087397377
20
74.451832312894055
10
636.32010229341302
20
71.305900484508285
10
633.42010229340178
20
71.305926830796551
10
633.42013087350063
20
74.451807810424171
42
0.43014729607871216
10
632.84039915171275
20
75.001008605295439
42
0.038429200369016932
10
627.12615661834684
20
74.248685561354307
42
0.43013989228814381
10
626.70832557318465
20
73.568161864146958
10
627.52253413458629
20
70.529421000385625
10
624.72134472155358
20
69.778862626225461
10
623.90714887203558
20
72.817556047449571
42
0.43014716774698419
10
623.20502646390059
20
73.197995588822678
42
0.038427881392888545
10
617.88038977580436
20
70.992428014349144
42
0.43013976395733738
10
617.65292633629952
20
70.226950773170998
10
619.22586749900063
20
67.502479600934464
10
616.71438065487189
20
66.052502417483794
10
615.14146491614974
20
68.776929553173034
42
0.43014729607868718
10
614.36480212026606
20
68.962685532416202
42
0.038429200369016391
10
609.79228444495629
20
65.454033397827828
42
0.43013989228814842
10
609.77069399395975
20
64.655767065587867
10
611.99518972399289
20
62.431244562753463
10
609.9445677185746
20
60.380647237191255
10
607.72010671862415
20
62.605135009525
42
0.43014716774694756
10
606.92183110592646
20
62.583544112890763
42
0.038427881392888906
10
603.41334425534922
20
58.011148219585294
42
0.43013976395732362
10
603.59909375889492
20
57.234493762953761
10
606.32353635057052
20
55.661503097269119
10
604.87351353401004
20
53.15004259942868
10
602.14911497841968
20
54.723007840334162
42
0.43014729607871083
10
601.38362727738854
20
54.49554583932175
42
0.038429200369016203
10
599.17803687861112
20
49.170705120070856
42
0.43013989228813448
10
599.55847216568895
20
48.468590971866952
10
602.59720322992484
20
47.654345838138795
10
601.84661114245444
20
44.853165458560397
10
598.80792752060268
20
45.667397879834013
42
0.43014716774697065
10
598.12739600910197
20
45.249561808509426
42
0.038427881392888906
10
597.37515521431112
20
39.535507383458608
42
0.43013976395732545
10
597.92434623143788
20
38.955779645826155
10
601.07027805982352
20
38.955751065265304
10
601.0702517135353
20
36.055751065254086
10
597.92437073390772
20
36.055779645352985
42
0.43014729607873819
10
597.37516993903637
20
35.476047923565027
42
0.038429200369016203
10
598.12749298297751
20
29.761805390199232
42
0.43013989228816674
10
598.80801668018489
20
29.343974345037047
10
601.8467575439463
20
30.15818290643859
10
602.59731591810646
20
27.356993493405916
10
599.55862249688232
20
26.542797643887912
42
0.43014716774698419
10
599.1781829555091
20
25.840675235752997
42
0.038427881392888726
10
601.38375052998276
20
20.516038547656677
42
0.4301397639573144
10
602.14922777116089
20
20.288575108151839
10
604.87369894339736
20
21.861516270852963
10
606.323676126848
20
19.350029426724245
10
603.59924899115879
20
17.777113688002117
42
0.43014729607869745
10
603.41349301191565
20
17.000450892118412
42
0.038429200369016571
10
606.92214514650402
20
12.427933216808654
42
0.43013989228812521
10
607.72041147874393
20
12.406342765812095
10
609.9449339815784
20
14.630838495845273
10
611.9955313071406
20
12.580216490427038
10
609.77104353480684
20
10.35575549047655
42
0.43014716774697098
10
609.79263443144112
20
9.5574798777788406
42
0.038427881392888545
10
614.3650303247465
20
6.0489930272015879
42
0.4301397639573406
10
615.1416847813781
20
6.2347425307472593
10
616.71467544706275
20
8.9591851224229391
10
619.22613594490315
20
7.5091623058623869
10
617.65317070399772
20
4.7847637502720364
42
0.43014729607871954
10
617.88063270501016
20
4.0192760492409318
42
0.038429200369016203
10
623.20547342426107
20
1.813685650463488
42
0.430139892288111
10
623.90758757246488
20
2.1941209375412862
10
624.72183270619303
20
5.2328520017772373
10
627.52301308577148
20
4.4822599143067565
10
626.70878066449779
20
1.4435762924550133
42
0.43014716774697814
10
627.12661673582249
20
0.76304478095432504
42
0.038427881392888726
10
632.84067116087317
20
0.010803986163496759
42
0.43013976395734005
10
633.42039889850571
20
0.5599950032901635
10
633.42042747906657
20
3.7059268316759386
10
636.32042747907781
20
3.7059004853876676
10
636.32039889897885
20
0.56001950576004322
42
0.43014729607874763
10
636.90013062076684
20
0.010818710888758076
42
0.038429200369016203
10
642.61437315413264
20
0.76314175482990354
42
0.43013989228818705
10
643.03220419929471
20
1.4436654520372549
10
642.2179956378933
20
4.4824063157985883
10
645.0191850509259
20
5.2329646899587656
10
645.8333809004439
20
2.1942712687346466
42
0.43014716774695322
10
646.53550330857888
20
1.8138317273615234
42
0.038427881392888545
10
651.86013999667512
20
4.0193993018350493
42
0.4301397639573406
10
652.08760343617996
20
4.7848765430132145
10
650.51466227347885
20
7.5093477152497501
10
653.02614911760759
20
8.9593248987004159
10
654.59906485632973
20
6.234897763011169
42
0.43014729607871849
10
655.37572765221341
20
6.0491417837680128
42
0.038429200369016203
10
659.94824532752318
20
9.5577939183563885
42
0.43013989228808663
10
659.96983577851984
20
10.356060250596336
10
657.74534004848658
20
12.580582753430743
10
659.79596205390476
20
14.631180078992937
10
662.02042305385532
20
12.406692306659206
42
0.43014716774695649
10
662.81869866655302
20
12.428283203293443
42
0.038427881392888545
0
CIRCLE
5
143
100
AcDbEntity
8
0
100
AcDbCircle
10
634.87026488623974
20
37.505913658092112
30
0
40
29.950000000000003
210
0
220
-0
230
1
0
LWPOLYLINE
5
144
100
AcDbEntity
8
0
100
AcDbPolyline
90
144
70
1
43
0.0
10
713.57735246819607
20
31.710247528394625
42
0.014077676454380444
10
712.89017790931712
20
32.605788696818294
42
0.44463907708005035
10
712.07452089414517
20
32.647725493431011
10
709.88451676296108
20
30.457695004567444
10
707.83389475754291
20
32.508292330129642
10
710.02391665063692
20
34.698340581116909
42
0.44463531640194204
10
709.98197539709099
20
35.513992733721345
42
0.014079099586865788
10
709.08634213762014
20
36.201234653377149
42
0.4446391434144718
10
708.28762434417467
20
36.030632540064374
10
706.73907284261281
20
33.348406386427591
10
704.22758599848407
20
34.798383569878254
10
705.77615050256111
20
37.480632245004408
42
0.44463525006787302
10
705.52452977925805
20
38.257635707723722
42
0.014077676454381429
10
704.48164857022266
20
38.689609830273952
42
0.44463907708000089
10
703.75430047600253
20
38.318099653907979
10
702.95271650843597
20
35.326475549897616
10
700.15152709540325
20
36.077033924057801
10
700.95311756417323
20
39.068682291473465
42
0.44463531640203446
10
700.50896929683358
20
39.754087149507377
42
0.014079099586863816
10
699.38970718182986
20
39.901439480739526
42
0.44463914341451638
10
698.7832983389078
20
39.354334819948598
10
698.78332647630486
20
36.257183081423143
10
695.88332647629375
20
36.25715673513487
10
695.88329833866032
20
39.354334479099805
42
0.44463525006787369
10
695.27688666880158
20
39.901428854991686
42
0.014077676454380444
10
694.15773798737234
20
39.754088814379955
42
0.44463907707998734
10
693.71359114856648
20
39.068677516772539
10
694.51521112139278
20
36.077063060342446
10
691.71403074181421
20
35.326470972871959
10
690.91240426749266
20
38.318109692629115
42
0.44463531640193948
10
690.18505815591288
20
38.689613577893944
42
0.014079099586865788
10
689.1420725652099
20
38.257593382545977
42
0.44463914341455346
10
688.89045943255542
20
37.480582426311095
10
690.43905966951888
20
34.79838441007152
10
687.92759917167837
20
33.348361593510973
10
686.37898593179057
20
36.030582131003655
42
0.44463525006788929
10
685.5802708325956
20
36.201173923864239
42
0.014077676454380444
10
684.68472966417198
20
35.513999364985267
42
0.44463907708003159
10
684.64279286755925
20
34.698342349813451
10
686.83282335642275
20
32.508338218629341
10
684.78222603086056
20
30.457716213211107
10
682.59217777987328
20
32.647738106305141
42
0.44463531640196741
10
681.77652562726894
20
32.605796852759141
42
0.014079099586864803
10
681.08928370761305
20
31.710163593288456
42
0.44463914341454336
10
681.25988582092589
20
30.911445799842923
10
683.94211197456252
20
29.362894298280978
10
682.49213479111188
20
26.851407454152259
10
679.80988611598582
20
28.399971958229347
42
0.44463525006784799
10
679.03288265326648
20
28.148351234926281
42
0.014077676454381429
10
678.6009085307162
20
27.105470025890885
42
0.44463907708001205
10
678.97241870708228
20
26.378121931670741
10
681.96404281109267
20
25.576537964104219
10
681.21348443693239
20
22.775348551071541
10
678.22183606951683
20
23.576939019841426
42
0.44463531640204879
10
677.53643121148286
20
23.132790752501819
42
0.01407909958686283
10
677.38907888025074
20
22.013528637498133
42
0.44463914341459143
10
677.93618354104171
20
21.407119794575937
10
681.03333527956704
20
21.407147931973153
10
681.03336162585538
20
18.507147931961939
10
677.93618388189043
20
18.507119794328474
42
0.44463525006793314
10
677.38908950599853
20
17.900708124469734
42
0.014077676454381429
10
677.53642954661029
20
16.781559443040514
42
0.44463907707995276
10
678.2218408442177
20
16.337412604234686
10
681.21345530064775
20
17.139032577060942
10
681.96404738811816
20
14.337852197482537
10
678.97240866836114
20
13.536225723160902
42
0.44463531640203668
10
678.60090478309633
20
12.808879611581002
42
0.014079099586865788
10
679.03292497844427
20
11.765894020878129
42
0.44463914341451655
10
679.80993593467917
20
11.514280888223553
10
682.49213395091874
20
13.062881125187062
10
683.94215676747922
20
10.551420627346619
10
681.25993622998658
20
9.0028073874587626
42
0.44463525006790183
10
681.08934443712599
20
8.2040922882638174
42
0.014077676454380444
10
681.77651899600494
20
7.3085511198401454
42
0.44463907708004841
10
682.59217601117689
20
7.2666143232274294
10
684.78218014236086
20
9.4566448120910014
10
686.83280214777915
20
7.4060474865288057
10
684.64278025468502
20
5.2159992355415419
42
0.44463531640194204
10
684.68472150823106
20
4.4003470829371016
42
0.014079099586865788
10
685.58035476770169
20
3.7131051632813206
42
0.44463914341453914
10
686.37907256114727
20
3.8837072765940728
10
687.92762406270924
20
6.5659334302308636
10
690.43911090683787
20
5.1159562467801978
10
688.89054640276083
20
2.4337075716540491
42
0.44463525006787608
10
689.1421671260639
20
1.6567041089347279
42
0.014077676454381429
10
690.1850483350994
20
1.2247299863845271
42
0.44463907708000378
10
690.91239642931953
20
1.5962401627504641
10
691.71398039688597
20
4.5878642667608327
10
694.51516980991869
20
3.8373058926006598
10
693.71357934114883
20
0.84565752518499071
42
0.4446353164020343
10
694.15772760848836
20
0.16025266715107955
42
0.014079099586864803
10
695.27698972349208
20
0.012900335918921702
42
0.44463914341451716
10
695.88339856641426
20
0.56000499670985748
10
695.88337042901708
20
3.6571567352353096
10
698.78337042902831
20
3.6571830815235851
10
698.78339856666173
20
0.56000533755864224
42
0.44463525006787247
10
699.38981023652047
20
0.012910961666769971
42
0.014077676454380444
10
700.50895891794971
20
0.16025100227849073
42
0.44463907707999017
10
700.95310575675558
20
0.84566229988591646
10
700.15148578392927
20
3.8372767563160082
10
702.95266616350773
20
4.5878688437864934
10
703.75429263782939
20
1.5962301240293408
42
0.44463531640193948
10
704.48163874940917
20
1.2247262387645108
42
0.014079099586865788
10
705.52462434011204
20
1.6567464341125038
42
0.44463914341454858
10
705.77623747276664
20
2.4337573903473553
10
704.22763723580317
20
5.1159554065869317
10
706.73909773364358
20
6.5659782231474795
10
708.28771097353138
20
3.8837576856547984
42
0.44463525006789212
10
709.08642607272645
20
3.7131658927942146
42
0.014077676454380444
10
709.98196724115007
20
4.4003404516732108
42
0.44463907708002343
10
710.0239040377628
20
5.2159974668450015
10
707.83387354889919
20
7.406001598029115
10
709.8844708744615
20
9.4566236034473441
10
712.07451912544866
20
7.2666017103533136
42
0.44463531640197729
10
712.89017127805312
20
7.3085429638993027
42
0.014079099586864803
10
713.57741319770878
20
8.2041762233699593
42
0.44463914341460142
10
713.40681108439617
20
9.0028940168155192
10
710.72458493075942
20
10.55144551837747
10
712.17456211421006
20
13.062932362506189
10
714.85681078933624
20
11.514367858429102
42
0.44463525006784671
10
715.63381425205546
20
11.765988581732172
42
0.014077676454381429
10
716.06578837460575
20
12.808869790767563
42
0.44463907708001371
10
715.69427819823977
20
13.536217884987707
10
712.70265409422927
20
14.337801852554231
10
713.45321246838967
20
17.138991265586906
10
716.44486083580523
20
16.337400796817018
42
0.44463531640205001
10
717.13026569383919
20
16.781549064156632
42
0.014079099586865788
10
717.27761802507132
20
17.900811179160431
42
0.44463914341453015
10
716.73051336428034
20
18.50722002208251
10
713.6333616257549
20
18.507191884685298
10
713.63333527946668
20
21.407191884696509
10
716.73051302343151
20
21.407220022329977
42
0.44463525006793192
10
717.27760739932353
20
22.013631692188717
42
0.014077676454381429
10
717.13026735871165
20
23.132780373617937
42
0.44463907707995065
10
716.44485606110436
20
23.576927212423769
10
713.4532416046743
20
22.775307239597513
10
712.70264951720378
20
25.576487619175914
10
715.6942882369608
20
26.378114093497551
42
0.44463531640203668
10
716.06579212222573
20
27.105460205077453
42
0.014079099586865788
10
715.63377192687767
20
28.14844579578029
42
0.44463914341453037
10
714.85676097064288
20
28.400058928434891
10
712.17456295440331
20
26.851458691471382
10
710.72454013784284
20
29.362919189311825
10
713.40676067533536
20
30.911532429199681
42
0.44463525006790139
0
CIRCLE
5
145
100
AcDbEntity
8
0
100
AcDbCircle
10
697.33334845266097
20
19.957169908329227
30
0
40
12.449999999999999
210
0
220
-0
230
1
0
ENDSEC
0
SECTION
2
OBJECTS
0
DICTIONARY
5
C
100
AcDbDictionary
3
ACAD_GROUP
350
D
3
ACAD_MLINESTYLE
350
17
0
DICTIONARY
5
D
100
AcDbDictionary
0
DICTIONARY
5
1A
330
C
100
AcDbDictionary
0
DICTIONARY
5
17
100
AcDbDictionary
0
ENDSEC
0
EOF
