0
SECTION
2
HEADER
9
$INSUNITS
70
4
9
$ACADVER
1
AC1014
9
$HANDSEED
5
FFFF
0
ENDSEC
0
SECTION
2
TABLES
0
TABLE
2
VPORT
5
8
100
AcDbSymbolTable
0
ENDTAB
0
TABLE
2
LTYPE
5
5
100
AcDbSymbolTable
0
LTYPE
5
14
100
AcDbSymbolTableRecord
100
AcDbLinetypeTableRecord
2
BYBLOCK
70
0
0
LTYPE
5
15
100
AcDbSymbolTableRecord
100
AcDbLinetypeTableRecord
2
BYLAYER
70
0
0
ENDTAB
0
TABLE
2
LAYER
5
2
100
AcDbSymbolTable
70
2
0
LAYER
5
50
100
AcDbSymbolTableRecord
100
AcDbLayerTableRecord
2
0
70
0
6
CONTINUOUS
0
ENDTAB
0
TABLE
2
STYLE
5
3
100
AcDbSymbolTable
70
1
0
STYLE
5
11
100
AcDbSymbolTableRecord
100
AcDbTextStyleTableRecord
2
STANDARD
70
0
0
ENDTAB
0
TABLE
2
VIEW
5
6
100
AcDbSymbolTable
70
0
0
ENDTAB
0
TABLE
2
UCS
5
7
100
AcDbSymbolTable
70
0
0
ENDTAB
0
TABLE
2
APPID
5
9
100
AcDbSymbolTable
70
2
0
APPID
5
12
100
AcDbSymbolTableRecord
100
AcDbRegAppTableRecord
2
ACAD
70
0
0
ENDTAB
0
TABLE
2
DIMSTYLE
5
A
100
AcDbSymbolTable
70
1
0
ENDTAB
0
TABLE
2
BLOCK_RECORD
5
1
100
AcDbSymbolTable
70
1
0
BLOCK_RECORD
5
1F
100
AcDbSymbolTableRecord
100
AcDbBlockTableRecord
2
*MODEL_SPACE
0
BLOCK_RECORD
5
1B
100
AcDbSymbolTableRecord
100
AcDbBlockTableRecord
2
*PAPER_SPACE
0
ENDTAB
0
ENDSEC
0
SECTION
2
BLOCKS
0
BLOCK
5
20
100
AcDbEntity
100
AcDbBlockBegin
2
*MODEL_SPACE
0
ENDBLK
5
21
100
AcDbEntity
100
AcDbBlockEnd
0
BLOCK
5
1C
100
AcDbEntity
100
AcDbBlockBegin
2
*PAPER_SPACE
0
ENDBLK
5
1D
100
AcDbEntity
100
AcDbBlockEnd
0
ENDSEC
0
SECTION
2
ENTITIES
0
CIRCLE
5
100
100
AcDbEntity
8
0
100
AcDbCircle
10
-39.999999999999616
20
-200.00000000000011
30
0
40
2
210
-0
220
0
230
1
0
CIRCLE
5
101
100
AcDbEntity
8
0
100
AcDbCircle
10
3.8247183198336643e-13
20
-200.00000000000014
30
0
40
2
210
-0
220
0
230
1
0
CIRCLE
5
102
100
AcDbEntity
8
0
100
AcDbCircle
10
-79.999999999999602
20
-200.00000000000014
30
0
40
2
210
-0
220
0
230
1
0
CIRCLE
5
103
100
AcDbEntity
8
0
100
AcDbCircle
10
-119.9999999999996
20
-200.00000000000011
30
0
40
2
210
-0
220
0
230
1
0
CIRCLE
5
104
100
AcDbEntity
8
0
100
AcDbCircle
10
-159.9999999999996
20
-200.00000000000011
30
0
40
2
210
-0
220
0
230
1
0
ARC
5
105
100
AcDbEntity
8
0
100
AcDbCircle
10
3.8247183198336643e-13
20
-200.00000000000014
30
0
40
4.9999999999997868
210
-0
220
0
230
1
100
AcDbArc
50
-89.999999999999901
51
89.999999999999972
0
LWPOLYLINE
5
106
100
AcDbEntity
8
0
100
AcDbPolyline
90
6
70
1
43
0.0
10
-203.49999999999966
20
-202.02072594216418
10
-199.99999999999969
20
-204.04145188432773
10
-196.49999999999966
20
-202.02072594216403
10
-196.49999999999963
20
-197.97927405783665
10
-199.9999999999996
20
-195.95854811567293
10
-203.49999999999963
20
-197.97927405783662
0
ARC
5
107
100
AcDbEntity
8
0
100
AcDbCircle
10
-199.99999999999966
20
-200.00000000000031
30
0
40
7.0000000000000711
210
0
220
-0
230
1
100
AcDbArc
50
64.15806723683265
51
295.84198148937281
0
ARC
5
108
100
AcDbEntity
8
0
100
AcDbCircle
10
-191.28220211291824
20
-182.00000000000031
30
0
40
12.999999999999954
210
0
220
0
230
1
100
AcDbArc
50
244.15806723683272
51
270
0
ARC
5
109
100
AcDbEntity
8
0
100
AcDbCircle
10
-191.28220211291821
20
-218.00000000000034
30
0
40
13.000000000000007
210
0
220
0
230
1
100
AcDbArc
50
90.000000000000128
51
115.84190652597981
0
ARC
5
110
100
AcDbEntity
8
0
100
AcDbCircle
10
3.8163916471489756e-13
20
-200.00000000000014
30
0
40
4.9999999999997868
210
-0
220
0
230
1
100
AcDbArc
50
-89.999999999999901
51
89.999999999999972
0
CIRCLE
5
111
100
AcDbEntity
8
0
100
AcDbCircle
10
3.8163916471489756e-13
20
-200.00000000000014
30
0
40
1.9999999999999916
210
0
220
0
230
1
0
LINE
5
112
100
AcDbEntity
8
0
100
AcDbLine
10
3.907985046680551e-13
20
-204.99999999999994
30
0
11
-191.28220211291824
21
-205.00000000000031
31
0
0
LINE
5
113
100
AcDbEntity
8
0
100
AcDbLine
10
3.8580250105724185e-13
20
-195.00000000000034
30
0
11
-191.28220211291824
21
-195.00000000000031
31
0
0
CIRCLE
5
114
100
AcDbEntity
8
0
100
AcDbCircle
10
-39.999999999999616
20
-200.00000000000011
30
0
40
1.9999999999999973
210
0
220
0
230
1
0
CIRCLE
5
115
100
AcDbEntity
8
0
100
AcDbCircle
10
-79.999999999999602
20
-200.00000000000014
30
0
40
1.9999999999999929
210
0
220
0
230
1
0
CIRCLE
5
116
100
AcDbEntity
8
0
100
AcDbCircle
10
-119.9999999999996
20
-200.00000000000011
30
0
40
1.9999999999999929
210
0
220
0
230
1
0
CIRCLE
5
117
100
AcDbEntity
8
0
100
AcDbCircle
10
-159.9999999999996
20
-200.00000000000011
30
0
40
1.9999999999999929
210
0
220
0
230
1
0
CIRCLE
5
118
100
AcDbEntity
8
0
100
AcDbCircle
10
2.2044865932713265e-13
20
-200.00000000000003
30
0
40
2
210
0
220
-0
230
1
0
ENDSEC
0
SECTION
2
OBJECTS
0
DICTIONARY
5
C
100
AcDbDictionary
3
ACAD_GROUP
350
D
3
ACAD_MLINESTYLE
350
17
0
DICTIONARY
5
D
100
AcDbDictionary
0
DICTIONARY
5
1A
330
C
100
AcDbDictionary
0
DICTIONARY
5
17
100
AcDbDictionary
0
ENDSEC
0
EOF
