ISO-10303-21;
HEADER;
FILE_DESCRIPTION(('FreeCAD Model'),'2;1');
FILE_NAME('Open CASCADE Shape Model','2025-11-14T14:43:44',('Author'),(
    ''),'Open CASCADE STEP processor 7.8','FreeCAD','Unknown');
FILE_SCHEMA(('AUTOMOTIVE_DESIGN { 1 0 10303 214 1 1 1 1 }'));
ENDSEC;
DATA;
#1 = APPLICATION_PROTOCOL_DEFINITION('international standard',
  'automotive_design',2000,#2);
#2 = APPLICATION_CONTEXT(
  'core data for automotive mechanical design processes');
#3 = SHAPE_DEFINITION_REPRESENTATION(#4,#10);
#4 = PRODUCT_DEFINITION_SHAPE('','',#5);
#5 = PRODUCT_DEFINITION('design','',#6,#9);
#6 = PRODUCT_DEFINITION_FORMATION('','',#7);
#7 = PRODUCT('Battery_Clamp','Battery_Clamp','',(#8));
#8 = PRODUCT_CONTEXT('',#2,'mechanical');
#9 = PRODUCT_DEFINITION_CONTEXT('part definition',#2,'design');
#10 = ADVANCED_BREP_SHAPE_REPRESENTATION('',(#11,#15),#472);
#11 = AXIS2_PLACEMENT_3D('',#12,#13,#14);
#12 = CARTESIAN_POINT('',(0.,0.,0.));
#13 = DIRECTION('',(0.,0.,1.));
#14 = DIRECTION('',(1.,0.,-0.));
#15 = MANIFOLD_SOLID_BREP('',#16);
#16 = CLOSED_SHELL('',(#17,#123,#154,#178,#202,#237,#261,#285,#310,#334,
    #369,#393,#418,#435,#455));
#17 = ADVANCED_FACE('',(#18),#118,.F.);
#18 = FACE_BOUND('',#19,.F.);
#19 = EDGE_LOOP('',(#20,#30,#38,#46,#55,#63,#72,#80,#88,#96,#104,#112));
#20 = ORIENTED_EDGE('',*,*,#21,.F.);
#21 = EDGE_CURVE('',#22,#24,#26,.T.);
#22 = VERTEX_POINT('',#23);
#23 = CARTESIAN_POINT('',(-23.74138126514,25.,30.417106129996));
#24 = VERTEX_POINT('',#25);
#25 = CARTESIAN_POINT('',(-23.74138126514,22.,30.417106129996));
#26 = LINE('',#27,#28);
#27 = CARTESIAN_POINT('',(-23.74138126514,25.,30.417106129996));
#28 = VECTOR('',#29,1.);
#29 = DIRECTION('',(0.,-1.,2.22044604925E-16));
#30 = ORIENTED_EDGE('',*,*,#31,.F.);
#31 = EDGE_CURVE('',#32,#22,#34,.T.);
#32 = VERTEX_POINT('',#33);
#33 = CARTESIAN_POINT('',(-23.74138126514,25.,44.417106129996));
#34 = LINE('',#35,#36);
#35 = CARTESIAN_POINT('',(-23.74138126514,25.,44.417106129996));
#36 = VECTOR('',#37,1.);
#37 = DIRECTION('',(0.,0.,-1.));
#38 = ORIENTED_EDGE('',*,*,#39,.F.);
#39 = EDGE_CURVE('',#40,#32,#42,.T.);
#40 = VERTEX_POINT('',#41);
#41 = CARTESIAN_POINT('',(-23.74138126514,19.428203230276,
    44.417106129996));
#42 = LINE('',#43,#44);
#43 = CARTESIAN_POINT('',(-23.74138126514,19.428203230276,
    44.417106129996));
#44 = VECTOR('',#45,1.);
#45 = DIRECTION('',(0.,1.,0.));
#46 = ORIENTED_EDGE('',*,*,#47,.F.);
#47 = EDGE_CURVE('',#48,#40,#50,.T.);
#48 = VERTEX_POINT('',#49);
#49 = CARTESIAN_POINT('',(-23.74138126514,13.,28.430273149491));
#50 = CIRCLE('',#51,9.5);
#51 = AXIS2_PLACEMENT_3D('',#52,#53,#54);
#52 = CARTESIAN_POINT('',(-23.74138126514,12.5,37.917106129996));
#53 = DIRECTION('',(1.,0.,0.));
#54 = DIRECTION('',(0.,1.,0.));
#55 = ORIENTED_EDGE('',*,*,#56,.F.);
#56 = EDGE_CURVE('',#57,#48,#59,.T.);
#57 = VERTEX_POINT('',#58);
#58 = CARTESIAN_POINT('',(-23.74138126514,13.,24.403939110501));
#59 = LINE('',#60,#61);
#60 = CARTESIAN_POINT('',(-23.74138126514,13.,24.403939110501));
#61 = VECTOR('',#62,1.);
#62 = DIRECTION('',(0.,-4.411846662991E-16,1.));
#63 = ORIENTED_EDGE('',*,*,#64,.F.);
#64 = EDGE_CURVE('',#65,#57,#67,.T.);
#65 = VERTEX_POINT('',#66);
#66 = CARTESIAN_POINT('',(-23.74138126514,19.428203230276,8.417106129996
    ));
#67 = CIRCLE('',#68,9.5);
#68 = AXIS2_PLACEMENT_3D('',#69,#70,#71);
#69 = CARTESIAN_POINT('',(-23.74138126514,12.5,14.917106129996));
#70 = DIRECTION('',(1.,0.,0.));
#71 = DIRECTION('',(0.,1.,0.));
#72 = ORIENTED_EDGE('',*,*,#73,.F.);
#73 = EDGE_CURVE('',#74,#65,#76,.T.);
#74 = VERTEX_POINT('',#75);
#75 = CARTESIAN_POINT('',(-23.74138126514,25.,8.417106129996));
#76 = LINE('',#77,#78);
#77 = CARTESIAN_POINT('',(-23.74138126514,25.,8.417106129996));
#78 = VECTOR('',#79,1.);
#79 = DIRECTION('',(0.,-1.,0.));
#80 = ORIENTED_EDGE('',*,*,#81,.F.);
#81 = EDGE_CURVE('',#82,#74,#84,.T.);
#82 = VERTEX_POINT('',#83);
#83 = CARTESIAN_POINT('',(-23.74138126514,25.,22.417106129996));
#84 = LINE('',#85,#86);
#85 = CARTESIAN_POINT('',(-23.74138126514,25.,44.417106129996));
#86 = VECTOR('',#87,1.);
#87 = DIRECTION('',(0.,0.,-1.));
#88 = ORIENTED_EDGE('',*,*,#89,.T.);
#89 = EDGE_CURVE('',#82,#90,#92,.T.);
#90 = VERTEX_POINT('',#91);
#91 = CARTESIAN_POINT('',(-23.74138126514,22.,22.417106129996));
#92 = LINE('',#93,#94);
#93 = CARTESIAN_POINT('',(-23.74138126514,25.,22.417106129996));
#94 = VECTOR('',#95,1.);
#95 = DIRECTION('',(0.,-1.,2.22044604925E-16));
#96 = ORIENTED_EDGE('',*,*,#97,.F.);
#97 = EDGE_CURVE('',#98,#90,#100,.T.);
#98 = VERTEX_POINT('',#99);
#99 = CARTESIAN_POINT('',(-23.74138126514,20.,24.417106129996));
#100 = LINE('',#101,#102);
#101 = CARTESIAN_POINT('',(-23.74138126514,20.382320037732,
    24.034786092264));
#102 = VECTOR('',#103,1.);
#103 = DIRECTION('',(0.,0.707106781187,-0.707106781187));
#104 = ORIENTED_EDGE('',*,*,#105,.T.);
#105 = EDGE_CURVE('',#98,#106,#108,.T.);
#106 = VERTEX_POINT('',#107);
#107 = CARTESIAN_POINT('',(-23.74138126514,20.,28.417106129996));
#108 = LINE('',#109,#110);
#109 = CARTESIAN_POINT('',(-23.74138126514,20.,22.417106129996));
#110 = VECTOR('',#111,1.);
#111 = DIRECTION('',(0.,2.22044604925E-16,1.));
#112 = ORIENTED_EDGE('',*,*,#113,.F.);
#113 = EDGE_CURVE('',#24,#106,#114,.T.);
#114 = LINE('',#115,#116);
#115 = CARTESIAN_POINT('',(-23.74138126514,20.382320037732,
    28.799426167728));
#116 = VECTOR('',#117,1.);
#117 = DIRECTION('',(0.,-0.707106781187,-0.707106781187));
#118 = PLANE('',#119);
#119 = AXIS2_PLACEMENT_3D('',#120,#121,#122);
#120 = CARTESIAN_POINT('',(-23.74138126514,21.529280150927,
    26.417106129996));
#121 = DIRECTION('',(1.,0.,0.));
#122 = DIRECTION('',(0.,0.,1.));
#123 = ADVANCED_FACE('',(#124),#149,.F.);
#124 = FACE_BOUND('',#125,.F.);
#125 = EDGE_LOOP('',(#126,#127,#135,#143));
#126 = ORIENTED_EDGE('',*,*,#21,.T.);
#127 = ORIENTED_EDGE('',*,*,#128,.T.);
#128 = EDGE_CURVE('',#24,#129,#131,.T.);
#129 = VERTEX_POINT('',#130);
#130 = CARTESIAN_POINT('',(-18.74138126514,22.,30.417106129996));
#131 = LINE('',#132,#133);
#132 = CARTESIAN_POINT('',(-23.74138126514,22.,30.417106129996));
#133 = VECTOR('',#134,1.);
#134 = DIRECTION('',(1.,0.,0.));
#135 = ORIENTED_EDGE('',*,*,#136,.F.);
#136 = EDGE_CURVE('',#137,#129,#139,.T.);
#137 = VERTEX_POINT('',#138);
#138 = CARTESIAN_POINT('',(-18.74138126514,25.,30.417106129996));
#139 = LINE('',#140,#141);
#140 = CARTESIAN_POINT('',(-18.74138126514,25.,30.417106129996));
#141 = VECTOR('',#142,1.);
#142 = DIRECTION('',(0.,-1.,2.22044604925E-16));
#143 = ORIENTED_EDGE('',*,*,#144,.F.);
#144 = EDGE_CURVE('',#22,#137,#145,.T.);
#145 = LINE('',#146,#147);
#146 = CARTESIAN_POINT('',(-23.74138126514,25.,30.417106129996));
#147 = VECTOR('',#148,1.);
#148 = DIRECTION('',(1.,0.,0.));
#149 = PLANE('',#150);
#150 = AXIS2_PLACEMENT_3D('',#151,#152,#153);
#151 = CARTESIAN_POINT('',(-23.74138126514,25.,30.417106129996));
#152 = DIRECTION('',(0.,2.22044604925E-16,1.));
#153 = DIRECTION('',(1.,0.,0.));
#154 = ADVANCED_FACE('',(#155),#173,.T.);
#155 = FACE_BOUND('',#156,.T.);
#156 = EDGE_LOOP('',(#157,#158,#159,#167));
#157 = ORIENTED_EDGE('',*,*,#113,.F.);
#158 = ORIENTED_EDGE('',*,*,#128,.T.);
#159 = ORIENTED_EDGE('',*,*,#160,.T.);
#160 = EDGE_CURVE('',#129,#161,#163,.T.);
#161 = VERTEX_POINT('',#162);
#162 = CARTESIAN_POINT('',(-18.74138126514,20.,28.417106129996));
#163 = LINE('',#164,#165);
#164 = CARTESIAN_POINT('',(-18.74138126514,20.382320037732,
    28.799426167728));
#165 = VECTOR('',#166,1.);
#166 = DIRECTION('',(0.,-0.707106781187,-0.707106781187));
#167 = ORIENTED_EDGE('',*,*,#168,.F.);
#168 = EDGE_CURVE('',#106,#161,#169,.T.);
#169 = LINE('',#170,#171);
#170 = CARTESIAN_POINT('',(-23.74138126514,20.,28.417106129996));
#171 = VECTOR('',#172,1.);
#172 = DIRECTION('',(1.,0.,0.));
#173 = PLANE('',#174);
#174 = AXIS2_PLACEMENT_3D('',#175,#176,#177);
#175 = CARTESIAN_POINT('',(-23.74138126514,21.,29.417106129996));
#176 = DIRECTION('',(0.,0.707106781187,-0.707106781187));
#177 = DIRECTION('',(1.,0.,0.));
#178 = ADVANCED_FACE('',(#179),#197,.T.);
#179 = FACE_BOUND('',#180,.T.);
#180 = EDGE_LOOP('',(#181,#182,#190,#196));
#181 = ORIENTED_EDGE('',*,*,#31,.F.);
#182 = ORIENTED_EDGE('',*,*,#183,.T.);
#183 = EDGE_CURVE('',#32,#184,#186,.T.);
#184 = VERTEX_POINT('',#185);
#185 = CARTESIAN_POINT('',(-18.74138126514,25.,44.417106129996));
#186 = LINE('',#187,#188);
#187 = CARTESIAN_POINT('',(-23.74138126514,25.,44.417106129996));
#188 = VECTOR('',#189,1.);
#189 = DIRECTION('',(1.,0.,0.));
#190 = ORIENTED_EDGE('',*,*,#191,.T.);
#191 = EDGE_CURVE('',#184,#137,#192,.T.);
#192 = LINE('',#193,#194);
#193 = CARTESIAN_POINT('',(-18.74138126514,25.,44.417106129996));
#194 = VECTOR('',#195,1.);
#195 = DIRECTION('',(0.,0.,-1.));
#196 = ORIENTED_EDGE('',*,*,#144,.F.);
#197 = PLANE('',#198);
#198 = AXIS2_PLACEMENT_3D('',#199,#200,#201);
#199 = CARTESIAN_POINT('',(-23.74138126514,25.,44.417106129996));
#200 = DIRECTION('',(0.,1.,0.));
#201 = DIRECTION('',(0.,0.,-1.));
#202 = ADVANCED_FACE('',(#203,#221),#232,.T.);
#203 = FACE_BOUND('',#204,.T.);
#204 = EDGE_LOOP('',(#205,#213,#219,#220));
#205 = ORIENTED_EDGE('',*,*,#206,.T.);
#206 = EDGE_CURVE('',#161,#207,#209,.T.);
#207 = VERTEX_POINT('',#208);
#208 = CARTESIAN_POINT('',(-18.74138126514,20.,24.417106129996));
#209 = LINE('',#210,#211);
#210 = CARTESIAN_POINT('',(-18.74138126514,20.,30.417106129996));
#211 = VECTOR('',#212,1.);
#212 = DIRECTION('',(0.,-2.22044604925E-16,-1.));
#213 = ORIENTED_EDGE('',*,*,#214,.T.);
#214 = EDGE_CURVE('',#207,#98,#215,.T.);
#215 = LINE('',#216,#217);
#216 = CARTESIAN_POINT('',(-18.74138126514,20.,24.417106129996));
#217 = VECTOR('',#218,1.);
#218 = DIRECTION('',(-1.,0.,0.));
#219 = ORIENTED_EDGE('',*,*,#105,.T.);
#220 = ORIENTED_EDGE('',*,*,#168,.T.);
#221 = FACE_BOUND('',#222,.T.);
#222 = EDGE_LOOP('',(#223));
#223 = ORIENTED_EDGE('',*,*,#224,.T.);
#224 = EDGE_CURVE('',#225,#225,#227,.T.);
#225 = VERTEX_POINT('',#226);
#226 = CARTESIAN_POINT('',(-19.74138126514,20.,26.417106129996));
#227 = CIRCLE('',#228,1.5);
#228 = AXIS2_PLACEMENT_3D('',#229,#230,#231);
#229 = CARTESIAN_POINT('',(-21.24138126514,20.,26.417106129996));
#230 = DIRECTION('',(0.,-1.,2.22044604925E-16));
#231 = DIRECTION('',(1.,0.,0.));
#232 = PLANE('',#233);
#233 = AXIS2_PLACEMENT_3D('',#234,#235,#236);
#234 = CARTESIAN_POINT('',(-21.24138126514,20.,26.417106129996));
#235 = DIRECTION('',(0.,1.,-4.440892098501E-16));
#236 = DIRECTION('',(0.,4.440892098501E-16,1.));
#237 = ADVANCED_FACE('',(#238),#256,.T.);
#238 = FACE_BOUND('',#239,.T.);
#239 = EDGE_LOOP('',(#240,#248,#254,#255));
#240 = ORIENTED_EDGE('',*,*,#241,.T.);
#241 = EDGE_CURVE('',#40,#242,#244,.T.);
#242 = VERTEX_POINT('',#243);
#243 = CARTESIAN_POINT('',(-18.74138126514,19.428203230276,
    44.417106129996));
#244 = LINE('',#245,#246);
#245 = CARTESIAN_POINT('',(-23.74138126514,19.428203230276,
    44.417106129996));
#246 = VECTOR('',#247,1.);
#247 = DIRECTION('',(1.,0.,0.));
#248 = ORIENTED_EDGE('',*,*,#249,.T.);
#249 = EDGE_CURVE('',#242,#184,#250,.T.);
#250 = LINE('',#251,#252);
#251 = CARTESIAN_POINT('',(-18.74138126514,19.428203230276,
    44.417106129996));
#252 = VECTOR('',#253,1.);
#253 = DIRECTION('',(0.,1.,0.));
#254 = ORIENTED_EDGE('',*,*,#183,.F.);
#255 = ORIENTED_EDGE('',*,*,#39,.F.);
#256 = PLANE('',#257);
#257 = AXIS2_PLACEMENT_3D('',#258,#259,#260);
#258 = CARTESIAN_POINT('',(-23.74138126514,19.428203230276,
    44.417106129996));
#259 = DIRECTION('',(0.,0.,1.));
#260 = DIRECTION('',(0.,1.,0.));
#261 = ADVANCED_FACE('',(#262),#280,.T.);
#262 = FACE_BOUND('',#263,.F.);
#263 = EDGE_LOOP('',(#264,#272,#273,#274));
#264 = ORIENTED_EDGE('',*,*,#265,.F.);
#265 = EDGE_CURVE('',#207,#266,#268,.T.);
#266 = VERTEX_POINT('',#267);
#267 = CARTESIAN_POINT('',(-18.74138126514,22.,22.417106129996));
#268 = LINE('',#269,#270);
#269 = CARTESIAN_POINT('',(-18.74138126514,20.382320037732,
    24.034786092264));
#270 = VECTOR('',#271,1.);
#271 = DIRECTION('',(0.,0.707106781187,-0.707106781187));
#272 = ORIENTED_EDGE('',*,*,#214,.T.);
#273 = ORIENTED_EDGE('',*,*,#97,.T.);
#274 = ORIENTED_EDGE('',*,*,#275,.F.);
#275 = EDGE_CURVE('',#266,#90,#276,.T.);
#276 = LINE('',#277,#278);
#277 = CARTESIAN_POINT('',(-18.74138126514,22.,22.417106129996));
#278 = VECTOR('',#279,1.);
#279 = DIRECTION('',(-1.,0.,0.));
#280 = PLANE('',#281);
#281 = AXIS2_PLACEMENT_3D('',#282,#283,#284);
#282 = CARTESIAN_POINT('',(-18.74138126514,21.,23.417106129996));
#283 = DIRECTION('',(0.,0.707106781187,0.707106781187));
#284 = DIRECTION('',(1.,-0.,-0.));
#285 = ADVANCED_FACE('',(#286),#305,.F.);
#286 = FACE_BOUND('',#287,.T.);
#287 = EDGE_LOOP('',(#288,#296,#303,#304));
#288 = ORIENTED_EDGE('',*,*,#289,.T.);
#289 = EDGE_CURVE('',#48,#290,#292,.T.);
#290 = VERTEX_POINT('',#291);
#291 = CARTESIAN_POINT('',(-18.74138126514,13.,28.430273149491));
#292 = LINE('',#293,#294);
#293 = CARTESIAN_POINT('',(-23.74138126514,13.,28.430273149491));
#294 = VECTOR('',#295,1.);
#295 = DIRECTION('',(1.,0.,0.));
#296 = ORIENTED_EDGE('',*,*,#297,.T.);
#297 = EDGE_CURVE('',#290,#242,#298,.T.);
#298 = CIRCLE('',#299,9.5);
#299 = AXIS2_PLACEMENT_3D('',#300,#301,#302);
#300 = CARTESIAN_POINT('',(-18.74138126514,12.5,37.917106129996));
#301 = DIRECTION('',(1.,0.,0.));
#302 = DIRECTION('',(0.,1.,0.));
#303 = ORIENTED_EDGE('',*,*,#241,.F.);
#304 = ORIENTED_EDGE('',*,*,#47,.F.);
#305 = CYLINDRICAL_SURFACE('',#306,9.5);
#306 = AXIS2_PLACEMENT_3D('',#307,#308,#309);
#307 = CARTESIAN_POINT('',(-23.74138126514,12.5,37.917106129996));
#308 = DIRECTION('',(-1.,-0.,-0.));
#309 = DIRECTION('',(0.,1.,0.));
#310 = ADVANCED_FACE('',(#311),#329,.F.);
#311 = FACE_BOUND('',#312,.F.);
#312 = EDGE_LOOP('',(#313,#321,#322,#323));
#313 = ORIENTED_EDGE('',*,*,#314,.T.);
#314 = EDGE_CURVE('',#315,#266,#317,.T.);
#315 = VERTEX_POINT('',#316);
#316 = CARTESIAN_POINT('',(-18.74138126514,25.,22.417106129996));
#317 = LINE('',#318,#319);
#318 = CARTESIAN_POINT('',(-18.74138126514,25.,22.417106129996));
#319 = VECTOR('',#320,1.);
#320 = DIRECTION('',(0.,-1.,2.22044604925E-16));
#321 = ORIENTED_EDGE('',*,*,#275,.T.);
#322 = ORIENTED_EDGE('',*,*,#89,.F.);
#323 = ORIENTED_EDGE('',*,*,#324,.F.);
#324 = EDGE_CURVE('',#315,#82,#325,.T.);
#325 = LINE('',#326,#327);
#326 = CARTESIAN_POINT('',(-18.74138126514,25.,22.417106129996));
#327 = VECTOR('',#328,1.);
#328 = DIRECTION('',(-1.,0.,0.));
#329 = PLANE('',#330);
#330 = AXIS2_PLACEMENT_3D('',#331,#332,#333);
#331 = CARTESIAN_POINT('',(-18.74138126514,25.,22.417106129996));
#332 = DIRECTION('',(-0.,-2.22044604925E-16,-1.));
#333 = DIRECTION('',(-1.,0.,0.));
#334 = ADVANCED_FACE('',(#335,#353),#364,.T.);
#335 = FACE_BOUND('',#336,.T.);
#336 = EDGE_LOOP('',(#337,#345,#351,#352));
#337 = ORIENTED_EDGE('',*,*,#338,.T.);
#338 = EDGE_CURVE('',#57,#339,#341,.T.);
#339 = VERTEX_POINT('',#340);
#340 = CARTESIAN_POINT('',(-18.74138126514,13.,24.403939110501));
#341 = LINE('',#342,#343);
#342 = CARTESIAN_POINT('',(-23.74138126514,13.,24.403939110501));
#343 = VECTOR('',#344,1.);
#344 = DIRECTION('',(1.,0.,0.));
#345 = ORIENTED_EDGE('',*,*,#346,.T.);
#346 = EDGE_CURVE('',#339,#290,#347,.T.);
#347 = LINE('',#348,#349);
#348 = CARTESIAN_POINT('',(-18.74138126514,13.,24.403939110501));
#349 = VECTOR('',#350,1.);
#350 = DIRECTION('',(0.,-4.411846662991E-16,1.));
#351 = ORIENTED_EDGE('',*,*,#289,.F.);
#352 = ORIENTED_EDGE('',*,*,#56,.F.);
#353 = FACE_BOUND('',#354,.T.);
#354 = EDGE_LOOP('',(#355));
#355 = ORIENTED_EDGE('',*,*,#356,.F.);
#356 = EDGE_CURVE('',#357,#357,#359,.T.);
#357 = VERTEX_POINT('',#358);
#358 = CARTESIAN_POINT('',(-19.74138126514,13.,26.417106129996));
#359 = CIRCLE('',#360,1.5);
#360 = AXIS2_PLACEMENT_3D('',#361,#362,#363);
#361 = CARTESIAN_POINT('',(-21.24138126514,13.,26.417106129996));
#362 = DIRECTION('',(0.,-1.,2.22044604925E-16));
#363 = DIRECTION('',(1.,0.,0.));
#364 = PLANE('',#365);
#365 = AXIS2_PLACEMENT_3D('',#366,#367,#368);
#366 = CARTESIAN_POINT('',(-23.74138126514,13.,24.403939110501));
#367 = DIRECTION('',(0.,-1.,-4.411846662991E-16));
#368 = DIRECTION('',(0.,-4.411846662991E-16,1.));
#369 = ADVANCED_FACE('',(#370),#388,.T.);
#370 = FACE_BOUND('',#371,.T.);
#371 = EDGE_LOOP('',(#372,#373,#374,#382));
#372 = ORIENTED_EDGE('',*,*,#81,.F.);
#373 = ORIENTED_EDGE('',*,*,#324,.F.);
#374 = ORIENTED_EDGE('',*,*,#375,.T.);
#375 = EDGE_CURVE('',#315,#376,#378,.T.);
#376 = VERTEX_POINT('',#377);
#377 = CARTESIAN_POINT('',(-18.74138126514,25.,8.417106129996));
#378 = LINE('',#379,#380);
#379 = CARTESIAN_POINT('',(-18.74138126514,25.,44.417106129996));
#380 = VECTOR('',#381,1.);
#381 = DIRECTION('',(0.,0.,-1.));
#382 = ORIENTED_EDGE('',*,*,#383,.F.);
#383 = EDGE_CURVE('',#74,#376,#384,.T.);
#384 = LINE('',#385,#386);
#385 = CARTESIAN_POINT('',(-23.74138126514,25.,8.417106129996));
#386 = VECTOR('',#387,1.);
#387 = DIRECTION('',(1.,0.,0.));
#388 = PLANE('',#389);
#389 = AXIS2_PLACEMENT_3D('',#390,#391,#392);
#390 = CARTESIAN_POINT('',(-23.74138126514,25.,44.417106129996));
#391 = DIRECTION('',(0.,1.,0.));
#392 = DIRECTION('',(0.,0.,-1.));
#393 = ADVANCED_FACE('',(#394),#413,.F.);
#394 = FACE_BOUND('',#395,.T.);
#395 = EDGE_LOOP('',(#396,#404,#411,#412));
#396 = ORIENTED_EDGE('',*,*,#397,.T.);
#397 = EDGE_CURVE('',#65,#398,#400,.T.);
#398 = VERTEX_POINT('',#399);
#399 = CARTESIAN_POINT('',(-18.74138126514,19.428203230276,
    8.417106129996));
#400 = LINE('',#401,#402);
#401 = CARTESIAN_POINT('',(-23.74138126514,19.428203230276,
    8.417106129996));
#402 = VECTOR('',#403,1.);
#403 = DIRECTION('',(1.,0.,0.));
#404 = ORIENTED_EDGE('',*,*,#405,.T.);
#405 = EDGE_CURVE('',#398,#339,#406,.T.);
#406 = CIRCLE('',#407,9.5);
#407 = AXIS2_PLACEMENT_3D('',#408,#409,#410);
#408 = CARTESIAN_POINT('',(-18.74138126514,12.5,14.917106129996));
#409 = DIRECTION('',(1.,0.,0.));
#410 = DIRECTION('',(0.,1.,0.));
#411 = ORIENTED_EDGE('',*,*,#338,.F.);
#412 = ORIENTED_EDGE('',*,*,#64,.F.);
#413 = CYLINDRICAL_SURFACE('',#414,9.5);
#414 = AXIS2_PLACEMENT_3D('',#415,#416,#417);
#415 = CARTESIAN_POINT('',(-23.74138126514,12.5,14.917106129996));
#416 = DIRECTION('',(-1.,-0.,-0.));
#417 = DIRECTION('',(0.,1.,0.));
#418 = ADVANCED_FACE('',(#419),#430,.T.);
#419 = FACE_BOUND('',#420,.T.);
#420 = EDGE_LOOP('',(#421,#422,#428,#429));
#421 = ORIENTED_EDGE('',*,*,#383,.T.);
#422 = ORIENTED_EDGE('',*,*,#423,.T.);
#423 = EDGE_CURVE('',#376,#398,#424,.T.);
#424 = LINE('',#425,#426);
#425 = CARTESIAN_POINT('',(-18.74138126514,25.,8.417106129996));
#426 = VECTOR('',#427,1.);
#427 = DIRECTION('',(0.,-1.,0.));
#428 = ORIENTED_EDGE('',*,*,#397,.F.);
#429 = ORIENTED_EDGE('',*,*,#73,.F.);
#430 = PLANE('',#431);
#431 = AXIS2_PLACEMENT_3D('',#432,#433,#434);
#432 = CARTESIAN_POINT('',(-23.74138126514,25.,8.417106129996));
#433 = DIRECTION('',(0.,0.,-1.));
#434 = DIRECTION('',(0.,-1.,0.));
#435 = ADVANCED_FACE('',(#436),#450,.T.);
#436 = FACE_BOUND('',#437,.T.);
#437 = EDGE_LOOP('',(#438,#439,#440,#441,#442,#443,#444,#445,#446,#447,
    #448,#449));
#438 = ORIENTED_EDGE('',*,*,#136,.F.);
#439 = ORIENTED_EDGE('',*,*,#191,.F.);
#440 = ORIENTED_EDGE('',*,*,#249,.F.);
#441 = ORIENTED_EDGE('',*,*,#297,.F.);
#442 = ORIENTED_EDGE('',*,*,#346,.F.);
#443 = ORIENTED_EDGE('',*,*,#405,.F.);
#444 = ORIENTED_EDGE('',*,*,#423,.F.);
#445 = ORIENTED_EDGE('',*,*,#375,.F.);
#446 = ORIENTED_EDGE('',*,*,#314,.T.);
#447 = ORIENTED_EDGE('',*,*,#265,.F.);
#448 = ORIENTED_EDGE('',*,*,#206,.F.);
#449 = ORIENTED_EDGE('',*,*,#160,.F.);
#450 = PLANE('',#451);
#451 = AXIS2_PLACEMENT_3D('',#452,#453,#454);
#452 = CARTESIAN_POINT('',(-18.74138126514,21.529280150927,
    26.417106129996));
#453 = DIRECTION('',(1.,0.,0.));
#454 = DIRECTION('',(0.,0.,1.));
#455 = ADVANCED_FACE('',(#456),#467,.F.);
#456 = FACE_BOUND('',#457,.F.);
#457 = EDGE_LOOP('',(#458,#459,#465,#466));
#458 = ORIENTED_EDGE('',*,*,#356,.F.);
#459 = ORIENTED_EDGE('',*,*,#460,.T.);
#460 = EDGE_CURVE('',#357,#225,#461,.T.);
#461 = LINE('',#462,#463);
#462 = CARTESIAN_POINT('',(-19.74138126514,13.,26.417106129996));
#463 = VECTOR('',#464,1.);
#464 = DIRECTION('',(0.,1.,-2.22044604925E-16));
#465 = ORIENTED_EDGE('',*,*,#224,.T.);
#466 = ORIENTED_EDGE('',*,*,#460,.F.);
#467 = CYLINDRICAL_SURFACE('',#468,1.5);
#468 = AXIS2_PLACEMENT_3D('',#469,#470,#471);
#469 = CARTESIAN_POINT('',(-21.24138126514,13.,26.417106129996));
#470 = DIRECTION('',(0.,-1.,2.22044604925E-16));
#471 = DIRECTION('',(1.,0.,0.));
#472 = ( GEOMETRIC_REPRESENTATION_CONTEXT(3) 
GLOBAL_UNCERTAINTY_ASSIGNED_CONTEXT((#476)) GLOBAL_UNIT_ASSIGNED_CONTEXT
((#473,#474,#475)) REPRESENTATION_CONTEXT('Context #1',
  '3D Context with UNIT and UNCERTAINTY') );
#473 = ( LENGTH_UNIT() NAMED_UNIT(*) SI_UNIT(.MILLI.,.METRE.) );
#474 = ( NAMED_UNIT(*) PLANE_ANGLE_UNIT() SI_UNIT($,.RADIAN.) );
#475 = ( NAMED_UNIT(*) SI_UNIT($,.STERADIAN.) SOLID_ANGLE_UNIT() );
#476 = UNCERTAINTY_MEASURE_WITH_UNIT(LENGTH_MEASURE(1.E-07),#473,
  'distance_accuracy_value','confusion accuracy');
#477 = PRODUCT_RELATED_PRODUCT_CATEGORY('part',$,(#7));
#478 = MECHANICAL_DESIGN_GEOMETRIC_PRESENTATION_REPRESENTATION('',(#479)
  ,#472);
#479 = STYLED_ITEM('color',(#480),#15);
#480 = PRESENTATION_STYLE_ASSIGNMENT((#481,#487));
#481 = SURFACE_STYLE_USAGE(.BOTH.,#482);
#482 = SURFACE_SIDE_STYLE('',(#483));
#483 = SURFACE_STYLE_FILL_AREA(#484);
#484 = FILL_AREA_STYLE('',(#485));
#485 = FILL_AREA_STYLE_COLOUR('',#486);
#486 = COLOUR_RGB('',0.447059003357,0.474510015008,0.501960993452);
#487 = CURVE_STYLE('',#488,POSITIVE_LENGTH_MEASURE(0.1),#489);
#488 = DRAUGHTING_PRE_DEFINED_CURVE_FONT('continuous');
#489 = COLOUR_RGB('',9.803921802644E-02,9.803921802644E-02,
  9.803921802644E-02);
ENDSEC;
END-ISO-10303-21;
