  0
SECTION
  2
HEADER
  9
$ACADVER
  1
AC1032
  9
$ACADMAINTVER
 90
      329
  9
$DWGCODEPAGE
  3
ANSI_1252
  9
$LASTSAVEDBY
  1
arzu
  9
$REQUIREDVERSIONS
160
                 0
  9
$INSBASE
 10
0.0
 20
0.0
 30
0.0
  9
$EXTMIN
 10
-1145.0
 20
-105.0000000000012
 30
0.0
  9
$EXTMAX
 10
-149.2289035948795
 20
198.8898175055851
 30
0.0
  9
$LIMMIN
 10
0.0
 20
0.0
  9
$LIMMAX
 10
12.0
 20
9.0
  9
$ORTHOMODE
 70
     0
  9
$REGENMODE
 70
     1
  9
$FILLMODE
 70
     1
  9
$QTEXTMODE
 70
     0
  9
$MIRRTEXT
 70
     1
  9
$LTSCALE
 40
1.0
  9
$ATTMODE
 70
     1
  9
$TEXTSIZE
 40
0.2
  9
$TRACEWID
 40
0.05
  9
$TEXTSTYLE
  7
Standard
  9
$CLAYER
  8
0
  9
$CELTYPE
  6
ByLayer
  9
$CECOLOR
 62
   256
  9
$CELTSCALE
 40
1.0
  9
$DISPSILH
 70
     0
  9
$DIMSCALE
 40
1.0
  9
$DIMASZ
 40
0.18
  9
$DIMEXO
 40
0.0625
  9
$DIMDLI
 40
0.38
  9
$DIMRND
 40
0.0
  9
$DIMDLE
 40
0.0
  9
$DIMEXE
 40
0.18
  9
$DIMTP
 40
0.0
  9
$DIMTM
 40
0.0
  9
$DIMTXT
 40
0.18
  9
$DIMCEN
 40
0.09
  9
$DIMTSZ
 40
0.0
  9
$DIMTOL
 70
     0
  9
$DIMLIM
 70
     0
  9
$DIMTIH
 70
     1
  9
$DIMTOH
 70
     1
  9
$DIMSE1
 70
     0
  9
$DIMSE2
 70
     0
  9
$DIMTAD
 70
     0
  9
$DIMZIN
 70
     0
  9
$DIMBLK
  1

  9
$DIMASO
 70
     1
  9
$DIMSHO
 70
     1
  9
$DIMPOST
  1

  9
$DIMAPOST
  1

  9
$DIMALT
 70
     0
  9
$DIMALTD
 70
     2
  9
$DIMALTF
 40
25.4
  9
$DIMLFAC
 40
1.0
  9
$DIMTOFL
 70
     0
  9
$DIMTVP
 40
0.0
  9
$DIMTIX
 70
     0
  9
$DIMSOXD
 70
     0
  9
$DIMSAH
 70
     0
  9
$DIMBLK1
  1

  9
$DIMBLK2
  1

  9
$DIMSTYLE
  2
STANDARD_ACAD
  9
$DIMCLRD
 70
     0
  9
$DIMCLRE
 70
     0
  9
$DIMCLRT
 70
     0
  9
$DIMTFAC
 40
1.0
  9
$DIMGAP
 40
0.09
  9
$DIMJUST
 70
     0
  9
$DIMSD1
 70
     0
  9
$DIMSD2
 70
     0
  9
$DIMTOLJ
 70
     1
  9
$DIMTZIN
 70
     0
  9
$DIMALTZ
 70
     0
  9
$DIMALTTZ
 70
     0
  9
$DIMUPT
 70
     0
  9
$DIMDEC
 70
     4
  9
$DIMTDEC
 70
     4
  9
$DIMALTU
 70
     2
  9
$DIMALTTD
 70
     2
  9
$DIMTXSTY
  7
Standard
  9
$DIMAUNIT
 70
     0
  9
$DIMADEC
 70
     0
  9
$DIMALTRND
 40
0.0
  9
$DIMAZIN
 70
     0
  9
$DIMDSEP
 70
    46
  9
$DIMATFIT
 70
     3
  9
$DIMFRAC
 70
     0
  9
$DIMLDRBLK
  1

  9
$DIMLUNIT
 70
     2
  9
$DIMLWD
 70
    -2
  9
$DIMLWE
 70
    -2
  9
$DIMTMOVE
 70
     2
  9
$DIMFXL
 40
1.0
  9
$DIMFXLON
 70
     0
  9
$DIMJOGANG
 40
0.7853981633974483
  9
$DIMTFILL
 70
     0
  9
$DIMTFILLCLR
 70
     0
  9
$DIMARCSYM
 70
     0
  9
$DIMLTYPE
  6

  9
$DIMLTEX1
  6

  9
$DIMLTEX2
  6

  9
$DIMTXTDIRECTION
 70
     0
  9
$LUNITS
 70
     2
  9
$LUPREC
 70
     3
  9
$SKETCHINC
 40
0.1
  9
$FILLETRAD
 40
0.0
  9
$AUNITS
 70
     0
  9
$AUPREC
 70
     0
  9
$MENU
  1
.
  9
$ELEVATION
 40
0.0
  9
$PELEVATION
 40
0.0
  9
$THICKNESS
 40
0.0
  9
$LIMCHECK
 70
     0
  9
$CHAMFERA
 40
0.0
  9
$CHAMFERB
 40
0.0
  9
$CHAMFERC
 40
0.0
  9
$CHAMFERD
 40
0.0
  9
$SKPOLY
 70
     0
  9
$TDCREATE
 40
2460754.652083333
  9
$TDUCREATE
 40
2460754.527090811
  9
$TDUPDATE
 40
2460762.953900463
  9
$TDUUPDATE
 40
2460762.828900463
  9
$TDINDWG
 40
0.0067592708
  9
$TDUSRTIMER
 40
0.0067592708
  9
$USRTIMER
 70
     1
  9
$ANGBASE
 50
0.0
  9
$ANGDIR
 70
     0
  9
$PDMODE
 70
     0
  9
$PDSIZE
 40
0.0
  9
$PLINEWID
 40
0.0
  9
$SPLFRAME
 70
     0
  9
$SPLINETYPE
 70
     6
  9
$SPLINESEGS
 70
     8
  9
$HANDSEED
  5
7FE
  9
$SURFTAB1
 70
     6
  9
$SURFTAB2
 70
     6
  9
$SURFTYPE
 70
     6
  9
$SURFU
 70
     6
  9
$SURFV
 70
     6
  9
$UCSBASE
  2

  9
$UCSNAME
  2

  9
$UCSORG
 10
0.0
 20
0.0
 30
0.0
  9
$UCSXDIR
 10
1.0
 20
0.0
 30
0.0
  9
$UCSYDIR
 10
0.0
 20
1.0
 30
0.0
  9
$UCSORTHOREF
  2

  9
$UCSORTHOVIEW
 70
     0
  9
$UCSORGTOP
 10
0.0
 20
0.0
 30
0.0
  9
$UCSORGBOTTOM
 10
0.0
 20
0.0
 30
0.0
  9
$UCSORGLEFT
 10
0.0
 20
0.0
 30
0.0
  9
$UCSORGRIGHT
 10
0.0
 20
0.0
 30
0.0
  9
$UCSORGFRONT
 10
0.0
 20
0.0
 30
0.0
  9
$UCSORGBACK
 10
0.0
 20
0.0
 30
0.0
  9
$PUCSBASE
  2

  9
$PUCSNAME
  2

  9
$PUCSORG
 10
0.0
 20
0.0
 30
0.0
  9
$PUCSXDIR
 10
1.0
 20
0.0
 30
0.0
  9
$PUCSYDIR
 10
0.0
 20
1.0
 30
0.0
  9
$PUCSORTHOREF
  2

  9
$PUCSORTHOVIEW
 70
     0
  9
$PUCSORGTOP
 10
0.0
 20
0.0
 30
0.0
  9
$PUCSORGBOTTOM
 10
0.0
 20
0.0
 30
0.0
  9
$PUCSORGLEFT
 10
0.0
 20
0.0
 30
0.0
  9
$PUCSORGRIGHT
 10
0.0
 20
0.0
 30
0.0
  9
$PUCSORGFRONT
 10
0.0
 20
0.0
 30
0.0
  9
$PUCSORGBACK
 10
0.0
 20
0.0
 30
0.0
  9
$USERI1
 70
     0
  9
$USERI2
 70
     0
  9
$USERI3
 70
     0
  9
$USERI4
 70
     0
  9
$USERI5
 70
     0
  9
$USERR1
 40
0.0
  9
$USERR2
 40
0.0
  9
$USERR3
 40
0.0
  9
$USERR4
 40
0.0
  9
$USERR5
 40
0.0
  9
$WORLDVIEW
 70
     1
  9
$SHADEDGE
 70
     3
  9
$SHADEDIF
 70
    70
  9
$TILEMODE
 70
     1
  9
$MAXACTVP
 70
    64
  9
$PINSBASE
 10
0.0
 20
0.0
 30
0.0
  9
$PLIMCHECK
 70
     0
  9
$PEXTMIN
 10
1.000000000000000E+20
 20
1.000000000000000E+20
 30
1.000000000000000E+20
  9
$PEXTMAX
 10
-1.000000000000000E+20
 20
-1.000000000000000E+20
 30
-1.000000000000000E+20
  9
$PLIMMIN
 10
0.0
 20
0.0
  9
$PLIMMAX
 10
12.0
 20
9.0
  9
$UNITMODE
 70
     0
  9
$VISRETAIN
 70
     1
  9
$PLINEGEN
 70
     0
  9
$PSLTSCALE
 70
     1
  9
$TREEDEPTH
 70
  3020
  9
$CMLSTYLE
  2
Standard
  9
$CMLJUST
 70
     0
  9
$CMLSCALE
 40
1.0
  9
$PROXYGRAPHICS
 70
     1
  9
$MEASUREMENT
 70
     1
  9
$CELWEIGHT
370
    -1
  9
$ENDCAPS
280
     0
  9
$JOINSTYLE
280
     0
  9
$LWDISPLAY
290
     0
  9
$INSUNITS
 70
     4
  9
$HYPERLINKBASE
  1

  9
$STYLESHEET
  1

  9
$XEDIT
290
     1
  9
$CEPSNTYPE
380
     0
  9
$PSTYLEMODE
290
     1
  9
$FINGERPRINTGUID
  2
{B2AC23AB-5FB6-4577-A5D0-5A9EF81F0740}
  9
$VERSIONGUID
  2
{A220EA3B-A597-2645-A6D0-ADEC5C82D223}
  9
$EXTNAMES
290
     1
  9
$PSVPSCALE
 40
0.0
  9
$OLESTARTUP
290
     0
  9
$SORTENTS
280
   127
  9
$INDEXCTL
280
     0
  9
$HIDETEXT
280
     1
  9
$XCLIPFRAME
280
     2
  9
$HALOGAP
280
     0
  9
$OBSCOLOR
 70
   257
  9
$OBSLTYPE
280
     0
  9
$INTERSECTIONDISPLAY
280
     0
  9
$INTERSECTIONCOLOR
 70
   257
  9
$DIMASSOC
280
     2
  9
$PROJECTNAME
  1

  9
$CAMERADISPLAY
290
     0
  9
$LENSLENGTH
 40
50.0
  9
$CAMERAHEIGHT
 40
0.0
  9
$STEPSPERSEC
 40
2.0
  9
$STEPSIZE
 40
6.0
  9
$3DDWFPREC
 40
2.0
  9
$PSOLWIDTH
 40
0.25
  9
$PSOLHEIGHT
 40
4.0
  9
$LOFTANG1
 40
1.570796326794897
  9
$LOFTANG2
 40
1.570796326794897
  9
$LOFTMAG1
 40
0.0
  9
$LOFTMAG2
 40
0.0
  9
$LOFTPARAM
 70
     7
  9
$LOFTNORMALS
280
     1
  9
$LATITUDE
 40
37.795
  9
$LONGITUDE
 40
-122.394
  9
$NORTHDIRECTION
 40
0.0
  9
$TIMEZONE
 70
 -8000
  9
$LIGHTGLYPHDISPLAY
280
     1
  9
$TILEMODELIGHTSYNCH
280
     1
  9
$CMATERIAL
347
44
  9
$SOLIDHIST
280
     0
  9
$SHOWHIST
280
     1
  9
$DWFFRAME
280
     2
  9
$DGNFRAME
280
     2
  9
$REALWORLDSCALE
290
     1
  9
$INTERFERECOLOR
 62
   256
  9
$INTERFEREOBJVS
345
33
  9
$INTERFEREVPVS
346
30
  9
$CSHADOW
280
     0
  9
$SHADOWPLANELOCATION
 40
0.0
  0
ENDSEC
  0
SECTION
  2
CLASSES
  0
CLASS
  1
ACDBDICTIONARYWDFLT
  2
AcDbDictionaryWithDefault
  3
ObjectDBX Classes
 90
        0
 91
        1
280
     0
281
     0
  0
CLASS
  1
VISUALSTYLE
  2
AcDbVisualStyle
  3
ObjectDBX Classes
 90
     4095
 91
       24
280
     0
281
     0
  0
CLASS
  1
MATERIAL
  2
AcDbMaterial
  3
ObjectDBX Classes
 90
     1153
 91
        3
280
     0
281
     0
  0
CLASS
  1
SCALE
  2
AcDbScale
  3
ObjectDBX Classes
 90
     1153
 91
       17
280
     0
281
     0
  0
CLASS
  1
TABLESTYLE
  2
AcDbTableStyle
  3
ObjectDBX Classes
 90
     4095
 91
        1
280
     0
281
     0
  0
CLASS
  1
MLEADERSTYLE
  2
AcDbMLeaderStyle
  3
ACDB_MLEADERSTYLE_CLASS
 90
     4095
 91
        1
280
     0
281
     0
  0
CLASS
  1
SUN
  2
AcDbSun
  3
SCENEOE
 90
     1153
 91
        1
280
     0
281
     0
  0
CLASS
  1
DICTIONARYVAR
  2
AcDbDictionaryVar
  3
ObjectDBX Classes
 90
        0
 91
        7
280
     0
281
     0
  0
CLASS
  1
CELLSTYLEMAP
  2
AcDbCellStyleMap
  3
ObjectDBX Classes
 90
     1152
 91
        1
280
     0
281
     0
  0
CLASS
  1
ACDBSECTIONVIEWSTYLE
  2
AcDbSectionViewStyle
  3
ObjectDBX Classes
 90
     1025
 91
        1
280
     0
281
     0
  0
CLASS
  1
ACDBDETAILVIEWSTYLE
  2
AcDbDetailViewStyle
  3
ObjectDBX Classes
 90
     1025
 91
        1
280
     0
281
     0
  0
ENDSEC
  0
SECTION
  2
TABLES
  0
TABLE
  2
VPORT
  5
8
330
0
100
AcDbSymbolTable
 70
     1
  0
VPORT
  5
29
330
8
100
AcDbSymbolTableRecord
100
AcDbViewportTableRecord
  2
*Active
 70
     0
 10
0.0
 20
0.0
 11
1.0
 21
1.0
 12
-1068.414565320986
 22
4.89327281699326
 13
0.0
 23
0.0
 14
0.5
 24
0.5
 15
0.5
 25
0.5
 16
0.0
 26
0.0
 36
1.0
 17
0.0
 27
0.0
 37
0.0
 40
665.2340648579747
 41
2.203214695752009
 42
50.0
 43
0.0
 44
0.0
 50
0.0
 51
0.0
 71
     0
 72
   100
 73
     1
 74
     3
 75
     0
 76
     0
 77
     0
 78
     0
281
     0
 65
     1
110
0.0
120
0.0
130
0.0
111
1.0
121
0.0
131
0.0
112
0.0
122
1.0
132
0.0
 79
     0
146
0.0
348
2F
 60
     3
 61
     5
292
     1
282
     1
141
0.0
142
0.0
361
5D
1001
ACAD_NAV_VCDISPLAY
1070
     3
  0
ENDTAB
  0
TABLE
  2
LTYPE
  5
5
330
0
100
AcDbSymbolTable
 70
     1
  0
LTYPE
  5
14
330
5
100
AcDbSymbolTableRecord
100
AcDbLinetypeTableRecord
  2
ByBlock
 70
     0
  3

 72
    65
 73
     0
 40
0.0
  0
LTYPE
  5
15
330
5
100
AcDbSymbolTableRecord
100
AcDbLinetypeTableRecord
  2
ByLayer
 70
     0
  3

 72
    65
 73
     0
 40
0.0
  0
LTYPE
  5
16
330
5
100
AcDbSymbolTableRecord
100
AcDbLinetypeTableRecord
  2
Continuous
 70
     0
  3
Solid line
 72
    65
 73
     0
 40
0.0
  0
ENDTAB
  0
TABLE
  2
LAYER
  5
2
102
{ACAD_XDICTIONARY
360
7D8
102
}
330
0
100
AcDbSymbolTable
 70
     1
  0
LAYER
  5
10
102
{ACAD_XDICTIONARY
360
7D3
102
}
330
2
100
AcDbSymbolTableRecord
100
AcDbLayerTableRecord
  2
0
 70
     0
 62
    18
420
        0
  6
Continuous
370
    -3
390
F
347
46
348
0
  0
ENDTAB
  0
TABLE
  2
STYLE
  5
3
330
0
100
AcDbSymbolTable
 70
     1
  0
STYLE
  5
11
330
3
100
AcDbSymbolTableRecord
100
AcDbTextStyleTableRecord
  2
Standard
 70
     0
 40
0.0
 41
1.0
 50
0.0
 71
     0
 42
0.2
  3
txt
  4

  0
ENDTAB
  0
TABLE
  2
VIEW
  5
6
330
0
100
AcDbSymbolTable
 70
     0
  0
ENDTAB
  0
TABLE
  2
UCS
  5
7
330
0
100
AcDbSymbolTable
 70
     0
  0
ENDTAB
  0
TABLE
  2
APPID
  5
9
330
0
100
AcDbSymbolTable
 70
     4
  0
APPID
  5
12
330
9
100
AcDbSymbolTableRecord
100
AcDbRegAppTableRecord
  2
ACAD
 70
     0
  0
APPID
  5
5E
330
9
100
AcDbSymbolTableRecord
100
AcDbRegAppTableRecord
  2
Rhino
 70
     0
  0
APPID
  5
7BD
330
9
100
AcDbSymbolTableRecord
100
AcDbRegAppTableRecord
  2
ACAD_MLEADERVER
 70
     0
  0
APPID
  5
7CE
330
9
100
AcDbSymbolTableRecord
100
AcDbRegAppTableRecord
  2
ACAD_NAV_VCDISPLAY
 70
     0
  0
ENDTAB
  0
TABLE
  2
DIMSTYLE
  5
A
330
0
100
AcDbSymbolTable
 70
     1
100
AcDbDimStyleTable
 71
     0
  0
DIMSTYLE
105
27
330
A
100
AcDbSymbolTableRecord
100
AcDbDimStyleTableRecord
  2
STANDARD_ACAD
 70
     0
340
11
  0
ENDTAB
  0
TABLE
  2
BLOCK_RECORD
  5
1
330
0
100
AcDbSymbolTable
 70
     1
  0
BLOCK_RECORD
  5
1F
330
1
100
AcDbSymbolTableRecord
100
AcDbBlockTableRecord
  2
*Model_Space
340
22
 70
     0
280
     1
281
     0
  0
BLOCK_RECORD
  5
1B
330
1
100
AcDbSymbolTableRecord
100
AcDbBlockTableRecord
  2
*Paper_Space
340
1E
 70
     0
280
     1
281
     0
  0
BLOCK_RECORD
  5
23
330
1
100
AcDbSymbolTableRecord
100
AcDbBlockTableRecord
  2
*Paper_Space0
340
26
 70
     0
280
     1
281
     0
  0
ENDTAB
  0
ENDSEC
  0
SECTION
  2
BLOCKS
  0
BLOCK
  5
20
330
1F
100
AcDbEntity
  8
0
100
AcDbBlockBegin
  2
*Model_Space
 70
     0
 10
0.0
 20
0.0
 30
0.0
  3
*Model_Space
  1

  0
ENDBLK
  5
21
330
1F
100
AcDbEntity
  8
0
100
AcDbBlockEnd
  0
BLOCK
  5
1C
330
1B
100
AcDbEntity
 67
     1
  8
0
100
AcDbBlockBegin
  2
*Paper_Space
 70
     0
 10
0.0
 20
0.0
 30
0.0
  3
*Paper_Space
  1

  0
ENDBLK
  5
1D
330
1B
100
AcDbEntity
 67
     1
  8
0
100
AcDbBlockEnd
  0
BLOCK
  5
24
330
23
100
AcDbEntity
 67
     1
  8
0
100
AcDbBlockBegin
  2
*Paper_Space0
 70
     0
 10
0.0
 20
0.0
 30
0.0
  3
*Paper_Space0
  1

  0
ENDBLK
  5
25
330
23
100
AcDbEntity
 67
     1
  8
0
100
AcDbBlockEnd
  0
ENDSEC
  0
SECTION
  2
ENTITIES
  0
POLYLINE
  5
41B
330
1F
100
AcDbEntity
  8
0
100
AcDb2dPolyline
 66
     1
 10
0.0
 20
0.0
 30
0.0
  0
VERTEX
  5
41C
330
41B
100
AcDbEntity
  8
0
100
AcDbVertex
100
AcDb2dVertex
 10
-1140.0
 20
-2.000000000000284
 30
0.0
  0
VERTEX
  5
41D
330
41B
100
AcDbEntity
  8
0
100
AcDbVertex
100
AcDb2dVertex
 10
-950.0000000000008
 20
-2.0
 30
0.0
  0
SEQEND
  5
41E
330
41B
100
AcDbEntity
  8
0
  0
ARC
  5
41F
330
1F
100
AcDbEntity
  8
0
100
AcDbCircle
 10
-950.0000000000003
 20
3.0
 30
0.0
 40
5.0
100
AcDbArc
 50
269.9999999999948
 51
359.9999999999947
  0
POLYLINE
  5
420
330
1F
100
AcDbEntity
  8
0
100
AcDb2dPolyline
 66
     1
 10
0.0
 20
0.0
 30
0.0
  0
VERTEX
  5
421
330
420
100
AcDbEntity
  8
0
100
AcDbVertex
100
AcDb2dVertex
 10
-945.0000000000002
 20
2.999999999999538
 30
0.0
  0
VERTEX
  5
422
330
420
100
AcDbEntity
  8
0
100
AcDbVertex
100
AcDb2dVertex
 10
-945.0000000000008
 20
193.0
 30
0.0
  0
SEQEND
  5
423
330
420
100
AcDbEntity
  8
0
  0
ARC
  5
424
330
1F
100
AcDbEntity
  8
0
100
AcDbCircle
 10
-950.0000000000008
 20
193.0
 30
0.0
 40
5.0
100
AcDbArc
 50
0.0000000000003257
 51
90.00000000000261
  0
POLYLINE
  5
425
330
1F
100
AcDbEntity
  8
0
100
AcDb2dPolyline
 66
     1
 10
0.0
 20
0.0
 30
0.0
  0
VERTEX
  5
426
330
425
100
AcDbEntity
  8
0
100
AcDbVertex
100
AcDb2dVertex
 10
-950.0000000000012
 20
198.0
 30
0.0
  0
VERTEX
  5
427
330
425
100
AcDbEntity
  8
0
100
AcDbVertex
100
AcDb2dVertex
 10
-1140.0
 20
198.0
 30
0.0
  0
SEQEND
  5
428
330
425
100
AcDbEntity
  8
0
  0
ARC
  5
429
330
1F
100
AcDbEntity
  8
0
100
AcDbCircle
 10
-1140.0
 20
193.0
 30
0.0
 40
5.0
100
AcDbArc
 50
90.0
 51
180.0
  0
POLYLINE
  5
42A
330
1F
100
AcDbEntity
  8
0
100
AcDb2dPolyline
 66
     1
 10
0.0
 20
0.0
 30
0.0
  0
VERTEX
  5
42B
330
42A
100
AcDbEntity
  8
0
100
AcDbVertex
100
AcDb2dVertex
 10
-1145.0
 20
193.0
 30
0.0
  0
VERTEX
  5
42C
330
42A
100
AcDbEntity
  8
0
100
AcDbVertex
100
AcDb2dVertex
 10
-1145.0
 20
2.999999999999723
 30
0.0
  0
SEQEND
  5
42D
330
42A
100
AcDbEntity
  8
0
  0
ARC
  5
42E
330
1F
100
AcDbEntity
  8
0
100
AcDbCircle
 10
-1140.0
 20
2.999999999999716
 30
0.0
 40
5.0
100
AcDbArc
 50
179.9999999999999
 51
269.9999999999974
  0
POLYLINE
  5
42F
330
1F
100
AcDbEntity
  8
0
100
AcDb2dPolyline
 66
     1
 10
0.0
 20
0.0
 30
0.0
 70
     1
  0
VERTEX
  5
430
330
42F
100
AcDbEntity
  8
0
100
AcDbVertex
100
AcDb2dVertex
 10
-1058.677586273364
 20
40.99168878099363
 30
0.0
  0
VERTEX
  5
431
330
42F
100
AcDbEntity
  8
0
100
AcDbVertex
100
AcDb2dVertex
 10
-1044.535450649633
 20
26.84955315726273
 30
0.0
  0
VERTEX
  5
432
330
42F
100
AcDbEntity
  8
0
100
AcDbVertex
100
AcDb2dVertex
 10
-1030.393315025902
 20
40.99168878099397
 30
0.0
  0
VERTEX
  5
433
330
42F
100
AcDbEntity
  8
0
100
AcDbVertex
100
AcDb2dVertex
 10
-1044.535450649633
 20
55.13382440472486
 30
0.0
  0
SEQEND
  5
434
330
42F
100
AcDbEntity
  8
0
  0
POLYLINE
  5
435
330
1F
100
AcDbEntity
  8
0
100
AcDb2dPolyline
 66
     1
 10
0.0
 20
0.0
 30
0.0
 70
     1
  0
VERTEX
  5
436
330
435
100
AcDbEntity
  8
0
100
AcDbVertex
100
AcDb2dVertex
 10
-1030.393315025902
 20
69.27596002845596
 30
0.0
  0
VERTEX
  5
437
330
435
100
AcDbEntity
  8
0
100
AcDbVertex
100
AcDb2dVertex
 10
-1016.25117940217
 20
55.13382440472469
 30
0.0
  0
VERTEX
  5
438
330
435
100
AcDbEntity
  8
0
100
AcDbVertex
100
AcDb2dVertex
 10
-1002.10904377844
 20
69.27596002845587
 30
0.0
  0
VERTEX
  5
439
330
435
100
AcDbEntity
  8
0
100
AcDbVertex
100
AcDb2dVertex
 10
-1016.251179402171
 20
83.4180956521868
 30
0.0
  0
SEQEND
  5
43A
330
435
100
AcDbEntity
  8
0
  0
POLYLINE
  5
43B
330
1F
100
AcDbEntity
  8
0
100
AcDb2dPolyline
 66
     1
 10
0.0
 20
0.0
 30
0.0
 70
     1
  0
VERTEX
  5
43C
330
43B
100
AcDbEntity
  8
0
100
AcDbVertex
100
AcDb2dVertex
 10
-1044.535450649633
 20
55.13382440472486
 30
0.0
  0
VERTEX
  5
43D
330
43B
100
AcDbEntity
  8
0
100
AcDbVertex
100
AcDb2dVertex
 10
-1030.393315025902
 20
40.99168878099397
 30
0.0
  0
VERTEX
  5
43E
330
43B
100
AcDbEntity
  8
0
100
AcDbVertex
100
AcDb2dVertex
 10
-1016.25117940217
 20
55.13382440472582
 30
0.0
  0
VERTEX
  5
43F
330
43B
100
AcDbEntity
  8
0
100
AcDbVertex
100
AcDb2dVertex
 10
-1030.393315025902
 20
69.27596002845596
 30
0.0
  0
SEQEND
  5
440
330
43B
100
AcDbEntity
  8
0
  0
POLYLINE
  5
441
330
1F
100
AcDbEntity
  8
0
100
AcDb2dPolyline
 66
     1
 10
0.0
 20
0.0
 30
0.0
 70
     1
  0
VERTEX
  5
442
330
441
100
AcDbEntity
  8
0
100
AcDbVertex
100
AcDb2dVertex
 10
-1072.819721897095
 20
55.13382440472492
 30
0.0
  0
VERTEX
  5
443
330
441
100
AcDbEntity
  8
0
100
AcDbVertex
100
AcDb2dVertex
 10
-1058.677586273364
 20
40.99168878099363
 30
0.0
  0
VERTEX
  5
444
330
441
100
AcDbEntity
  8
0
100
AcDbVertex
100
AcDb2dVertex
 10
-1044.535450649633
 20
55.13382440472486
 30
0.0
  0
VERTEX
  5
445
330
441
100
AcDbEntity
  8
0
100
AcDbVertex
100
AcDb2dVertex
 10
-1058.677586273364
 20
69.27596002845575
 30
0.0
  0
SEQEND
  5
446
330
441
100
AcDbEntity
  8
0
  0
POLYLINE
  5
447
330
1F
100
AcDbEntity
  8
0
100
AcDb2dPolyline
 66
     1
 10
0.0
 20
0.0
 30
0.0
 70
     1
  0
VERTEX
  5
448
330
447
100
AcDbEntity
  8
0
100
AcDbVertex
100
AcDb2dVertex
 10
-1086.961857520826
 20
69.27596002845593
 30
0.0
  0
VERTEX
  5
449
330
447
100
AcDbEntity
  8
0
100
AcDbVertex
100
AcDb2dVertex
 10
-1072.819721897095
 20
55.13382440472492
 30
0.0
  0
VERTEX
  5
44A
330
447
100
AcDbEntity
  8
0
100
AcDbVertex
100
AcDb2dVertex
 10
-1058.677586273364
 20
69.27596002845575
 30
0.0
  0
VERTEX
  5
44B
330
447
100
AcDbEntity
  8
0
100
AcDbVertex
100
AcDb2dVertex
 10
-1072.819721897095
 20
83.41809565218699
 30
0.0
  0
SEQEND
  5
44C
330
447
100
AcDbEntity
  8
0
  0
POLYLINE
  5
44D
330
1F
100
AcDbEntity
  8
0
100
AcDb2dPolyline
 66
     1
 10
0.0
 20
0.0
 30
0.0
 70
     1
  0
VERTEX
  5
44E
330
44D
100
AcDbEntity
  8
0
100
AcDbVertex
100
AcDb2dVertex
 10
-1072.819721897095
 20
83.41809565218699
 30
0.0
  0
VERTEX
  5
44F
330
44D
100
AcDbEntity
  8
0
100
AcDbVertex
100
AcDb2dVertex
 10
-1058.677586273364
 20
69.27596002845575
 30
0.0
  0
VERTEX
  5
450
330
44D
100
AcDbEntity
  8
0
100
AcDbVertex
100
AcDb2dVertex
 10
-1044.535450649633
 20
83.41809565218699
 30
0.0
  0
VERTEX
  5
451
330
44D
100
AcDbEntity
  8
0
100
AcDbVertex
100
AcDb2dVertex
 10
-1058.677586273364
 20
97.56023127591788
 30
0.0
  0
SEQEND
  5
452
330
44D
100
AcDbEntity
  8
0
  0
POLYLINE
  5
453
330
1F
100
AcDbEntity
  8
0
100
AcDb2dPolyline
 66
     1
 10
0.0
 20
0.0
 30
0.0
 70
     1
  0
VERTEX
  5
454
330
453
100
AcDbEntity
  8
0
100
AcDbVertex
100
AcDb2dVertex
 10
-1058.677586273364
 20
69.27596002845575
 30
0.0
  0
VERTEX
  5
455
330
453
100
AcDbEntity
  8
0
100
AcDbVertex
100
AcDb2dVertex
 10
-1044.535450649633
 20
55.13382440472486
 30
0.0
  0
VERTEX
  5
456
330
453
100
AcDbEntity
  8
0
100
AcDbVertex
100
AcDb2dVertex
 10
-1030.393315025902
 20
69.27596002845596
 30
0.0
  0
VERTEX
  5
457
330
453
100
AcDbEntity
  8
0
100
AcDbVertex
100
AcDb2dVertex
 10
-1044.535450649633
 20
83.41809565218699
 30
0.0
  0
SEQEND
  5
458
330
453
100
AcDbEntity
  8
0
  0
POLYLINE
  5
459
330
1F
100
AcDbEntity
  8
0
100
AcDb2dPolyline
 66
     1
 10
0.0
 20
0.0
 30
0.0
 70
     1
  0
VERTEX
  5
45A
330
459
100
AcDbEntity
  8
0
100
AcDbVertex
100
AcDb2dVertex
 10
-1044.535450649633
 20
83.41809565218699
 30
0.0
  0
VERTEX
  5
45B
330
459
100
AcDbEntity
  8
0
100
AcDbVertex
100
AcDb2dVertex
 10
-1030.393315025902
 20
69.27596002845596
 30
0.0
  0
VERTEX
  5
45C
330
459
100
AcDbEntity
  8
0
100
AcDbVertex
100
AcDb2dVertex
 10
-1016.251179402171
 20
83.4180956521868
 30
0.0
  0
VERTEX
  5
45D
330
459
100
AcDbEntity
  8
0
100
AcDbVertex
100
AcDb2dVertex
 10
-1030.393315025903
 20
97.56023127591776
 30
0.0
  0
SEQEND
  5
45E
330
459
100
AcDbEntity
  8
0
  0
POLYLINE
  5
45F
330
1F
100
AcDbEntity
  8
0
100
AcDb2dPolyline
 66
     1
 10
0.0
 20
0.0
 30
0.0
 70
     1
  0
VERTEX
  5
460
330
45F
100
AcDbEntity
  8
0
100
AcDbVertex
100
AcDb2dVertex
 10
-1058.677586273364
 20
97.56023127591788
 30
0.0
  0
VERTEX
  5
461
330
45F
100
AcDbEntity
  8
0
100
AcDbVertex
100
AcDb2dVertex
 10
-1044.535450649633
 20
83.41809565218699
 30
0.0
  0
VERTEX
  5
462
330
45F
100
AcDbEntity
  8
0
100
AcDbVertex
100
AcDb2dVertex
 10
-1030.393315025903
 20
97.56023127591776
 30
0.0
  0
VERTEX
  5
463
330
45F
100
AcDbEntity
  8
0
100
AcDbVertex
100
AcDb2dVertex
 10
-1044.535450649633
 20
111.7023668996491
 30
0.0
  0
SEQEND
  5
464
330
45F
100
AcDbEntity
  8
0
  0
POLYLINE
  5
465
330
1F
100
AcDbEntity
  8
0
100
AcDb2dPolyline
 66
     1
 10
0.0
 20
0.0
 30
0.0
 70
     1
  0
VERTEX
  5
466
330
465
100
AcDbEntity
  8
0
100
AcDbVertex
100
AcDb2dVertex
 10
-1108.175060956423
 20
104.6312990877834
 30
0.0
  0
VERTEX
  5
467
330
465
100
AcDbEntity
  8
0
100
AcDbVertex
100
AcDb2dVertex
 10
-1094.032925332691
 20
118.7734347115146
 30
0.0
  0
VERTEX
  5
468
330
465
100
AcDbEntity
  8
0
100
AcDbVertex
100
AcDb2dVertex
 10
-1086.961857520826
 20
111.7023668996482
 30
0.0
  0
VERTEX
  5
469
330
465
100
AcDbEntity
  8
0
100
AcDbVertex
100
AcDb2dVertex
 10
-1101.103993144557
 20
97.56023127591824
 30
0.0
  0
SEQEND
  5
46A
330
465
100
AcDbEntity
  8
0
  0
POLYLINE
  5
46B
330
1F
100
AcDbEntity
  8
0
100
AcDb2dPolyline
 66
     1
 10
0.0
 20
0.0
 30
0.0
 70
     1
  0
VERTEX
  5
46C
330
46B
100
AcDbEntity
  8
0
100
AcDbVertex
100
AcDb2dVertex
 10
-1122.317196580153
 20
118.7734347115141
 30
0.0
  0
VERTEX
  5
46D
330
46B
100
AcDbEntity
  8
0
100
AcDbVertex
100
AcDb2dVertex
 10
-1108.175060956423
 20
104.6312990877834
 30
0.0
  0
VERTEX
  5
46E
330
46B
100
AcDbEntity
  8
0
100
AcDbVertex
100
AcDb2dVertex
 10
-1115.246128768288
 20
97.56023127591721
 30
0.0
  0
VERTEX
  5
46F
330
46B
100
AcDbEntity
  8
0
100
AcDbVertex
100
AcDb2dVertex
 10
-1129.388264392019
 20
111.7023668996488
 30
0.0
  0
SEQEND
  5
470
330
46B
100
AcDbEntity
  8
0
  0
POLYLINE
  5
471
330
1F
100
AcDbEntity
  8
0
100
AcDb2dPolyline
 66
     1
 10
0.0
 20
0.0
 30
0.0
 70
     1
  0
VERTEX
  5
472
330
471
100
AcDbEntity
  8
0
100
AcDbVertex
100
AcDb2dVertex
 10
-1108.175060956422
 20
132.9155703352454
 30
0.0
  0
VERTEX
  5
473
330
471
100
AcDbEntity
  8
0
100
AcDbVertex
100
AcDb2dVertex
 10
-1122.317196580153
 20
118.7734347115153
 30
0.0
  0
VERTEX
  5
474
330
471
100
AcDbEntity
  8
0
100
AcDbVertex
100
AcDb2dVertex
 10
-1129.388264392019
 20
125.8445025233805
 30
0.0
  0
VERTEX
  5
475
330
471
100
AcDbEntity
  8
0
100
AcDbVertex
100
AcDb2dVertex
 10
-1115.246128768288
 20
139.9866381471107
 30
0.0
  0
SEQEND
  5
476
330
471
100
AcDbEntity
  8
0
  0
POLYLINE
  5
477
330
1F
100
AcDbEntity
  8
0
100
AcDb2dPolyline
 66
     1
 10
0.0
 20
0.0
 30
0.0
 70
     1
  0
VERTEX
  5
478
330
477
100
AcDbEntity
  8
0
100
AcDbVertex
100
AcDb2dVertex
 10
-1086.961857520825
 20
154.128773770842
 30
0.0
  0
VERTEX
  5
479
330
477
100
AcDbEntity
  8
0
100
AcDbVertex
100
AcDb2dVertex
 10
-1072.819721897095
 20
139.9866381471113
 30
0.0
  0
VERTEX
  5
47A
330
477
100
AcDbEntity
  8
0
100
AcDbVertex
100
AcDb2dVertex
 10
-1079.89078970896
 20
132.9155703352457
 30
0.0
  0
VERTEX
  5
47B
330
477
100
AcDbEntity
  8
0
100
AcDbVertex
100
AcDb2dVertex
 10
-1094.032925332691
 20
147.0577059589765
 30
0.0
  0
SEQEND
  5
47C
330
477
100
AcDbEntity
  8
0
  0
POLYLINE
  5
47D
330
1F
100
AcDbEntity
  8
0
100
AcDb2dPolyline
 66
     1
 10
0.0
 20
0.0
 30
0.0
 70
     1
  0
VERTEX
  5
47E
330
47D
100
AcDbEntity
  8
0
100
AcDbVertex
100
AcDb2dVertex
 10
-1072.819721897095
 20
139.9866381471113
 30
0.0
  0
VERTEX
  5
47F
330
47D
100
AcDbEntity
  8
0
100
AcDbVertex
100
AcDb2dVertex
 10
-1058.677586273364
 20
125.8445025233796
 30
0.0
  0
VERTEX
  5
480
330
47D
100
AcDbEntity
  8
0
100
AcDbVertex
100
AcDb2dVertex
 10
-1065.748654085229
 20
118.7734347115141
 30
0.0
  0
VERTEX
  5
481
330
47D
100
AcDbEntity
  8
0
100
AcDbVertex
100
AcDb2dVertex
 10
-1079.89078970896
 20
132.9155703352457
 30
0.0
  0
SEQEND
  5
482
330
47D
100
AcDbEntity
  8
0
  0
POLYLINE
  5
483
330
1F
100
AcDbEntity
  8
0
100
AcDb2dPolyline
 66
     1
 10
0.0
 20
0.0
 30
0.0
 70
     1
  0
VERTEX
  5
484
330
483
100
AcDbEntity
  8
0
100
AcDbVertex
100
AcDb2dVertex
 10
-1058.677586273364
 20
125.8445025233796
 30
0.0
  0
VERTEX
  5
485
330
483
100
AcDbEntity
  8
0
100
AcDbVertex
100
AcDb2dVertex
 10
-1044.535450649633
 20
111.7023668996491
 30
0.0
  0
VERTEX
  5
486
330
483
100
AcDbEntity
  8
0
100
AcDbVertex
100
AcDb2dVertex
 10
-1051.606518461498
 20
104.6312990877834
 30
0.0
  0
VERTEX
  5
487
330
483
100
AcDbEntity
  8
0
100
AcDbVertex
100
AcDb2dVertex
 10
-1065.748654085229
 20
118.7734347115141
 30
0.0
  0
SEQEND
  5
488
330
483
100
AcDbEntity
  8
0
  0
POLYLINE
  5
489
330
1F
100
AcDbEntity
  8
0
100
AcDb2dPolyline
 66
     1
 10
0.0
 20
0.0
 30
0.0
 70
     1
  0
VERTEX
  5
48A
330
489
100
AcDbEntity
  8
0
100
AcDbVertex
100
AcDb2dVertex
 10
-1094.032925332691
 20
147.0577059589765
 30
0.0
  0
VERTEX
  5
48B
330
489
100
AcDbEntity
  8
0
100
AcDbVertex
100
AcDb2dVertex
 10
-1108.175060956422
 20
132.9155703352454
 30
0.0
  0
VERTEX
  5
48C
330
489
100
AcDbEntity
  8
0
100
AcDbVertex
100
AcDb2dVertex
 10
-1115.246128768288
 20
139.9866381471107
 30
0.0
  0
VERTEX
  5
48D
330
489
100
AcDbEntity
  8
0
100
AcDbVertex
100
AcDb2dVertex
 10
-1101.103993144558
 20
154.1287737708418
 30
0.0
  0
SEQEND
  5
48E
330
489
100
AcDbEntity
  8
0
  0
POLYLINE
  5
48F
330
1F
100
AcDbEntity
  8
0
100
AcDb2dPolyline
 66
     1
 10
0.0
 20
0.0
 30
0.0
 70
     1
  0
VERTEX
  5
490
330
48F
100
AcDbEntity
  8
0
100
AcDbVertex
100
AcDb2dVertex
 10
-980.8978803094023
 20
104.6292591212249
 30
0.0
  0
VERTEX
  5
491
330
48F
100
AcDbEntity
  8
0
100
AcDbVertex
100
AcDb2dVertex
 10
-995.0400159331323
 20
118.7713947449562
 30
0.0
  0
VERTEX
  5
492
330
48F
100
AcDbEntity
  8
0
100
AcDbVertex
100
AcDb2dVertex
 10
-1002.111083744998
 20
111.7003269330899
 30
0.0
  0
VERTEX
  5
493
330
48F
100
AcDbEntity
  8
0
100
AcDbVertex
100
AcDb2dVertex
 10
-987.9689481212686
 20
97.5581913093598
 30
0.0
  0
SEQEND
  5
494
330
48F
100
AcDbEntity
  8
0
  0
POLYLINE
  5
495
330
1F
100
AcDbEntity
  8
0
100
AcDb2dPolyline
 66
     1
 10
0.0
 20
0.0
 30
0.0
 70
     1
  0
VERTEX
  5
496
330
495
100
AcDbEntity
  8
0
100
AcDbVertex
100
AcDb2dVertex
 10
-966.7557446856706
 20
118.7713947449557
 30
0.0
  0
VERTEX
  5
497
330
495
100
AcDbEntity
  8
0
100
AcDbVertex
100
AcDb2dVertex
 10
-980.8978803094023
 20
104.6292591212249
 30
0.0
  0
VERTEX
  5
498
330
495
100
AcDbEntity
  8
0
100
AcDbVertex
100
AcDb2dVertex
 10
-973.8268124975361
 20
97.55819130935869
 30
0.0
  0
VERTEX
  5
499
330
495
100
AcDbEntity
  8
0
100
AcDbVertex
100
AcDb2dVertex
 10
-959.6846768738057
 20
111.7003269330901
 30
0.0
  0
SEQEND
  5
49A
330
495
100
AcDbEntity
  8
0
  0
POLYLINE
  5
49B
330
1F
100
AcDbEntity
  8
0
100
AcDb2dPolyline
 66
     1
 10
0.0
 20
0.0
 30
0.0
 70
     1
  0
VERTEX
  5
49C
330
49B
100
AcDbEntity
  8
0
100
AcDbVertex
100
AcDb2dVertex
 10
-980.8978803094028
 20
132.9135303686869
 30
0.0
  0
VERTEX
  5
49D
330
49B
100
AcDbEntity
  8
0
100
AcDbVertex
100
AcDb2dVertex
 10
-966.7557446856706
 20
118.7713947449568
 30
0.0
  0
VERTEX
  5
49E
330
49B
100
AcDbEntity
  8
0
100
AcDbVertex
100
AcDb2dVertex
 10
-959.6846768738052
 20
125.8424625568219
 30
0.0
  0
VERTEX
  5
49F
330
49B
100
AcDbEntity
  8
0
100
AcDbVertex
100
AcDb2dVertex
 10
-973.8268124975361
 20
139.9845981805521
 30
0.0
  0
SEQEND
  5
4A0
330
49B
100
AcDbEntity
  8
0
  0
POLYLINE
  5
4A1
330
1F
100
AcDbEntity
  8
0
100
AcDb2dPolyline
 66
     1
 10
0.0
 20
0.0
 30
0.0
 70
     1
  0
VERTEX
  5
4A2
330
4A1
100
AcDbEntity
  8
0
100
AcDbVertex
100
AcDb2dVertex
 10
-1002.111083744998
 20
154.1267338042836
 30
0.0
  0
VERTEX
  5
4A3
330
4A1
100
AcDbEntity
  8
0
100
AcDbVertex
100
AcDb2dVertex
 10
-1016.25321936873
 20
139.9845981805527
 30
0.0
  0
VERTEX
  5
4A4
330
4A1
100
AcDbEntity
  8
0
100
AcDbVertex
100
AcDb2dVertex
 10
-1009.182151556863
 20
132.9135303686875
 30
0.0
  0
VERTEX
  5
4A5
330
4A1
100
AcDbEntity
  8
0
100
AcDbVertex
100
AcDb2dVertex
 10
-995.040015933133
 20
147.0556659924181
 30
0.0
  0
SEQEND
  5
4A6
330
4A1
100
AcDbEntity
  8
0
  0
POLYLINE
  5
4A7
330
1F
100
AcDbEntity
  8
0
100
AcDb2dPolyline
 66
     1
 10
0.0
 20
0.0
 30
0.0
 70
     1
  0
VERTEX
  5
4A8
330
4A7
100
AcDbEntity
  8
0
100
AcDbVertex
100
AcDb2dVertex
 10
-1016.25321936873
 20
139.9845981805527
 30
0.0
  0
VERTEX
  5
4A9
330
4A7
100
AcDbEntity
  8
0
100
AcDbVertex
100
AcDb2dVertex
 10
-1030.39535499246
 20
125.8424625568214
 30
0.0
  0
VERTEX
  5
4AA
330
4A7
100
AcDbEntity
  8
0
100
AcDbVertex
100
AcDb2dVertex
 10
-1023.324287180594
 20
118.771394744956
 30
0.0
  0
VERTEX
  5
4AB
330
4A7
100
AcDbEntity
  8
0
100
AcDbVertex
100
AcDb2dVertex
 10
-1009.182151556863
 20
132.9135303686875
 30
0.0
  0
SEQEND
  5
4AC
330
4A7
100
AcDbEntity
  8
0
  0
POLYLINE
  5
4AD
330
1F
100
AcDbEntity
  8
0
100
AcDb2dPolyline
 66
     1
 10
0.0
 20
0.0
 30
0.0
 70
     1
  0
VERTEX
  5
4AE
330
4AD
100
AcDbEntity
  8
0
100
AcDbVertex
100
AcDb2dVertex
 10
-1030.39535499246
 20
125.8424625568214
 30
0.0
  0
VERTEX
  5
4AF
330
4AD
100
AcDbEntity
  8
0
100
AcDbVertex
100
AcDb2dVertex
 10
-1044.537490616191
 20
111.700326933091
 30
0.0
  0
VERTEX
  5
4B0
330
4AD
100
AcDbEntity
  8
0
100
AcDbVertex
100
AcDb2dVertex
 10
-1037.466422804325
 20
104.6292591212252
 30
0.0
  0
VERTEX
  5
4B1
330
4AD
100
AcDbEntity
  8
0
100
AcDbVertex
100
AcDb2dVertex
 10
-1023.324287180594
 20
118.771394744956
 30
0.0
  0
SEQEND
  5
4B2
330
4AD
100
AcDbEntity
  8
0
  0
POLYLINE
  5
4B3
330
1F
100
AcDbEntity
  8
0
100
AcDb2dPolyline
 66
     1
 10
0.0
 20
0.0
 30
0.0
 70
     1
  0
VERTEX
  5
4B4
330
4B3
100
AcDbEntity
  8
0
100
AcDbVertex
100
AcDb2dVertex
 10
-995.040015933133
 20
147.0556659924181
 30
0.0
  0
VERTEX
  5
4B5
330
4B3
100
AcDbEntity
  8
0
100
AcDbVertex
100
AcDb2dVertex
 10
-980.8978803094028
 20
132.9135303686869
 30
0.0
  0
VERTEX
  5
4B6
330
4B3
100
AcDbEntity
  8
0
100
AcDbVertex
100
AcDb2dVertex
 10
-973.8268124975361
 20
139.9845981805521
 30
0.0
  0
VERTEX
  5
4B7
330
4B3
100
AcDbEntity
  8
0
100
AcDbVertex
100
AcDb2dVertex
 10
-987.9689481212666
 20
154.1267338042833
 30
0.0
  0
SEQEND
  5
4B8
330
4B3
100
AcDbEntity
  8
0
  0
POLYLINE
  5
4B9
330
1F
100
AcDbEntity
  8
0
100
AcDb2dPolyline
 66
     1
 10
0.0
 20
0.0
 30
0.0
  0
VERTEX
  5
4BA
330
4B9
100
AcDbEntity
  8
0
100
AcDbVertex
100
AcDb2dVertex
 10
-905.0000000000004
 20
-104.0000000000003
 30
0.0
  0
VERTEX
  5
4BB
330
4B9
100
AcDbEntity
  8
0
100
AcDbVertex
100
AcDb2dVertex
 10
-715.0
 20
-104.0
 30
0.0
  0
SEQEND
  5
4BC
330
4B9
100
AcDbEntity
  8
0
  0
ARC
  5
4BD
330
1F
100
AcDbEntity
  8
0
100
AcDbCircle
 10
-715.0000000000003
 20
-99.0
 30
0.0
 40
5.0
100
AcDbArc
 50
270.0000000000013
 51
359.9999999999968
  0
POLYLINE
  5
4BE
330
1F
100
AcDbEntity
  8
0
100
AcDb2dPolyline
 66
     1
 10
0.0
 20
0.0
 30
0.0
  0
VERTEX
  5
4BF
330
4BE
100
AcDbEntity
  8
0
100
AcDbVertex
100
AcDb2dVertex
 10
-710.0000000000003
 20
-99.00000000000028
 30
0.0
  0
VERTEX
  5
4C0
330
4BE
100
AcDbEntity
  8
0
100
AcDbVertex
100
AcDb2dVertex
 10
-710.0
 20
191.0000000000001
 30
0.0
  0
SEQEND
  5
4C1
330
4BE
100
AcDbEntity
  8
0
  0
ARC
  5
4C2
330
1F
100
AcDbEntity
  8
0
100
AcDbCircle
 10
-715.0
 20
191.0
 30
0.0
 40
5.0
100
AcDbArc
 50
0.0000000000006514
 51
90.0
  0
POLYLINE
  5
4C3
330
1F
100
AcDbEntity
  8
0
100
AcDb2dPolyline
 66
     1
 10
0.0
 20
0.0
 30
0.0
  0
VERTEX
  5
4C4
330
4C3
100
AcDbEntity
  8
0
100
AcDbVertex
100
AcDb2dVertex
 10
-715.0
 20
196.0
 30
0.0
  0
VERTEX
  5
4C5
330
4C3
100
AcDbEntity
  8
0
100
AcDbVertex
100
AcDb2dVertex
 10
-905.0
 20
196.0
 30
0.0
  0
SEQEND
  5
4C6
330
4C3
100
AcDbEntity
  8
0
  0
ARC
  5
4C7
330
1F
100
AcDbEntity
  8
0
100
AcDbCircle
 10
-905.0
 20
191.0
 30
0.0
 40
5.0
100
AcDbArc
 50
90.0
 51
180.0
  0
POLYLINE
  5
4C8
330
1F
100
AcDbEntity
  8
0
100
AcDb2dPolyline
 66
     1
 10
0.0
 20
0.0
 30
0.0
  0
VERTEX
  5
4C9
330
4C8
100
AcDbEntity
  8
0
100
AcDbVertex
100
AcDb2dVertex
 10
-910.0
 20
191.0
 30
0.0
  0
VERTEX
  5
4CA
330
4C8
100
AcDbEntity
  8
0
100
AcDbVertex
100
AcDb2dVertex
 10
-910.0
 20
-99.00000000000188
 30
0.0
  0
SEQEND
  5
4CB
330
4C8
100
AcDbEntity
  8
0
  0
ARC
  5
4CC
330
1F
100
AcDbEntity
  8
0
100
AcDbCircle
 10
-905.0
 20
-99.00000000000028
 30
0.0
 40
5.0
100
AcDbArc
 50
180.0000000000182
 51
269.9999999999961
  0
POLYLINE
  5
4CD
330
1F
100
AcDbEntity
  8
0
100
AcDb2dPolyline
 66
     1
 10
0.0
 20
0.0
 30
0.0
 70
     1
  0
VERTEX
  5
4CE
330
4CD
100
AcDbEntity
  8
0
100
AcDbVertex
100
AcDb2dVertex
 10
-800.055382592493
 20
56.0
 30
0.0
  0
VERTEX
  5
4CF
330
4CD
100
AcDbEntity
  8
0
100
AcDbVertex
100
AcDb2dVertex
 10
-800.055382592493
 20
76.0
 30
0.0
  0
VERTEX
  5
4D0
330
4CD
100
AcDbEntity
  8
0
100
AcDbVertex
100
AcDb2dVertex
 10
-820.0553825924929
 20
76.0
 30
0.0
  0
VERTEX
  5
4D1
330
4CD
100
AcDbEntity
  8
0
100
AcDbVertex
100
AcDb2dVertex
 10
-820.0553825924929
 20
56.0
 30
0.0
  0
SEQEND
  5
4D2
330
4CD
100
AcDbEntity
  8
0
  0
POLYLINE
  5
4D3
330
1F
100
AcDbEntity
  8
0
100
AcDb2dPolyline
 66
     1
 10
0.0
 20
0.0
 30
0.0
 70
     1
  0
VERTEX
  5
4D4
330
4D3
100
AcDbEntity
  8
0
100
AcDbVertex
100
AcDb2dVertex
 10
-720.0
 20
116.0000000000009
 30
0.0
  0
VERTEX
  5
4D5
330
4D3
100
AcDbEntity
  8
0
100
AcDbVertex
100
AcDb2dVertex
 10
-720.0
 20
136.0000000000009
 30
0.0
  0
VERTEX
  5
4D6
330
4D3
100
AcDbEntity
  8
0
100
AcDbVertex
100
AcDb2dVertex
 10
-740.0
 20
136.0000000000009
 30
0.0
  0
VERTEX
  5
4D7
330
4D3
100
AcDbEntity
  8
0
100
AcDbVertex
100
AcDb2dVertex
 10
-740.0
 20
116.0000000000009
 30
0.0
  0
SEQEND
  5
4D8
330
4D3
100
AcDbEntity
  8
0
  0
POLYLINE
  5
4D9
330
1F
100
AcDbEntity
  8
0
100
AcDb2dPolyline
 66
     1
 10
0.0
 20
0.0
 30
0.0
 70
     1
  0
VERTEX
  5
4DA
330
4D9
100
AcDbEntity
  8
0
100
AcDbVertex
100
AcDb2dVertex
 10
-720.0
 20
76.00000000000091
 30
0.0
  0
VERTEX
  5
4DB
330
4D9
100
AcDbEntity
  8
0
100
AcDbVertex
100
AcDb2dVertex
 10
-720.0
 20
96.00000000000092
 30
0.0
  0
VERTEX
  5
4DC
330
4D9
100
AcDbEntity
  8
0
100
AcDbVertex
100
AcDb2dVertex
 10
-740.0
 20
96.00000000000092
 30
0.0
  0
VERTEX
  5
4DD
330
4D9
100
AcDbEntity
  8
0
100
AcDbVertex
100
AcDb2dVertex
 10
-740.0
 20
76.00000000000091
 30
0.0
  0
SEQEND
  5
4DE
330
4D9
100
AcDbEntity
  8
0
  0
POLYLINE
  5
4DF
330
1F
100
AcDbEntity
  8
0
100
AcDb2dPolyline
 66
     1
 10
0.0
 20
0.0
 30
0.0
 70
     1
  0
VERTEX
  5
4E0
330
4DF
100
AcDbEntity
  8
0
100
AcDbVertex
100
AcDb2dVertex
 10
-720.0
 20
36.0
 30
0.0
  0
VERTEX
  5
4E1
330
4DF
100
AcDbEntity
  8
0
100
AcDbVertex
100
AcDb2dVertex
 10
-720.0
 20
56.0
 30
0.0
  0
VERTEX
  5
4E2
330
4DF
100
AcDbEntity
  8
0
100
AcDbVertex
100
AcDb2dVertex
 10
-740.0
 20
56.0
 30
0.0
  0
VERTEX
  5
4E3
330
4DF
100
AcDbEntity
  8
0
100
AcDbVertex
100
AcDb2dVertex
 10
-740.0
 20
36.0
 30
0.0
  0
SEQEND
  5
4E4
330
4DF
100
AcDbEntity
  8
0
  0
POLYLINE
  5
4E5
330
1F
100
AcDbEntity
  8
0
100
AcDb2dPolyline
 66
     1
 10
0.0
 20
0.0
 30
0.0
 70
     1
  0
VERTEX
  5
4E6
330
4E5
100
AcDbEntity
  8
0
100
AcDbVertex
100
AcDb2dVertex
 10
-720.0
 20
-4.0
 30
0.0
  0
VERTEX
  5
4E7
330
4E5
100
AcDbEntity
  8
0
100
AcDbVertex
100
AcDb2dVertex
 10
-720.0
 20
16.0
 30
0.0
  0
VERTEX
  5
4E8
330
4E5
100
AcDbEntity
  8
0
100
AcDbVertex
100
AcDb2dVertex
 10
-740.0
 20
16.0
 30
0.0
  0
VERTEX
  5
4E9
330
4E5
100
AcDbEntity
  8
0
100
AcDbVertex
100
AcDb2dVertex
 10
-740.0
 20
-4.0
 30
0.0
  0
SEQEND
  5
4EA
330
4E5
100
AcDbEntity
  8
0
  0
POLYLINE
  5
4EB
330
1F
100
AcDbEntity
  8
0
100
AcDb2dPolyline
 66
     1
 10
0.0
 20
0.0
 30
0.0
 70
     1
  0
VERTEX
  5
4EC
330
4EB
100
AcDbEntity
  8
0
100
AcDbVertex
100
AcDb2dVertex
 10
-720.0
 20
-43.99999999999908
 30
0.0
  0
VERTEX
  5
4ED
330
4EB
100
AcDbEntity
  8
0
100
AcDbVertex
100
AcDb2dVertex
 10
-720.0
 20
-24.0
 30
0.0
  0
VERTEX
  5
4EE
330
4EB
100
AcDbEntity
  8
0
100
AcDbVertex
100
AcDb2dVertex
 10
-740.0
 20
-24.0
 30
0.0
  0
VERTEX
  5
4EF
330
4EB
100
AcDbEntity
  8
0
100
AcDbVertex
100
AcDb2dVertex
 10
-740.0
 20
-43.99999999999908
 30
0.0
  0
SEQEND
  5
4F0
330
4EB
100
AcDbEntity
  8
0
  0
POLYLINE
  5
4F1
330
1F
100
AcDbEntity
  8
0
100
AcDb2dPolyline
 66
     1
 10
0.0
 20
0.0
 30
0.0
 70
     1
  0
VERTEX
  5
4F2
330
4F1
100
AcDbEntity
  8
0
100
AcDbVertex
100
AcDb2dVertex
 10
-740.0
 20
116.0000000000009
 30
0.0
  0
VERTEX
  5
4F3
330
4F1
100
AcDbEntity
  8
0
100
AcDbVertex
100
AcDb2dVertex
 10
-740.0
 20
136.0000000000009
 30
0.0
  0
VERTEX
  5
4F4
330
4F1
100
AcDbEntity
  8
0
100
AcDbVertex
100
AcDb2dVertex
 10
-760.0
 20
136.0000000000009
 30
0.0
  0
VERTEX
  5
4F5
330
4F1
100
AcDbEntity
  8
0
100
AcDbVertex
100
AcDb2dVertex
 10
-760.0
 20
116.0000000000009
 30
0.0
  0
SEQEND
  5
4F6
330
4F1
100
AcDbEntity
  8
0
  0
POLYLINE
  5
4F7
330
1F
100
AcDbEntity
  8
0
100
AcDb2dPolyline
 66
     1
 10
0.0
 20
0.0
 30
0.0
 70
     1
  0
VERTEX
  5
4F8
330
4F7
100
AcDbEntity
  8
0
100
AcDbVertex
100
AcDb2dVertex
 10
-740.0
 20
76.00000000000091
 30
0.0
  0
VERTEX
  5
4F9
330
4F7
100
AcDbEntity
  8
0
100
AcDbVertex
100
AcDb2dVertex
 10
-740.0
 20
96.00000000000092
 30
0.0
  0
VERTEX
  5
4FA
330
4F7
100
AcDbEntity
  8
0
100
AcDbVertex
100
AcDb2dVertex
 10
-760.0
 20
96.00000000000092
 30
0.0
  0
VERTEX
  5
4FB
330
4F7
100
AcDbEntity
  8
0
100
AcDbVertex
100
AcDb2dVertex
 10
-760.0
 20
76.00000000000091
 30
0.0
  0
SEQEND
  5
4FC
330
4F7
100
AcDbEntity
  8
0
  0
POLYLINE
  5
4FD
330
1F
100
AcDbEntity
  8
0
100
AcDb2dPolyline
 66
     1
 10
0.0
 20
0.0
 30
0.0
 70
     1
  0
VERTEX
  5
4FE
330
4FD
100
AcDbEntity
  8
0
100
AcDbVertex
100
AcDb2dVertex
 10
-740.0
 20
36.0
 30
0.0
  0
VERTEX
  5
4FF
330
4FD
100
AcDbEntity
  8
0
100
AcDbVertex
100
AcDb2dVertex
 10
-740.0
 20
56.0
 30
0.0
  0
VERTEX
  5
500
330
4FD
100
AcDbEntity
  8
0
100
AcDbVertex
100
AcDb2dVertex
 10
-760.0
 20
56.0
 30
0.0
  0
VERTEX
  5
501
330
4FD
100
AcDbEntity
  8
0
100
AcDbVertex
100
AcDb2dVertex
 10
-760.0
 20
36.0
 30
0.0
  0
SEQEND
  5
502
330
4FD
100
AcDbEntity
  8
0
  0
POLYLINE
  5
503
330
1F
100
AcDbEntity
  8
0
100
AcDb2dPolyline
 66
     1
 10
0.0
 20
0.0
 30
0.0
 70
     1
  0
VERTEX
  5
504
330
503
100
AcDbEntity
  8
0
100
AcDbVertex
100
AcDb2dVertex
 10
-740.0
 20
-4.0
 30
0.0
  0
VERTEX
  5
505
330
503
100
AcDbEntity
  8
0
100
AcDbVertex
100
AcDb2dVertex
 10
-740.0
 20
16.0
 30
0.0
  0
VERTEX
  5
506
330
503
100
AcDbEntity
  8
0
100
AcDbVertex
100
AcDb2dVertex
 10
-760.0
 20
16.0
 30
0.0
  0
VERTEX
  5
507
330
503
100
AcDbEntity
  8
0
100
AcDbVertex
100
AcDb2dVertex
 10
-760.0
 20
-4.0
 30
0.0
  0
SEQEND
  5
508
330
503
100
AcDbEntity
  8
0
  0
POLYLINE
  5
509
330
1F
100
AcDbEntity
  8
0
100
AcDb2dPolyline
 66
     1
 10
0.0
 20
0.0
 30
0.0
 70
     1
  0
VERTEX
  5
50A
330
509
100
AcDbEntity
  8
0
100
AcDbVertex
100
AcDb2dVertex
 10
-740.0
 20
-43.99999999999908
 30
0.0
  0
VERTEX
  5
50B
330
509
100
AcDbEntity
  8
0
100
AcDbVertex
100
AcDb2dVertex
 10
-740.0
 20
-24.0
 30
0.0
  0
VERTEX
  5
50C
330
509
100
AcDbEntity
  8
0
100
AcDbVertex
100
AcDb2dVertex
 10
-760.0
 20
-24.0
 30
0.0
  0
VERTEX
  5
50D
330
509
100
AcDbEntity
  8
0
100
AcDbVertex
100
AcDb2dVertex
 10
-760.0
 20
-43.99999999999908
 30
0.0
  0
SEQEND
  5
50E
330
509
100
AcDbEntity
  8
0
  0
POLYLINE
  5
50F
330
1F
100
AcDbEntity
  8
0
100
AcDb2dPolyline
 66
     1
 10
0.0
 20
0.0
 30
0.0
 70
     1
  0
VERTEX
  5
510
330
50F
100
AcDbEntity
  8
0
100
AcDbVertex
100
AcDb2dVertex
 10
-800.055382592493
 20
36.0
 30
0.0
  0
VERTEX
  5
511
330
50F
100
AcDbEntity
  8
0
100
AcDbVertex
100
AcDb2dVertex
 10
-800.055382592493
 20
56.0
 30
0.0
  0
VERTEX
  5
512
330
50F
100
AcDbEntity
  8
0
100
AcDbVertex
100
AcDb2dVertex
 10
-820.0553825924929
 20
56.0
 30
0.0
  0
VERTEX
  5
513
330
50F
100
AcDbEntity
  8
0
100
AcDbVertex
100
AcDb2dVertex
 10
-820.0553825924929
 20
36.0
 30
0.0
  0
SEQEND
  5
514
330
50F
100
AcDbEntity
  8
0
  0
POLYLINE
  5
515
330
1F
100
AcDbEntity
  8
0
100
AcDb2dPolyline
 66
     1
 10
0.0
 20
0.0
 30
0.0
 70
     1
  0
VERTEX
  5
516
330
515
100
AcDbEntity
  8
0
100
AcDbVertex
100
AcDb2dVertex
 10
-800.055382592493
 20
16.0
 30
0.0
  0
VERTEX
  5
517
330
515
100
AcDbEntity
  8
0
100
AcDbVertex
100
AcDb2dVertex
 10
-800.055382592493
 20
36.0
 30
0.0
  0
VERTEX
  5
518
330
515
100
AcDbEntity
  8
0
100
AcDbVertex
100
AcDb2dVertex
 10
-820.0553825924929
 20
36.0
 30
0.0
  0
VERTEX
  5
519
330
515
100
AcDbEntity
  8
0
100
AcDbVertex
100
AcDb2dVertex
 10
-820.0553825924929
 20
16.0
 30
0.0
  0
SEQEND
  5
51A
330
515
100
AcDbEntity
  8
0
  0
POLYLINE
  5
51B
330
1F
100
AcDbEntity
  8
0
100
AcDb2dPolyline
 66
     1
 10
0.0
 20
0.0
 30
0.0
 70
     1
  0
VERTEX
  5
51C
330
51B
100
AcDbEntity
  8
0
100
AcDbVertex
100
AcDb2dVertex
 10
-820.0553825924929
 20
36.0
 30
0.0
  0
VERTEX
  5
51D
330
51B
100
AcDbEntity
  8
0
100
AcDbVertex
100
AcDb2dVertex
 10
-820.0553825924929
 20
56.0
 30
0.0
  0
VERTEX
  5
51E
330
51B
100
AcDbEntity
  8
0
100
AcDbVertex
100
AcDb2dVertex
 10
-840.0553825924928
 20
56.0
 30
0.0
  0
VERTEX
  5
51F
330
51B
100
AcDbEntity
  8
0
100
AcDbVertex
100
AcDb2dVertex
 10
-840.0553825924928
 20
36.0
 30
0.0
  0
SEQEND
  5
520
330
51B
100
AcDbEntity
  8
0
  0
POLYLINE
  5
521
330
1F
100
AcDbEntity
  8
0
100
AcDb2dPolyline
 66
     1
 10
0.0
 20
0.0
 30
0.0
 70
     1
  0
VERTEX
  5
522
330
521
100
AcDbEntity
  8
0
100
AcDbVertex
100
AcDb2dVertex
 10
-760.0
 20
-43.99999999999908
 30
0.0
  0
VERTEX
  5
523
330
521
100
AcDbEntity
  8
0
100
AcDbVertex
100
AcDb2dVertex
 10
-760.0
 20
-24.0
 30
0.0
  0
VERTEX
  5
524
330
521
100
AcDbEntity
  8
0
100
AcDbVertex
100
AcDb2dVertex
 10
-780.0
 20
-24.0
 30
0.0
  0
VERTEX
  5
525
330
521
100
AcDbEntity
  8
0
100
AcDbVertex
100
AcDb2dVertex
 10
-780.0
 20
-43.99999999999908
 30
0.0
  0
SEQEND
  5
526
330
521
100
AcDbEntity
  8
0
  0
POLYLINE
  5
527
330
1F
100
AcDbEntity
  8
0
100
AcDb2dPolyline
 66
     1
 10
0.0
 20
0.0
 30
0.0
 70
     1
  0
VERTEX
  5
528
330
527
100
AcDbEntity
  8
0
100
AcDbVertex
100
AcDb2dVertex
 10
-760.0
 20
-24.0
 30
0.0
  0
VERTEX
  5
529
330
527
100
AcDbEntity
  8
0
100
AcDbVertex
100
AcDb2dVertex
 10
-760.0
 20
-4.0
 30
0.0
  0
VERTEX
  5
52A
330
527
100
AcDbEntity
  8
0
100
AcDbVertex
100
AcDb2dVertex
 10
-780.0
 20
-4.0
 30
0.0
  0
VERTEX
  5
52B
330
527
100
AcDbEntity
  8
0
100
AcDbVertex
100
AcDb2dVertex
 10
-780.0
 20
-24.0
 30
0.0
  0
SEQEND
  5
52C
330
527
100
AcDbEntity
  8
0
  0
POLYLINE
  5
52D
330
1F
100
AcDbEntity
  8
0
100
AcDb2dPolyline
 66
     1
 10
0.0
 20
0.0
 30
0.0
 70
     1
  0
VERTEX
  5
52E
330
52D
100
AcDbEntity
  8
0
100
AcDbVertex
100
AcDb2dVertex
 10
-760.0
 20
-4.0
 30
0.0
  0
VERTEX
  5
52F
330
52D
100
AcDbEntity
  8
0
100
AcDbVertex
100
AcDb2dVertex
 10
-760.0
 20
16.0
 30
0.0
  0
VERTEX
  5
530
330
52D
100
AcDbEntity
  8
0
100
AcDbVertex
100
AcDb2dVertex
 10
-780.0
 20
16.0
 30
0.0
  0
VERTEX
  5
531
330
52D
100
AcDbEntity
  8
0
100
AcDbVertex
100
AcDb2dVertex
 10
-780.0
 20
-4.0
 30
0.0
  0
SEQEND
  5
532
330
52D
100
AcDbEntity
  8
0
  0
POLYLINE
  5
533
330
1F
100
AcDbEntity
  8
0
100
AcDb2dPolyline
 66
     1
 10
0.0
 20
0.0
 30
0.0
 70
     1
  0
VERTEX
  5
534
330
533
100
AcDbEntity
  8
0
100
AcDbVertex
100
AcDb2dVertex
 10
-760.0
 20
16.0
 30
0.0
  0
VERTEX
  5
535
330
533
100
AcDbEntity
  8
0
100
AcDbVertex
100
AcDb2dVertex
 10
-760.0
 20
36.0
 30
0.0
  0
VERTEX
  5
536
330
533
100
AcDbEntity
  8
0
100
AcDbVertex
100
AcDb2dVertex
 10
-780.0
 20
36.0
 30
0.0
  0
VERTEX
  5
537
330
533
100
AcDbEntity
  8
0
100
AcDbVertex
100
AcDb2dVertex
 10
-780.0
 20
16.0
 30
0.0
  0
SEQEND
  5
538
330
533
100
AcDbEntity
  8
0
  0
POLYLINE
  5
539
330
1F
100
AcDbEntity
  8
0
100
AcDb2dPolyline
 66
     1
 10
0.0
 20
0.0
 30
0.0
 70
     1
  0
VERTEX
  5
53A
330
539
100
AcDbEntity
  8
0
100
AcDbVertex
100
AcDb2dVertex
 10
-760.0
 20
36.0
 30
0.0
  0
VERTEX
  5
53B
330
539
100
AcDbEntity
  8
0
100
AcDbVertex
100
AcDb2dVertex
 10
-760.0
 20
56.0
 30
0.0
  0
VERTEX
  5
53C
330
539
100
AcDbEntity
  8
0
100
AcDbVertex
100
AcDb2dVertex
 10
-780.0
 20
56.0
 30
0.0
  0
VERTEX
  5
53D
330
539
100
AcDbEntity
  8
0
100
AcDbVertex
100
AcDb2dVertex
 10
-780.0
 20
36.0
 30
0.0
  0
SEQEND
  5
53E
330
539
100
AcDbEntity
  8
0
  0
POLYLINE
  5
53F
330
1F
100
AcDbEntity
  8
0
100
AcDb2dPolyline
 66
     1
 10
0.0
 20
0.0
 30
0.0
 70
     1
  0
VERTEX
  5
540
330
53F
100
AcDbEntity
  8
0
100
AcDbVertex
100
AcDb2dVertex
 10
-760.0
 20
56.0
 30
0.0
  0
VERTEX
  5
541
330
53F
100
AcDbEntity
  8
0
100
AcDbVertex
100
AcDb2dVertex
 10
-760.0
 20
76.00000000000091
 30
0.0
  0
VERTEX
  5
542
330
53F
100
AcDbEntity
  8
0
100
AcDbVertex
100
AcDb2dVertex
 10
-780.0
 20
76.00000000000091
 30
0.0
  0
VERTEX
  5
543
330
53F
100
AcDbEntity
  8
0
100
AcDbVertex
100
AcDb2dVertex
 10
-780.0
 20
56.0
 30
0.0
  0
SEQEND
  5
544
330
53F
100
AcDbEntity
  8
0
  0
POLYLINE
  5
545
330
1F
100
AcDbEntity
  8
0
100
AcDb2dPolyline
 66
     1
 10
0.0
 20
0.0
 30
0.0
 70
     1
  0
VERTEX
  5
546
330
545
100
AcDbEntity
  8
0
100
AcDbVertex
100
AcDb2dVertex
 10
-760.0
 20
76.00000000000091
 30
0.0
  0
VERTEX
  5
547
330
545
100
AcDbEntity
  8
0
100
AcDbVertex
100
AcDb2dVertex
 10
-760.0
 20
96.00000000000092
 30
0.0
  0
VERTEX
  5
548
330
545
100
AcDbEntity
  8
0
100
AcDbVertex
100
AcDb2dVertex
 10
-780.0
 20
96.00000000000092
 30
0.0
  0
VERTEX
  5
549
330
545
100
AcDbEntity
  8
0
100
AcDbVertex
100
AcDb2dVertex
 10
-780.0
 20
76.00000000000091
 30
0.0
  0
SEQEND
  5
54A
330
545
100
AcDbEntity
  8
0
  0
POLYLINE
  5
54B
330
1F
100
AcDbEntity
  8
0
100
AcDb2dPolyline
 66
     1
 10
0.0
 20
0.0
 30
0.0
 70
     1
  0
VERTEX
  5
54C
330
54B
100
AcDbEntity
  8
0
100
AcDbVertex
100
AcDb2dVertex
 10
-760.0
 20
96.00000000000092
 30
0.0
  0
VERTEX
  5
54D
330
54B
100
AcDbEntity
  8
0
100
AcDbVertex
100
AcDb2dVertex
 10
-760.0
 20
116.0000000000009
 30
0.0
  0
VERTEX
  5
54E
330
54B
100
AcDbEntity
  8
0
100
AcDbVertex
100
AcDb2dVertex
 10
-780.0
 20
116.0000000000009
 30
0.0
  0
VERTEX
  5
54F
330
54B
100
AcDbEntity
  8
0
100
AcDbVertex
100
AcDb2dVertex
 10
-780.0
 20
96.00000000000092
 30
0.0
  0
SEQEND
  5
550
330
54B
100
AcDbEntity
  8
0
  0
POLYLINE
  5
551
330
1F
100
AcDbEntity
  8
0
100
AcDb2dPolyline
 66
     1
 10
0.0
 20
0.0
 30
0.0
 70
     1
  0
VERTEX
  5
552
330
551
100
AcDbEntity
  8
0
100
AcDbVertex
100
AcDb2dVertex
 10
-760.0
 20
116.0000000000009
 30
0.0
  0
VERTEX
  5
553
330
551
100
AcDbEntity
  8
0
100
AcDbVertex
100
AcDb2dVertex
 10
-760.0
 20
136.0000000000009
 30
0.0
  0
VERTEX
  5
554
330
551
100
AcDbEntity
  8
0
100
AcDbVertex
100
AcDb2dVertex
 10
-780.0
 20
136.0000000000009
 30
0.0
  0
VERTEX
  5
555
330
551
100
AcDbEntity
  8
0
100
AcDbVertex
100
AcDb2dVertex
 10
-780.0
 20
116.0000000000009
 30
0.0
  0
SEQEND
  5
556
330
551
100
AcDbEntity
  8
0
  0
POLYLINE
  5
557
330
1F
100
AcDbEntity
  8
0
100
AcDb2dPolyline
 66
     1
 10
0.0
 20
0.0
 30
0.0
 70
     1
  0
VERTEX
  5
558
330
557
100
AcDbEntity
  8
0
100
AcDbVertex
100
AcDb2dVertex
 10
-760.0
 20
136.0000000000009
 30
0.0
  0
VERTEX
  5
559
330
557
100
AcDbEntity
  8
0
100
AcDbVertex
100
AcDb2dVertex
 10
-760.0
 20
156.0000000000009
 30
0.0
  0
VERTEX
  5
55A
330
557
100
AcDbEntity
  8
0
100
AcDbVertex
100
AcDb2dVertex
 10
-780.0
 20
156.0000000000009
 30
0.0
  0
VERTEX
  5
55B
330
557
100
AcDbEntity
  8
0
100
AcDbVertex
100
AcDb2dVertex
 10
-780.0
 20
136.0000000000009
 30
0.0
  0
SEQEND
  5
55C
330
557
100
AcDbEntity
  8
0
  0
POLYLINE
  5
55D
330
1F
100
AcDbEntity
  8
0
100
AcDb2dPolyline
 66
     1
 10
0.0
 20
0.0
 30
0.0
 70
     1
  0
VERTEX
  5
55E
330
55D
100
AcDbEntity
  8
0
100
AcDbVertex
100
AcDb2dVertex
 10
-760.0
 20
-63.99999999999909
 30
0.0
  0
VERTEX
  5
55F
330
55D
100
AcDbEntity
  8
0
100
AcDbVertex
100
AcDb2dVertex
 10
-760.0
 20
-43.99999999999908
 30
0.0
  0
VERTEX
  5
560
330
55D
100
AcDbEntity
  8
0
100
AcDbVertex
100
AcDb2dVertex
 10
-780.0
 20
-43.99999999999908
 30
0.0
  0
VERTEX
  5
561
330
55D
100
AcDbEntity
  8
0
100
AcDbVertex
100
AcDb2dVertex
 10
-780.0
 20
-63.99999999999909
 30
0.0
  0
SEQEND
  5
562
330
55D
100
AcDbEntity
  8
0
  0
POLYLINE
  5
563
330
1F
100
AcDbEntity
  8
0
100
AcDb2dPolyline
 66
     1
 10
0.0
 20
0.0
 30
0.0
 70
     1
  0
VERTEX
  5
564
330
563
100
AcDbEntity
  8
0
100
AcDbVertex
100
AcDb2dVertex
 10
-780.0
 20
-63.99999999999909
 30
0.0
  0
VERTEX
  5
565
330
563
100
AcDbEntity
  8
0
100
AcDbVertex
100
AcDb2dVertex
 10
-780.0
 20
-43.99999999999908
 30
0.0
  0
VERTEX
  5
566
330
563
100
AcDbEntity
  8
0
100
AcDbVertex
100
AcDb2dVertex
 10
-800.0
 20
-43.99999999999908
 30
0.0
  0
VERTEX
  5
567
330
563
100
AcDbEntity
  8
0
100
AcDbVertex
100
AcDb2dVertex
 10
-800.0
 20
-63.99999999999909
 30
0.0
  0
SEQEND
  5
568
330
563
100
AcDbEntity
  8
0
  0
POLYLINE
  5
569
330
1F
100
AcDbEntity
  8
0
100
AcDb2dPolyline
 66
     1
 10
0.0
 20
0.0
 30
0.0
 70
     1
  0
VERTEX
  5
56A
330
569
100
AcDbEntity
  8
0
100
AcDbVertex
100
AcDb2dVertex
 10
-800.0
 20
-43.99999999999908
 30
0.0
  0
VERTEX
  5
56B
330
569
100
AcDbEntity
  8
0
100
AcDbVertex
100
AcDb2dVertex
 10
-800.0
 20
-24.0
 30
0.0
  0
VERTEX
  5
56C
330
569
100
AcDbEntity
  8
0
100
AcDbVertex
100
AcDb2dVertex
 10
-820.0
 20
-24.0
 30
0.0
  0
VERTEX
  5
56D
330
569
100
AcDbEntity
  8
0
100
AcDbVertex
100
AcDb2dVertex
 10
-820.0
 20
-43.99999999999908
 30
0.0
  0
SEQEND
  5
56E
330
569
100
AcDbEntity
  8
0
  0
POLYLINE
  5
56F
330
1F
100
AcDbEntity
  8
0
100
AcDb2dPolyline
 66
     1
 10
0.0
 20
0.0
 30
0.0
 70
     1
  0
VERTEX
  5
570
330
56F
100
AcDbEntity
  8
0
100
AcDbVertex
100
AcDb2dVertex
 10
-820.0
 20
-24.0
 30
0.0
  0
VERTEX
  5
571
330
56F
100
AcDbEntity
  8
0
100
AcDbVertex
100
AcDb2dVertex
 10
-820.0
 20
-4.0
 30
0.0
  0
VERTEX
  5
572
330
56F
100
AcDbEntity
  8
0
100
AcDbVertex
100
AcDb2dVertex
 10
-840.0
 20
-4.0
 30
0.0
  0
VERTEX
  5
573
330
56F
100
AcDbEntity
  8
0
100
AcDbVertex
100
AcDb2dVertex
 10
-840.0
 20
-24.0
 30
0.0
  0
SEQEND
  5
574
330
56F
100
AcDbEntity
  8
0
  0
POLYLINE
  5
575
330
1F
100
AcDbEntity
  8
0
100
AcDb2dPolyline
 66
     1
 10
0.0
 20
0.0
 30
0.0
 70
     1
  0
VERTEX
  5
576
330
575
100
AcDbEntity
  8
0
100
AcDbVertex
100
AcDb2dVertex
 10
-840.0
 20
-4.0
 30
0.0
  0
VERTEX
  5
577
330
575
100
AcDbEntity
  8
0
100
AcDbVertex
100
AcDb2dVertex
 10
-840.0
 20
16.0
 30
0.0
  0
VERTEX
  5
578
330
575
100
AcDbEntity
  8
0
100
AcDbVertex
100
AcDb2dVertex
 10
-860.0
 20
16.0
 30
0.0
  0
VERTEX
  5
579
330
575
100
AcDbEntity
  8
0
100
AcDbVertex
100
AcDb2dVertex
 10
-860.0
 20
-4.0
 30
0.0
  0
SEQEND
  5
57A
330
575
100
AcDbEntity
  8
0
  0
POLYLINE
  5
57B
330
1F
100
AcDbEntity
  8
0
100
AcDb2dPolyline
 66
     1
 10
0.0
 20
0.0
 30
0.0
 70
     1
  0
VERTEX
  5
57C
330
57B
100
AcDbEntity
  8
0
100
AcDbVertex
100
AcDb2dVertex
 10
-860.0
 20
16.0
 30
0.0
  0
VERTEX
  5
57D
330
57B
100
AcDbEntity
  8
0
100
AcDbVertex
100
AcDb2dVertex
 10
-860.0
 20
36.0
 30
0.0
  0
VERTEX
  5
57E
330
57B
100
AcDbEntity
  8
0
100
AcDbVertex
100
AcDb2dVertex
 10
-880.0
 20
36.0
 30
0.0
  0
VERTEX
  5
57F
330
57B
100
AcDbEntity
  8
0
100
AcDbVertex
100
AcDb2dVertex
 10
-880.0
 20
16.0
 30
0.0
  0
SEQEND
  5
580
330
57B
100
AcDbEntity
  8
0
  0
POLYLINE
  5
581
330
1F
100
AcDbEntity
  8
0
100
AcDb2dPolyline
 66
     1
 10
0.0
 20
0.0
 30
0.0
 70
     1
  0
VERTEX
  5
582
330
581
100
AcDbEntity
  8
0
100
AcDbVertex
100
AcDb2dVertex
 10
-780.0
 20
136.0000000000009
 30
0.0
  0
VERTEX
  5
583
330
581
100
AcDbEntity
  8
0
100
AcDbVertex
100
AcDb2dVertex
 10
-780.0
 20
156.0000000000009
 30
0.0
  0
VERTEX
  5
584
330
581
100
AcDbEntity
  8
0
100
AcDbVertex
100
AcDb2dVertex
 10
-800.0
 20
156.0000000000009
 30
0.0
  0
VERTEX
  5
585
330
581
100
AcDbEntity
  8
0
100
AcDbVertex
100
AcDb2dVertex
 10
-800.0
 20
136.0000000000009
 30
0.0
  0
SEQEND
  5
586
330
581
100
AcDbEntity
  8
0
  0
POLYLINE
  5
587
330
1F
100
AcDbEntity
  8
0
100
AcDb2dPolyline
 66
     1
 10
0.0
 20
0.0
 30
0.0
 70
     1
  0
VERTEX
  5
588
330
587
100
AcDbEntity
  8
0
100
AcDbVertex
100
AcDb2dVertex
 10
-800.0
 20
116.0000000000009
 30
0.0
  0
VERTEX
  5
589
330
587
100
AcDbEntity
  8
0
100
AcDbVertex
100
AcDb2dVertex
 10
-800.0
 20
136.0000000000009
 30
0.0
  0
VERTEX
  5
58A
330
587
100
AcDbEntity
  8
0
100
AcDbVertex
100
AcDb2dVertex
 10
-820.0
 20
136.0000000000009
 30
0.0
  0
VERTEX
  5
58B
330
587
100
AcDbEntity
  8
0
100
AcDbVertex
100
AcDb2dVertex
 10
-820.0
 20
116.0000000000009
 30
0.0
  0
SEQEND
  5
58C
330
587
100
AcDbEntity
  8
0
  0
POLYLINE
  5
58D
330
1F
100
AcDbEntity
  8
0
100
AcDb2dPolyline
 66
     1
 10
0.0
 20
0.0
 30
0.0
 70
     1
  0
VERTEX
  5
58E
330
58D
100
AcDbEntity
  8
0
100
AcDbVertex
100
AcDb2dVertex
 10
-820.0
 20
96.00000000000092
 30
0.0
  0
VERTEX
  5
58F
330
58D
100
AcDbEntity
  8
0
100
AcDbVertex
100
AcDb2dVertex
 10
-820.0
 20
116.0000000000009
 30
0.0
  0
VERTEX
  5
590
330
58D
100
AcDbEntity
  8
0
100
AcDbVertex
100
AcDb2dVertex
 10
-840.0
 20
116.0000000000009
 30
0.0
  0
VERTEX
  5
591
330
58D
100
AcDbEntity
  8
0
100
AcDbVertex
100
AcDb2dVertex
 10
-840.0
 20
96.00000000000092
 30
0.0
  0
SEQEND
  5
592
330
58D
100
AcDbEntity
  8
0
  0
POLYLINE
  5
593
330
1F
100
AcDbEntity
  8
0
100
AcDb2dPolyline
 66
     1
 10
0.0
 20
0.0
 30
0.0
 70
     1
  0
VERTEX
  5
594
330
593
100
AcDbEntity
  8
0
100
AcDbVertex
100
AcDb2dVertex
 10
-840.0
 20
76.00000000000091
 30
0.0
  0
VERTEX
  5
595
330
593
100
AcDbEntity
  8
0
100
AcDbVertex
100
AcDb2dVertex
 10
-840.0
 20
96.00000000000092
 30
0.0
  0
VERTEX
  5
596
330
593
100
AcDbEntity
  8
0
100
AcDbVertex
100
AcDb2dVertex
 10
-860.0
 20
96.00000000000092
 30
0.0
  0
VERTEX
  5
597
330
593
100
AcDbEntity
  8
0
100
AcDbVertex
100
AcDb2dVertex
 10
-860.0
 20
76.00000000000091
 30
0.0
  0
SEQEND
  5
598
330
593
100
AcDbEntity
  8
0
  0
POLYLINE
  5
599
330
1F
100
AcDbEntity
  8
0
100
AcDb2dPolyline
 66
     1
 10
0.0
 20
0.0
 30
0.0
 70
     1
  0
VERTEX
  5
59A
330
599
100
AcDbEntity
  8
0
100
AcDbVertex
100
AcDb2dVertex
 10
-860.0
 20
56.0
 30
0.0
  0
VERTEX
  5
59B
330
599
100
AcDbEntity
  8
0
100
AcDbVertex
100
AcDb2dVertex
 10
-860.0
 20
76.00000000000091
 30
0.0
  0
VERTEX
  5
59C
330
599
100
AcDbEntity
  8
0
100
AcDbVertex
100
AcDb2dVertex
 10
-880.0
 20
76.00000000000091
 30
0.0
  0
VERTEX
  5
59D
330
599
100
AcDbEntity
  8
0
100
AcDbVertex
100
AcDb2dVertex
 10
-880.0
 20
56.0
 30
0.0
  0
SEQEND
  5
59E
330
599
100
AcDbEntity
  8
0
  0
POLYLINE
  5
59F
330
1F
100
AcDbEntity
  8
0
100
AcDb2dPolyline
 66
     1
 10
0.0
 20
0.0
 30
0.0
 70
     1
  0
VERTEX
  5
5A0
330
59F
100
AcDbEntity
  8
0
100
AcDbVertex
100
AcDb2dVertex
 10
-880.0
 20
36.0
 30
0.0
  0
VERTEX
  5
5A1
330
59F
100
AcDbEntity
  8
0
100
AcDbVertex
100
AcDb2dVertex
 10
-880.0
 20
56.0
 30
0.0
  0
VERTEX
  5
5A2
330
59F
100
AcDbEntity
  8
0
100
AcDbVertex
100
AcDb2dVertex
 10
-900.0
 20
56.0
 30
0.0
  0
VERTEX
  5
5A3
330
59F
100
AcDbEntity
  8
0
100
AcDbVertex
100
AcDb2dVertex
 10
-900.0
 20
36.0
 30
0.0
  0
SEQEND
  5
5A4
330
59F
100
AcDbEntity
  8
0
  0
POLYLINE
  5
5A5
330
1F
100
AcDbEntity
  8
0
100
AcDb2dPolyline
 66
     1
 10
0.0
 20
0.0
 30
0.0
  0
VERTEX
  5
5A6
330
5A5
100
AcDbEntity
  8
0
100
AcDbVertex
100
AcDb2dVertex
 10
-679.9999999999998
 20
189.9999999999996
 30
0.0
  0
VERTEX
  5
5A7
330
5A5
100
AcDbEntity
  8
0
100
AcDbVertex
100
AcDb2dVertex
 10
-679.9999999999991
 20
-100.0000000000016
 30
0.0
  0
SEQEND
  5
5A8
330
5A5
100
AcDbEntity
  8
0
  0
ARC
  5
5A9
330
1F
100
AcDbEntity
  8
0
100
AcDbCircle
 10
-674.9999999999992
 20
-100.0000000000012
 30
0.0
 40
5.0
100
AcDbArc
 50
180.0000000000044
 51
270.0
  0
POLYLINE
  5
5AA
330
1F
100
AcDbEntity
  8
0
100
AcDb2dPolyline
 66
     1
 10
0.0
 20
0.0
 30
0.0
  0
VERTEX
  5
5AB
330
5AA
100
AcDbEntity
  8
0
100
AcDbVertex
100
AcDb2dVertex
 10
-674.9999999999992
 20
-105.0000000000012
 30
0.0
  0
VERTEX
  5
5AC
330
5AA
100
AcDbEntity
  8
0
100
AcDbVertex
100
AcDb2dVertex
 10
-484.9999999999993
 20
-105.0000000000009
 30
0.0
  0
SEQEND
  5
5AD
330
5AA
100
AcDbEntity
  8
0
  0
ARC
  5
5AE
330
1F
100
AcDbEntity
  8
0
100
AcDbCircle
 10
-484.9999999999993
 20
-100.0000000000009
 30
0.0
 40
5.0
100
AcDbArc
 50
270.0
 51
0.0
  0
POLYLINE
  5
5AF
330
1F
100
AcDbEntity
  8
0
100
AcDb2dPolyline
 66
     1
 10
0.0
 20
0.0
 30
0.0
  0
VERTEX
  5
5B0
330
5AF
100
AcDbEntity
  8
0
100
AcDbVertex
100
AcDb2dVertex
 10
-479.9999999999993
 20
-100.0000000000009
 30
0.0
  0
VERTEX
  5
5B1
330
5AF
100
AcDbEntity
  8
0
100
AcDbVertex
100
AcDb2dVertex
 10
-479.9999999999993
 20
190.0
 30
0.0
  0
SEQEND
  5
5B2
330
5AF
100
AcDbEntity
  8
0
  0
ARC
  5
5B3
330
1F
100
AcDbEntity
  8
0
100
AcDbCircle
 10
-484.9999999999993
 20
190.0
 30
0.0
 40
5.0
100
AcDbArc
 50
0.0
 51
90.0
  0
POLYLINE
  5
5B4
330
1F
100
AcDbEntity
  8
0
100
AcDb2dPolyline
 66
     1
 10
0.0
 20
0.0
 30
0.0
  0
VERTEX
  5
5B5
330
5B4
100
AcDbEntity
  8
0
100
AcDbVertex
100
AcDb2dVertex
 10
-484.9999999999993
 20
195.0
 30
0.0
  0
VERTEX
  5
5B6
330
5B4
100
AcDbEntity
  8
0
100
AcDbVertex
100
AcDb2dVertex
 10
-675.0
 20
195.0
 30
0.0
  0
SEQEND
  5
5B7
330
5B4
100
AcDbEntity
  8
0
  0
ARC
  5
5B8
330
1F
100
AcDbEntity
  8
0
100
AcDbCircle
 10
-674.9999999999998
 20
190.0
 30
0.0
 40
5.0
100
AcDbArc
 50
90.0000000000039
 51
180.0000000000032
  0
POLYLINE
  5
5B9
330
1F
100
AcDbEntity
  8
0
100
AcDb2dPolyline
 66
     1
 10
0.0
 20
0.0
 30
0.0
 70
     1
  0
VERTEX
  5
5BA
330
5B9
100
AcDbEntity
  8
0
100
AcDbVertex
100
AcDb2dVertex
 10
-600.7216316805872
 20
21.29424721690657
 30
0.0
  0
VERTEX
  5
5BB
330
5B9
100
AcDbEntity
  8
0
100
AcDbVertex
100
AcDb2dVertex
 10
-600.7216316805872
 20
41.29424721690748
 30
0.0
  0
VERTEX
  5
5BC
330
5B9
100
AcDbEntity
  8
0
100
AcDbVertex
100
AcDb2dVertex
 10
-620.7216316805872
 20
41.29424721690748
 30
0.0
  0
VERTEX
  5
5BD
330
5B9
100
AcDbEntity
  8
0
100
AcDbVertex
100
AcDb2dVertex
 10
-620.7216316805872
 20
21.29424721690657
 30
0.0
  0
SEQEND
  5
5BE
330
5B9
100
AcDbEntity
  8
0
  0
POLYLINE
  5
5BF
330
1F
100
AcDbEntity
  8
0
100
AcDb2dPolyline
 66
     1
 10
0.0
 20
0.0
 30
0.0
 70
     1
  0
VERTEX
  5
5C0
330
5BF
100
AcDbEntity
  8
0
100
AcDbVertex
100
AcDb2dVertex
 10
-600.7216316805872
 20
41.29424721690748
 30
0.0
  0
VERTEX
  5
5C1
330
5BF
100
AcDbEntity
  8
0
100
AcDbVertex
100
AcDb2dVertex
 10
-600.7216316805872
 20
61.29424721690747
 30
0.0
  0
VERTEX
  5
5C2
330
5BF
100
AcDbEntity
  8
0
100
AcDbVertex
100
AcDb2dVertex
 10
-620.7216316805872
 20
61.29424721690747
 30
0.0
  0
VERTEX
  5
5C3
330
5BF
100
AcDbEntity
  8
0
100
AcDbVertex
100
AcDb2dVertex
 10
-620.7216316805872
 20
41.29424721690748
 30
0.0
  0
SEQEND
  5
5C4
330
5BF
100
AcDbEntity
  8
0
  0
POLYLINE
  5
5C5
330
1F
100
AcDbEntity
  8
0
100
AcDb2dPolyline
 66
     1
 10
0.0
 20
0.0
 30
0.0
 70
     1
  0
VERTEX
  5
5C6
330
5C5
100
AcDbEntity
  8
0
100
AcDbVertex
100
AcDb2dVertex
 10
-580.7216316805882
 20
61.29424721690747
 30
0.0
  0
VERTEX
  5
5C7
330
5C5
100
AcDbEntity
  8
0
100
AcDbVertex
100
AcDb2dVertex
 10
-580.7216316805882
 20
81.29424721690657
 30
0.0
  0
VERTEX
  5
5C8
330
5C5
100
AcDbEntity
  8
0
100
AcDbVertex
100
AcDb2dVertex
 10
-600.7216316805872
 20
81.29424721690657
 30
0.0
  0
VERTEX
  5
5C9
330
5C5
100
AcDbEntity
  8
0
100
AcDbVertex
100
AcDb2dVertex
 10
-600.7216316805872
 20
61.29424721690747
 30
0.0
  0
SEQEND
  5
5CA
330
5C5
100
AcDbEntity
  8
0
  0
POLYLINE
  5
5CB
330
1F
100
AcDbEntity
  8
0
100
AcDb2dPolyline
 66
     1
 10
0.0
 20
0.0
 30
0.0
 70
     1
  0
VERTEX
  5
5CC
330
5CB
100
AcDbEntity
  8
0
100
AcDbVertex
100
AcDb2dVertex
 10
-560.7216316805882
 20
61.29424721690747
 30
0.0
  0
VERTEX
  5
5CD
330
5CB
100
AcDbEntity
  8
0
100
AcDbVertex
100
AcDb2dVertex
 10
-560.7216316805882
 20
81.29424721690657
 30
0.0
  0
VERTEX
  5
5CE
330
5CB
100
AcDbEntity
  8
0
100
AcDbVertex
100
AcDb2dVertex
 10
-580.7216316805882
 20
81.29424721690657
 30
0.0
  0
VERTEX
  5
5CF
330
5CB
100
AcDbEntity
  8
0
100
AcDbVertex
100
AcDb2dVertex
 10
-580.7216316805882
 20
61.29424721690747
 30
0.0
  0
SEQEND
  5
5D0
330
5CB
100
AcDbEntity
  8
0
  0
POLYLINE
  5
5D1
330
1F
100
AcDbEntity
  8
0
100
AcDb2dPolyline
 66
     1
 10
0.0
 20
0.0
 30
0.0
 70
     1
  0
VERTEX
  5
5D2
330
5D1
100
AcDbEntity
  8
0
100
AcDbVertex
100
AcDb2dVertex
 10
-540.7216316805873
 20
41.29424721690748
 30
0.0
  0
VERTEX
  5
5D3
330
5D1
100
AcDbEntity
  8
0
100
AcDbVertex
100
AcDb2dVertex
 10
-540.7216316805873
 20
61.29424721690747
 30
0.0
  0
VERTEX
  5
5D4
330
5D1
100
AcDbEntity
  8
0
100
AcDbVertex
100
AcDb2dVertex
 10
-560.7216316805882
 20
61.29424721690747
 30
0.0
  0
VERTEX
  5
5D5
330
5D1
100
AcDbEntity
  8
0
100
AcDbVertex
100
AcDb2dVertex
 10
-560.7216316805882
 20
41.29424721690748
 30
0.0
  0
SEQEND
  5
5D6
330
5D1
100
AcDbEntity
  8
0
  0
POLYLINE
  5
5D7
330
1F
100
AcDbEntity
  8
0
100
AcDb2dPolyline
 66
     1
 10
0.0
 20
0.0
 30
0.0
 70
     1
  0
VERTEX
  5
5D8
330
5D7
100
AcDbEntity
  8
0
100
AcDbVertex
100
AcDb2dVertex
 10
-540.7216316805873
 20
21.29424721690657
 30
0.0
  0
VERTEX
  5
5D9
330
5D7
100
AcDbEntity
  8
0
100
AcDbVertex
100
AcDb2dVertex
 10
-540.7216316805873
 20
41.29424721690748
 30
0.0
  0
VERTEX
  5
5DA
330
5D7
100
AcDbEntity
  8
0
100
AcDbVertex
100
AcDb2dVertex
 10
-560.7216316805882
 20
41.29424721690748
 30
0.0
  0
VERTEX
  5
5DB
330
5D7
100
AcDbEntity
  8
0
100
AcDbVertex
100
AcDb2dVertex
 10
-560.7216316805882
 20
21.29424721690657
 30
0.0
  0
SEQEND
  5
5DC
330
5D7
100
AcDbEntity
  8
0
  0
POLYLINE
  5
5DD
330
1F
100
AcDbEntity
  8
0
100
AcDb2dPolyline
 66
     1
 10
0.0
 20
0.0
 30
0.0
 70
     1
  0
VERTEX
  5
5DE
330
5DD
100
AcDbEntity
  8
0
100
AcDbVertex
100
AcDb2dVertex
 10
-580.7216316805882
 20
1.294247216906569
 30
0.0
  0
VERTEX
  5
5DF
330
5DD
100
AcDbEntity
  8
0
100
AcDbVertex
100
AcDb2dVertex
 10
-580.7216316805882
 20
21.29424721690657
 30
0.0
  0
VERTEX
  5
5E0
330
5DD
100
AcDbEntity
  8
0
100
AcDbVertex
100
AcDb2dVertex
 10
-600.7216316805872
 20
21.29424721690657
 30
0.0
  0
VERTEX
  5
5E1
330
5DD
100
AcDbEntity
  8
0
100
AcDbVertex
100
AcDb2dVertex
 10
-600.7216316805872
 20
1.294247216906569
 30
0.0
  0
SEQEND
  5
5E2
330
5DD
100
AcDbEntity
  8
0
  0
POLYLINE
  5
5E3
330
1F
100
AcDbEntity
  8
0
100
AcDb2dPolyline
 66
     1
 10
0.0
 20
0.0
 30
0.0
 70
     1
  0
VERTEX
  5
5E4
330
5E3
100
AcDbEntity
  8
0
100
AcDbVertex
100
AcDb2dVertex
 10
-560.7216316805882
 20
1.294247216906569
 30
0.0
  0
VERTEX
  5
5E5
330
5E3
100
AcDbEntity
  8
0
100
AcDbVertex
100
AcDb2dVertex
 10
-560.7216316805882
 20
21.29424721690657
 30
0.0
  0
VERTEX
  5
5E6
330
5E3
100
AcDbEntity
  8
0
100
AcDbVertex
100
AcDb2dVertex
 10
-580.7216316805882
 20
21.29424721690657
 30
0.0
  0
VERTEX
  5
5E7
330
5E3
100
AcDbEntity
  8
0
100
AcDbVertex
100
AcDb2dVertex
 10
-580.7216316805882
 20
1.294247216906569
 30
0.0
  0
SEQEND
  5
5E8
330
5E3
100
AcDbEntity
  8
0
  0
POLYLINE
  5
5E9
330
1F
100
AcDbEntity
  8
0
100
AcDb2dPolyline
 66
     1
 10
0.0
 20
0.0
 30
0.0
 70
     1
  0
VERTEX
  5
5EA
330
5E9
100
AcDbEntity
  8
0
100
AcDbVertex
100
AcDb2dVertex
 10
-610.7216316805882
 20
111.2942472169075
 30
0.0
  0
VERTEX
  5
5EB
330
5E9
100
AcDbEntity
  8
0
100
AcDbVertex
100
AcDb2dVertex
 10
-610.7216316805875
 20
91.2942472169084
 30
0.0
  0
VERTEX
  5
5EC
330
5E9
100
AcDbEntity
  8
0
100
AcDbVertex
100
AcDb2dVertex
 10
-630.7216316805872
 20
91.29424721690702
 30
0.0
  0
VERTEX
  5
5ED
330
5E9
100
AcDbEntity
  8
0
100
AcDbVertex
100
AcDb2dVertex
 10
-630.7216316805868
 20
111.2942472169075
 30
0.0
  0
SEQEND
  5
5EE
330
5E9
100
AcDbEntity
  8
0
  0
POLYLINE
  5
5EF
330
1F
100
AcDbEntity
  8
0
100
AcDb2dPolyline
 66
     1
 10
0.0
 20
0.0
 30
0.0
 70
     1
  0
VERTEX
  5
5F0
330
5EF
100
AcDbEntity
  8
0
100
AcDbVertex
100
AcDb2dVertex
 10
-590.7216316805873
 20
111.2942472169075
 30
0.0
  0
VERTEX
  5
5F1
330
5EF
100
AcDbEntity
  8
0
100
AcDbVertex
100
AcDb2dVertex
 10
-590.7216316805874
 20
91.29424721690748
 30
0.0
  0
VERTEX
  5
5F2
330
5EF
100
AcDbEntity
  8
0
100
AcDbVertex
100
AcDb2dVertex
 10
-610.7216316805875
 20
91.2942472169084
 30
0.0
  0
VERTEX
  5
5F3
330
5EF
100
AcDbEntity
  8
0
100
AcDbVertex
100
AcDb2dVertex
 10
-610.7216316805882
 20
111.2942472169075
 30
0.0
  0
SEQEND
  5
5F4
330
5EF
100
AcDbEntity
  8
0
  0
POLYLINE
  5
5F5
330
1F
100
AcDbEntity
  8
0
100
AcDb2dPolyline
 66
     1
 10
0.0
 20
0.0
 30
0.0
 70
     1
  0
VERTEX
  5
5F6
330
5F5
100
AcDbEntity
  8
0
100
AcDbVertex
100
AcDb2dVertex
 10
-570.7216316805875
 20
111.2942472169075
 30
0.0
  0
VERTEX
  5
5F7
330
5F5
100
AcDbEntity
  8
0
100
AcDbVertex
100
AcDb2dVertex
 10
-570.7216316805868
 20
91.29424721690748
 30
0.0
  0
VERTEX
  5
5F8
330
5F5
100
AcDbEntity
  8
0
100
AcDbVertex
100
AcDb2dVertex
 10
-590.7216316805874
 20
91.29424721690748
 30
0.0
  0
VERTEX
  5
5F9
330
5F5
100
AcDbEntity
  8
0
100
AcDbVertex
100
AcDb2dVertex
 10
-590.7216316805873
 20
111.2942472169075
 30
0.0
  0
SEQEND
  5
5FA
330
5F5
100
AcDbEntity
  8
0
  0
POLYLINE
  5
5FB
330
1F
100
AcDbEntity
  8
0
100
AcDb2dPolyline
 66
     1
 10
0.0
 20
0.0
 30
0.0
 70
     1
  0
VERTEX
  5
5FC
330
5FB
100
AcDbEntity
  8
0
100
AcDbVertex
100
AcDb2dVertex
 10
-550.7216316805867
 20
111.2942472169075
 30
0.0
  0
VERTEX
  5
5FD
330
5FB
100
AcDbEntity
  8
0
100
AcDbVertex
100
AcDb2dVertex
 10
-550.721631680587
 20
91.29424721690748
 30
0.0
  0
VERTEX
  5
5FE
330
5FB
100
AcDbEntity
  8
0
100
AcDbVertex
100
AcDb2dVertex
 10
-570.7216316805868
 20
91.29424721690748
 30
0.0
  0
VERTEX
  5
5FF
330
5FB
100
AcDbEntity
  8
0
100
AcDbVertex
100
AcDb2dVertex
 10
-570.7216316805875
 20
111.2942472169075
 30
0.0
  0
SEQEND
  5
600
330
5FB
100
AcDbEntity
  8
0
  0
POLYLINE
  5
601
330
1F
100
AcDbEntity
  8
0
100
AcDb2dPolyline
 66
     1
 10
0.0
 20
0.0
 30
0.0
 70
     1
  0
VERTEX
  5
602
330
601
100
AcDbEntity
  8
0
100
AcDbVertex
100
AcDb2dVertex
 10
-530.7216316805868
 20
111.2942472169075
 30
0.0
  0
VERTEX
  5
603
330
601
100
AcDbEntity
  8
0
100
AcDbVertex
100
AcDb2dVertex
 10
-530.7216316805872
 20
91.29424721690702
 30
0.0
  0
VERTEX
  5
604
330
601
100
AcDbEntity
  8
0
100
AcDbVertex
100
AcDb2dVertex
 10
-550.721631680587
 20
91.29424721690748
 30
0.0
  0
VERTEX
  5
605
330
601
100
AcDbEntity
  8
0
100
AcDbVertex
100
AcDb2dVertex
 10
-550.7216316805867
 20
111.2942472169075
 30
0.0
  0
SEQEND
  5
606
330
601
100
AcDbEntity
  8
0
  0
POLYLINE
  5
607
330
1F
100
AcDbEntity
  8
0
100
AcDb2dPolyline
 66
     1
 10
0.0
 20
0.0
 30
0.0
 70
     1
  0
VERTEX
  5
608
330
607
100
AcDbEntity
  8
0
100
AcDbVertex
100
AcDb2dVertex
 10
-610.7216316805877
 20
131.294247216907
 30
0.0
  0
VERTEX
  5
609
330
607
100
AcDbEntity
  8
0
100
AcDbVertex
100
AcDb2dVertex
 10
-610.7216316805882
 20
111.2942472169075
 30
0.0
  0
VERTEX
  5
60A
330
607
100
AcDbEntity
  8
0
100
AcDbVertex
100
AcDb2dVertex
 10
-620.7216316805875
 20
111.294247216907
 30
0.0
  0
VERTEX
  5
60B
330
607
100
AcDbEntity
  8
0
100
AcDbVertex
100
AcDb2dVertex
 10
-620.7216316805881
 20
131.294247216907
 30
0.0
  0
SEQEND
  5
60C
330
607
100
AcDbEntity
  8
0
  0
POLYLINE
  5
60D
330
1F
100
AcDbEntity
  8
0
100
AcDb2dPolyline
 66
     1
 10
0.0
 20
0.0
 30
0.0
 70
     1
  0
VERTEX
  5
60E
330
60D
100
AcDbEntity
  8
0
100
AcDbVertex
100
AcDb2dVertex
 10
-590.7216316805868
 20
131.294247216907
 30
0.0
  0
VERTEX
  5
60F
330
60D
100
AcDbEntity
  8
0
100
AcDbVertex
100
AcDb2dVertex
 10
-590.7216316805873
 20
111.2942472169075
 30
0.0
  0
VERTEX
  5
610
330
60D
100
AcDbEntity
  8
0
100
AcDbVertex
100
AcDb2dVertex
 10
-600.7216316805877
 20
111.2942472169075
 30
0.0
  0
VERTEX
  5
611
330
60D
100
AcDbEntity
  8
0
100
AcDbVertex
100
AcDb2dVertex
 10
-600.7216316805872
 20
131.2942472169075
 30
0.0
  0
SEQEND
  5
612
330
60D
100
AcDbEntity
  8
0
  0
POLYLINE
  5
613
330
1F
100
AcDbEntity
  8
0
100
AcDb2dPolyline
 66
     1
 10
0.0
 20
0.0
 30
0.0
 70
     1
  0
VERTEX
  5
614
330
613
100
AcDbEntity
  8
0
100
AcDbVertex
100
AcDb2dVertex
 10
-570.7216316805881
 20
131.2942472169075
 30
0.0
  0
VERTEX
  5
615
330
613
100
AcDbEntity
  8
0
100
AcDbVertex
100
AcDb2dVertex
 10
-570.7216316805875
 20
111.2942472169075
 30
0.0
  0
VERTEX
  5
616
330
613
100
AcDbEntity
  8
0
100
AcDbVertex
100
AcDb2dVertex
 10
-580.7216316805877
 20
111.2942472169075
 30
0.0
  0
VERTEX
  5
617
330
613
100
AcDbEntity
  8
0
100
AcDbVertex
100
AcDb2dVertex
 10
-580.7216316805876
 20
131.2942472169075
 30
0.0
  0
SEQEND
  5
618
330
613
100
AcDbEntity
  8
0
  0
POLYLINE
  5
619
330
1F
100
AcDbEntity
  8
0
100
AcDb2dPolyline
 66
     1
 10
0.0
 20
0.0
 30
0.0
 70
     1
  0
VERTEX
  5
61A
330
619
100
AcDbEntity
  8
0
100
AcDbVertex
100
AcDb2dVertex
 10
-550.7216316805872
 20
131.294247216907
 30
0.0
  0
VERTEX
  5
61B
330
619
100
AcDbEntity
  8
0
100
AcDbVertex
100
AcDb2dVertex
 10
-550.7216316805867
 20
111.2942472169075
 30
0.0
  0
VERTEX
  5
61C
330
619
100
AcDbEntity
  8
0
100
AcDbVertex
100
AcDb2dVertex
 10
-560.721631680587
 20
111.2942472169066
 30
0.0
  0
VERTEX
  5
61D
330
619
100
AcDbEntity
  8
0
100
AcDbVertex
100
AcDb2dVertex
 10
-560.7216316805877
 20
131.294247216907
 30
0.0
  0
SEQEND
  5
61E
330
619
100
AcDbEntity
  8
0
  0
POLYLINE
  5
61F
330
1F
100
AcDbEntity
  8
0
100
AcDb2dPolyline
 66
     1
 10
0.0
 20
0.0
 30
0.0
 70
     1
  0
VERTEX
  5
620
330
61F
100
AcDbEntity
  8
0
100
AcDbVertex
100
AcDb2dVertex
 10
-530.7216316805875
 20
131.294247216907
 30
0.0
  0
VERTEX
  5
621
330
61F
100
AcDbEntity
  8
0
100
AcDbVertex
100
AcDb2dVertex
 10
-530.7216316805868
 20
111.2942472169075
 30
0.0
  0
VERTEX
  5
622
330
61F
100
AcDbEntity
  8
0
100
AcDbVertex
100
AcDb2dVertex
 10
-540.7216316805873
 20
111.2942472169075
 30
0.0
  0
VERTEX
  5
623
330
61F
100
AcDbEntity
  8
0
100
AcDbVertex
100
AcDb2dVertex
 10
-540.7216316805868
 20
131.294247216907
 30
0.0
  0
SEQEND
  5
624
330
61F
100
AcDbEntity
  8
0
  0
POLYLINE
  5
625
330
1F
100
AcDbEntity
  8
0
100
AcDb2dPolyline
 66
     1
 10
0.0
 20
0.0
 30
0.0
 70
     1
  0
VERTEX
  5
626
330
625
100
AcDbEntity
  8
0
100
AcDbVertex
100
AcDb2dVertex
 10
-670.7216316805877
 20
91.29424721690748
 30
0.0
  0
VERTEX
  5
627
330
625
100
AcDbEntity
  8
0
100
AcDbVertex
100
AcDb2dVertex
 10
-650.7216316805868
 20
91.29424721690702
 30
0.0
  0
VERTEX
  5
628
330
625
100
AcDbEntity
  8
0
100
AcDbVertex
100
AcDb2dVertex
 10
-650.7216316805877
 20
81.29424721690657
 30
0.0
  0
VERTEX
  5
629
330
625
100
AcDbEntity
  8
0
100
AcDbVertex
100
AcDb2dVertex
 10
-670.7216316805873
 20
81.29424721690702
 30
0.0
  0
SEQEND
  5
62A
330
625
100
AcDbEntity
  8
0
  0
POLYLINE
  5
62B
330
1F
100
AcDbEntity
  8
0
100
AcDb2dPolyline
 66
     1
 10
0.0
 20
0.0
 30
0.0
 70
     1
  0
VERTEX
  5
62C
330
62B
100
AcDbEntity
  8
0
100
AcDbVertex
100
AcDb2dVertex
 10
-670.7216316805868
 20
71.29424721690748
 30
0.0
  0
VERTEX
  5
62D
330
62B
100
AcDbEntity
  8
0
100
AcDbVertex
100
AcDb2dVertex
 10
-650.7216316805881
 20
71.29424721690748
 30
0.0
  0
VERTEX
  5
62E
330
62B
100
AcDbEntity
  8
0
100
AcDbVertex
100
AcDb2dVertex
 10
-650.7216316805868
 20
61.29424721690747
 30
0.0
  0
VERTEX
  5
62F
330
62B
100
AcDbEntity
  8
0
100
AcDbVertex
100
AcDb2dVertex
 10
-670.7216316805877
 20
61.29424721690702
 30
0.0
  0
SEQEND
  5
630
330
62B
100
AcDbEntity
  8
0
  0
POLYLINE
  5
631
330
1F
100
AcDbEntity
  8
0
100
AcDb2dPolyline
 66
     1
 10
0.0
 20
0.0
 30
0.0
 70
     1
  0
VERTEX
  5
632
330
631
100
AcDbEntity
  8
0
100
AcDbVertex
100
AcDb2dVertex
 10
-670.7216316805873
 20
51.29424721690702
 30
0.0
  0
VERTEX
  5
633
330
631
100
AcDbEntity
  8
0
100
AcDbVertex
100
AcDb2dVertex
 10
-650.7216316805873
 20
51.29424721690747
 30
0.0
  0
VERTEX
  5
634
330
631
100
AcDbEntity
  8
0
100
AcDbVertex
100
AcDb2dVertex
 10
-650.7216316805881
 20
41.29424721690702
 30
0.0
  0
VERTEX
  5
635
330
631
100
AcDbEntity
  8
0
100
AcDbVertex
100
AcDb2dVertex
 10
-670.7216316805868
 20
41.29424721690748
 30
0.0
  0
SEQEND
  5
636
330
631
100
AcDbEntity
  8
0
  0
POLYLINE
  5
637
330
1F
100
AcDbEntity
  8
0
100
AcDb2dPolyline
 66
     1
 10
0.0
 20
0.0
 30
0.0
 70
     1
  0
VERTEX
  5
638
330
637
100
AcDbEntity
  8
0
100
AcDbVertex
100
AcDb2dVertex
 10
-670.7216316805864
 20
31.29424721690748
 30
0.0
  0
VERTEX
  5
639
330
637
100
AcDbEntity
  8
0
100
AcDbVertex
100
AcDb2dVertex
 10
-650.7216316805868
 20
31.29424721690884
 30
0.0
  0
VERTEX
  5
63A
330
637
100
AcDbEntity
  8
0
100
AcDbVertex
100
AcDb2dVertex
 10
-650.7216316805872
 20
21.29424721690702
 30
0.0
  0
VERTEX
  5
63B
330
637
100
AcDbEntity
  8
0
100
AcDbVertex
100
AcDb2dVertex
 10
-670.721631680587
 20
21.29424721690748
 30
0.0
  0
SEQEND
  5
63C
330
637
100
AcDbEntity
  8
0
  0
POLYLINE
  5
63D
330
1F
100
AcDbEntity
  8
0
100
AcDb2dPolyline
 66
     1
 10
0.0
 20
0.0
 30
0.0
 70
     1
  0
VERTEX
  5
63E
330
63D
100
AcDbEntity
  8
0
100
AcDbVertex
100
AcDb2dVertex
 10
-670.7216316805868
 20
11.29424721690702
 30
0.0
  0
VERTEX
  5
63F
330
63D
100
AcDbEntity
  8
0
100
AcDbVertex
100
AcDb2dVertex
 10
-650.7216316805877
 20
11.29424721690702
 30
0.0
  0
VERTEX
  5
640
330
63D
100
AcDbEntity
  8
0
100
AcDbVertex
100
AcDb2dVertex
 10
-650.7216316805863
 20
1.294247216907024
 30
0.0
  0
VERTEX
  5
641
330
63D
100
AcDbEntity
  8
0
100
AcDbVertex
100
AcDb2dVertex
 10
-670.7216316805872
 20
1.294247216907024
 30
0.0
  0
SEQEND
  5
642
330
63D
100
AcDbEntity
  8
0
  0
POLYLINE
  5
643
330
1F
100
AcDbEntity
  8
0
100
AcDb2dPolyline
 66
     1
 10
0.0
 20
0.0
 30
0.0
 70
     1
  0
VERTEX
  5
644
330
643
100
AcDbEntity
  8
0
100
AcDbVertex
100
AcDb2dVertex
 10
-650.7216316805868
 20
91.29424721690702
 30
0.0
  0
VERTEX
  5
645
330
643
100
AcDbEntity
  8
0
100
AcDbVertex
100
AcDb2dVertex
 10
-630.7216316805872
 20
91.29424721690702
 30
0.0
  0
VERTEX
  5
646
330
643
100
AcDbEntity
  8
0
100
AcDbVertex
100
AcDb2dVertex
 10
-630.7216316805882
 20
71.29424721690701
 30
0.0
  0
VERTEX
  5
647
330
643
100
AcDbEntity
  8
0
100
AcDbVertex
100
AcDb2dVertex
 10
-650.7216316805881
 20
71.29424721690748
 30
0.0
  0
SEQEND
  5
648
330
643
100
AcDbEntity
  8
0
  0
POLYLINE
  5
649
330
1F
100
AcDbEntity
  8
0
100
AcDb2dPolyline
 66
     1
 10
0.0
 20
0.0
 30
0.0
 70
     1
  0
VERTEX
  5
64A
330
649
100
AcDbEntity
  8
0
100
AcDbVertex
100
AcDb2dVertex
 10
-650.7216316805881
 20
71.29424721690748
 30
0.0
  0
VERTEX
  5
64B
330
649
100
AcDbEntity
  8
0
100
AcDbVertex
100
AcDb2dVertex
 10
-630.7216316805882
 20
71.29424721690701
 30
0.0
  0
VERTEX
  5
64C
330
649
100
AcDbEntity
  8
0
100
AcDbVertex
100
AcDb2dVertex
 10
-630.7216316805866
 20
51.29424721690747
 30
0.0
  0
VERTEX
  5
64D
330
649
100
AcDbEntity
  8
0
100
AcDbVertex
100
AcDb2dVertex
 10
-650.7216316805873
 20
51.29424721690747
 30
0.0
  0
SEQEND
  5
64E
330
649
100
AcDbEntity
  8
0
  0
POLYLINE
  5
64F
330
1F
100
AcDbEntity
  8
0
100
AcDb2dPolyline
 66
     1
 10
0.0
 20
0.0
 30
0.0
 70
     1
  0
VERTEX
  5
650
330
64F
100
AcDbEntity
  8
0
100
AcDbVertex
100
AcDb2dVertex
 10
-650.7216316805873
 20
51.29424721690747
 30
0.0
  0
VERTEX
  5
651
330
64F
100
AcDbEntity
  8
0
100
AcDbVertex
100
AcDb2dVertex
 10
-630.7216316805866
 20
51.29424721690747
 30
0.0
  0
VERTEX
  5
652
330
64F
100
AcDbEntity
  8
0
100
AcDbVertex
100
AcDb2dVertex
 10
-630.7216316805879
 20
31.29424721690748
 30
0.0
  0
VERTEX
  5
653
330
64F
100
AcDbEntity
  8
0
100
AcDbVertex
100
AcDb2dVertex
 10
-650.7216316805868
 20
31.29424721690884
 30
0.0
  0
SEQEND
  5
654
330
64F
100
AcDbEntity
  8
0
  0
POLYLINE
  5
655
330
1F
100
AcDbEntity
  8
0
100
AcDb2dPolyline
 66
     1
 10
0.0
 20
0.0
 30
0.0
 70
     1
  0
VERTEX
  5
656
330
655
100
AcDbEntity
  8
0
100
AcDbVertex
100
AcDb2dVertex
 10
-650.7216316805868
 20
31.29424721690884
 30
0.0
  0
VERTEX
  5
657
330
655
100
AcDbEntity
  8
0
100
AcDbVertex
100
AcDb2dVertex
 10
-630.7216316805879
 20
31.29424721690748
 30
0.0
  0
VERTEX
  5
658
330
655
100
AcDbEntity
  8
0
100
AcDbVertex
100
AcDb2dVertex
 10
-630.7216316805868
 20
11.29424721690702
 30
0.0
  0
VERTEX
  5
659
330
655
100
AcDbEntity
  8
0
100
AcDbVertex
100
AcDb2dVertex
 10
-650.7216316805877
 20
11.29424721690702
 30
0.0
  0
SEQEND
  5
65A
330
655
100
AcDbEntity
  8
0
  0
POLYLINE
  5
65B
330
1F
100
AcDbEntity
  8
0
100
AcDb2dPolyline
 66
     1
 10
0.0
 20
0.0
 30
0.0
 70
     1
  0
VERTEX
  5
65C
330
65B
100
AcDbEntity
  8
0
100
AcDbVertex
100
AcDb2dVertex
 10
-650.7216316805877
 20
11.29424721690702
 30
0.0
  0
VERTEX
  5
65D
330
65B
100
AcDbEntity
  8
0
100
AcDbVertex
100
AcDb2dVertex
 10
-630.7216316805868
 20
11.29424721690702
 30
0.0
  0
VERTEX
  5
65E
330
65B
100
AcDbEntity
  8
0
100
AcDbVertex
100
AcDb2dVertex
 10
-630.7216316805872
 20
-8.705752783092066
 30
0.0
  0
VERTEX
  5
65F
330
65B
100
AcDbEntity
  8
0
100
AcDbVertex
100
AcDb2dVertex
 10
-650.7216316805868
 20
-8.705752783092977
 30
0.0
  0
SEQEND
  5
660
330
65B
100
AcDbEntity
  8
0
  0
POLYLINE
  5
661
330
1F
100
AcDbEntity
  8
0
100
AcDb2dPolyline
 66
     1
 10
0.0
 20
0.0
 30
0.0
 70
     1
  0
VERTEX
  5
662
330
661
100
AcDbEntity
  8
0
100
AcDbVertex
100
AcDb2dVertex
 10
-610.7216316805873
 20
-28.70575278309207
 30
0.0
  0
VERTEX
  5
663
330
661
100
AcDbEntity
  8
0
100
AcDbVertex
100
AcDb2dVertex
 10
-610.7216316805873
 20
-8.705752783092066
 30
0.0
  0
VERTEX
  5
664
330
661
100
AcDbEntity
  8
0
100
AcDbVertex
100
AcDb2dVertex
 10
-630.7216316805872
 20
-8.705752783092066
 30
0.0
  0
VERTEX
  5
665
330
661
100
AcDbEntity
  8
0
100
AcDbVertex
100
AcDb2dVertex
 10
-630.7216316805872
 20
-28.70575278309207
 30
0.0
  0
SEQEND
  5
666
330
661
100
AcDbEntity
  8
0
  0
POLYLINE
  5
667
330
1F
100
AcDbEntity
  8
0
100
AcDb2dPolyline
 66
     1
 10
0.0
 20
0.0
 30
0.0
 70
     1
  0
VERTEX
  5
668
330
667
100
AcDbEntity
  8
0
100
AcDbVertex
100
AcDb2dVertex
 10
-590.7216316805873
 20
-28.70575278309207
 30
0.0
  0
VERTEX
  5
669
330
667
100
AcDbEntity
  8
0
100
AcDbVertex
100
AcDb2dVertex
 10
-590.7216316805873
 20
-8.705752783092066
 30
0.0
  0
VERTEX
  5
66A
330
667
100
AcDbEntity
  8
0
100
AcDbVertex
100
AcDb2dVertex
 10
-610.7216316805873
 20
-8.705752783092066
 30
0.0
  0
VERTEX
  5
66B
330
667
100
AcDbEntity
  8
0
100
AcDbVertex
100
AcDb2dVertex
 10
-610.7216316805873
 20
-28.70575278309207
 30
0.0
  0
SEQEND
  5
66C
330
667
100
AcDbEntity
  8
0
  0
POLYLINE
  5
66D
330
1F
100
AcDbEntity
  8
0
100
AcDb2dPolyline
 66
     1
 10
0.0
 20
0.0
 30
0.0
 70
     1
  0
VERTEX
  5
66E
330
66D
100
AcDbEntity
  8
0
100
AcDbVertex
100
AcDb2dVertex
 10
-570.7216316805881
 20
-28.70575278309207
 30
0.0
  0
VERTEX
  5
66F
330
66D
100
AcDbEntity
  8
0
100
AcDbVertex
100
AcDb2dVertex
 10
-570.7216316805881
 20
-8.705752783092066
 30
0.0
  0
VERTEX
  5
670
330
66D
100
AcDbEntity
  8
0
100
AcDbVertex
100
AcDb2dVertex
 10
-590.7216316805873
 20
-8.705752783092066
 30
0.0
  0
VERTEX
  5
671
330
66D
100
AcDbEntity
  8
0
100
AcDbVertex
100
AcDb2dVertex
 10
-590.7216316805873
 20
-28.70575278309207
 30
0.0
  0
SEQEND
  5
672
330
66D
100
AcDbEntity
  8
0
  0
POLYLINE
  5
673
330
1F
100
AcDbEntity
  8
0
100
AcDb2dPolyline
 66
     1
 10
0.0
 20
0.0
 30
0.0
 70
     1
  0
VERTEX
  5
674
330
673
100
AcDbEntity
  8
0
100
AcDbVertex
100
AcDb2dVertex
 10
-550.7216316805881
 20
-28.70575278309207
 30
0.0
  0
VERTEX
  5
675
330
673
100
AcDbEntity
  8
0
100
AcDbVertex
100
AcDb2dVertex
 10
-550.7216316805881
 20
-8.705752783092066
 30
0.0
  0
VERTEX
  5
676
330
673
100
AcDbEntity
  8
0
100
AcDbVertex
100
AcDb2dVertex
 10
-570.7216316805881
 20
-8.705752783092066
 30
0.0
  0
VERTEX
  5
677
330
673
100
AcDbEntity
  8
0
100
AcDbVertex
100
AcDb2dVertex
 10
-570.7216316805881
 20
-28.70575278309207
 30
0.0
  0
SEQEND
  5
678
330
673
100
AcDbEntity
  8
0
  0
POLYLINE
  5
679
330
1F
100
AcDbEntity
  8
0
100
AcDb2dPolyline
 66
     1
 10
0.0
 20
0.0
 30
0.0
 70
     1
  0
VERTEX
  5
67A
330
679
100
AcDbEntity
  8
0
100
AcDbVertex
100
AcDb2dVertex
 10
-530.7216316805882
 20
-28.70575278309207
 30
0.0
  0
VERTEX
  5
67B
330
679
100
AcDbEntity
  8
0
100
AcDbVertex
100
AcDb2dVertex
 10
-530.7216316805882
 20
-8.705752783092066
 30
0.0
  0
VERTEX
  5
67C
330
679
100
AcDbEntity
  8
0
100
AcDbVertex
100
AcDb2dVertex
 10
-550.7216316805881
 20
-8.705752783092066
 30
0.0
  0
VERTEX
  5
67D
330
679
100
AcDbEntity
  8
0
100
AcDbVertex
100
AcDb2dVertex
 10
-550.7216316805881
 20
-28.70575278309207
 30
0.0
  0
SEQEND
  5
67E
330
679
100
AcDbEntity
  8
0
  0
POLYLINE
  5
67F
330
1F
100
AcDbEntity
  8
0
100
AcDb2dPolyline
 66
     1
 10
0.0
 20
0.0
 30
0.0
 70
     1
  0
VERTEX
  5
680
330
67F
100
AcDbEntity
  8
0
100
AcDbVertex
100
AcDb2dVertex
 10
-610.7216316805873
 20
-48.70575278309207
 30
0.0
  0
VERTEX
  5
681
330
67F
100
AcDbEntity
  8
0
100
AcDbVertex
100
AcDb2dVertex
 10
-610.7216316805873
 20
-28.70575278309207
 30
0.0
  0
VERTEX
  5
682
330
67F
100
AcDbEntity
  8
0
100
AcDbVertex
100
AcDb2dVertex
 10
-620.7216316805872
 20
-28.70575278309207
 30
0.0
  0
VERTEX
  5
683
330
67F
100
AcDbEntity
  8
0
100
AcDbVertex
100
AcDb2dVertex
 10
-620.7216316805872
 20
-48.70575278309207
 30
0.0
  0
SEQEND
  5
684
330
67F
100
AcDbEntity
  8
0
  0
POLYLINE
  5
685
330
1F
100
AcDbEntity
  8
0
100
AcDb2dPolyline
 66
     1
 10
0.0
 20
0.0
 30
0.0
 70
     1
  0
VERTEX
  5
686
330
685
100
AcDbEntity
  8
0
100
AcDbVertex
100
AcDb2dVertex
 10
-590.7216316805873
 20
-48.70575278309207
 30
0.0
  0
VERTEX
  5
687
330
685
100
AcDbEntity
  8
0
100
AcDbVertex
100
AcDb2dVertex
 10
-590.7216316805873
 20
-28.70575278309207
 30
0.0
  0
VERTEX
  5
688
330
685
100
AcDbEntity
  8
0
100
AcDbVertex
100
AcDb2dVertex
 10
-600.7216316805872
 20
-28.70575278309207
 30
0.0
  0
VERTEX
  5
689
330
685
100
AcDbEntity
  8
0
100
AcDbVertex
100
AcDb2dVertex
 10
-600.7216316805872
 20
-48.70575278309207
 30
0.0
  0
SEQEND
  5
68A
330
685
100
AcDbEntity
  8
0
  0
POLYLINE
  5
68B
330
1F
100
AcDbEntity
  8
0
100
AcDb2dPolyline
 66
     1
 10
0.0
 20
0.0
 30
0.0
 70
     1
  0
VERTEX
  5
68C
330
68B
100
AcDbEntity
  8
0
100
AcDbVertex
100
AcDb2dVertex
 10
-570.7216316805881
 20
-48.70575278309207
 30
0.0
  0
VERTEX
  5
68D
330
68B
100
AcDbEntity
  8
0
100
AcDbVertex
100
AcDb2dVertex
 10
-570.7216316805881
 20
-28.70575278309207
 30
0.0
  0
VERTEX
  5
68E
330
68B
100
AcDbEntity
  8
0
100
AcDbVertex
100
AcDb2dVertex
 10
-580.7216316805882
 20
-28.70575278309207
 30
0.0
  0
VERTEX
  5
68F
330
68B
100
AcDbEntity
  8
0
100
AcDbVertex
100
AcDb2dVertex
 10
-580.7216316805882
 20
-48.70575278309207
 30
0.0
  0
SEQEND
  5
690
330
68B
100
AcDbEntity
  8
0
  0
POLYLINE
  5
691
330
1F
100
AcDbEntity
  8
0
100
AcDb2dPolyline
 66
     1
 10
0.0
 20
0.0
 30
0.0
 70
     1
  0
VERTEX
  5
692
330
691
100
AcDbEntity
  8
0
100
AcDbVertex
100
AcDb2dVertex
 10
-550.7216316805881
 20
-48.70575278309207
 30
0.0
  0
VERTEX
  5
693
330
691
100
AcDbEntity
  8
0
100
AcDbVertex
100
AcDb2dVertex
 10
-550.7216316805881
 20
-28.70575278309207
 30
0.0
  0
VERTEX
  5
694
330
691
100
AcDbEntity
  8
0
100
AcDbVertex
100
AcDb2dVertex
 10
-560.7216316805882
 20
-28.70575278309207
 30
0.0
  0
VERTEX
  5
695
330
691
100
AcDbEntity
  8
0
100
AcDbVertex
100
AcDb2dVertex
 10
-560.7216316805882
 20
-48.70575278309207
 30
0.0
  0
SEQEND
  5
696
330
691
100
AcDbEntity
  8
0
  0
POLYLINE
  5
697
330
1F
100
AcDbEntity
  8
0
100
AcDb2dPolyline
 66
     1
 10
0.0
 20
0.0
 30
0.0
 70
     1
  0
VERTEX
  5
698
330
697
100
AcDbEntity
  8
0
100
AcDbVertex
100
AcDb2dVertex
 10
-530.7216316805882
 20
-48.70575278309207
 30
0.0
  0
VERTEX
  5
699
330
697
100
AcDbEntity
  8
0
100
AcDbVertex
100
AcDb2dVertex
 10
-530.7216316805882
 20
-28.70575278309207
 30
0.0
  0
VERTEX
  5
69A
330
697
100
AcDbEntity
  8
0
100
AcDbVertex
100
AcDb2dVertex
 10
-540.7216316805881
 20
-28.70575278309207
 30
0.0
  0
VERTEX
  5
69B
330
697
100
AcDbEntity
  8
0
100
AcDbVertex
100
AcDb2dVertex
 10
-540.7216316805881
 20
-48.70575278309207
 30
0.0
  0
SEQEND
  5
69C
330
697
100
AcDbEntity
  8
0
  0
POLYLINE
  5
69D
330
1F
100
AcDbEntity
  8
0
100
AcDb2dPolyline
 66
     1
 10
0.0
 20
0.0
 30
0.0
 70
     1
  0
VERTEX
  5
69E
330
69D
100
AcDbEntity
  8
0
100
AcDbVertex
100
AcDb2dVertex
 10
-510.7216316805881
 20
11.29424721690793
 30
0.0
  0
VERTEX
  5
69F
330
69D
100
AcDbEntity
  8
0
100
AcDbVertex
100
AcDb2dVertex
 10
-530.7216316805882
 20
11.29424721690793
 30
0.0
  0
VERTEX
  5
6A0
330
69D
100
AcDbEntity
  8
0
100
AcDbVertex
100
AcDb2dVertex
 10
-530.7216316805882
 20
-8.705752783092066
 30
0.0
  0
VERTEX
  5
6A1
330
69D
100
AcDbEntity
  8
0
100
AcDbVertex
100
AcDb2dVertex
 10
-510.7216316805881
 20
-8.705752783092066
 30
0.0
  0
SEQEND
  5
6A2
330
69D
100
AcDbEntity
  8
0
  0
POLYLINE
  5
6A3
330
1F
100
AcDbEntity
  8
0
100
AcDb2dPolyline
 66
     1
 10
0.0
 20
0.0
 30
0.0
 70
     1
  0
VERTEX
  5
6A4
330
6A3
100
AcDbEntity
  8
0
100
AcDbVertex
100
AcDb2dVertex
 10
-510.7216316805881
 20
31.29424721690793
 30
0.0
  0
VERTEX
  5
6A5
330
6A3
100
AcDbEntity
  8
0
100
AcDbVertex
100
AcDb2dVertex
 10
-530.7216316805882
 20
31.29424721690793
 30
0.0
  0
VERTEX
  5
6A6
330
6A3
100
AcDbEntity
  8
0
100
AcDbVertex
100
AcDb2dVertex
 10
-530.7216316805882
 20
11.29424721690793
 30
0.0
  0
VERTEX
  5
6A7
330
6A3
100
AcDbEntity
  8
0
100
AcDbVertex
100
AcDb2dVertex
 10
-510.7216316805881
 20
11.29424721690793
 30
0.0
  0
SEQEND
  5
6A8
330
6A3
100
AcDbEntity
  8
0
  0
POLYLINE
  5
6A9
330
1F
100
AcDbEntity
  8
0
100
AcDb2dPolyline
 66
     1
 10
0.0
 20
0.0
 30
0.0
 70
     1
  0
VERTEX
  5
6AA
330
6A9
100
AcDbEntity
  8
0
100
AcDbVertex
100
AcDb2dVertex
 10
-510.7216316805881
 20
51.29424721690793
 30
0.0
  0
VERTEX
  5
6AB
330
6A9
100
AcDbEntity
  8
0
100
AcDbVertex
100
AcDb2dVertex
 10
-530.7216316805882
 20
51.29424721690793
 30
0.0
  0
VERTEX
  5
6AC
330
6A9
100
AcDbEntity
  8
0
100
AcDbVertex
100
AcDb2dVertex
 10
-530.7216316805882
 20
31.29424721690793
 30
0.0
  0
VERTEX
  5
6AD
330
6A9
100
AcDbEntity
  8
0
100
AcDbVertex
100
AcDb2dVertex
 10
-510.7216316805881
 20
31.29424721690793
 30
0.0
  0
SEQEND
  5
6AE
330
6A9
100
AcDbEntity
  8
0
  0
POLYLINE
  5
6AF
330
1F
100
AcDbEntity
  8
0
100
AcDb2dPolyline
 66
     1
 10
0.0
 20
0.0
 30
0.0
 70
     1
  0
VERTEX
  5
6B0
330
6AF
100
AcDbEntity
  8
0
100
AcDbVertex
100
AcDb2dVertex
 10
-510.7216316805881
 20
71.29424721690793
 30
0.0
  0
VERTEX
  5
6B1
330
6AF
100
AcDbEntity
  8
0
100
AcDbVertex
100
AcDb2dVertex
 10
-530.7216316805882
 20
71.29424721690793
 30
0.0
  0
VERTEX
  5
6B2
330
6AF
100
AcDbEntity
  8
0
100
AcDbVertex
100
AcDb2dVertex
 10
-530.7216316805882
 20
51.29424721690793
 30
0.0
  0
VERTEX
  5
6B3
330
6AF
100
AcDbEntity
  8
0
100
AcDbVertex
100
AcDb2dVertex
 10
-510.7216316805881
 20
51.29424721690793
 30
0.0
  0
SEQEND
  5
6B4
330
6AF
100
AcDbEntity
  8
0
  0
POLYLINE
  5
6B5
330
1F
100
AcDbEntity
  8
0
100
AcDb2dPolyline
 66
     1
 10
0.0
 20
0.0
 30
0.0
 70
     1
  0
VERTEX
  5
6B6
330
6B5
100
AcDbEntity
  8
0
100
AcDbVertex
100
AcDb2dVertex
 10
-510.7216316805881
 20
91.29424721690929
 30
0.0
  0
VERTEX
  5
6B7
330
6B5
100
AcDbEntity
  8
0
100
AcDbVertex
100
AcDb2dVertex
 10
-530.7216316805882
 20
91.29424721690929
 30
0.0
  0
VERTEX
  5
6B8
330
6B5
100
AcDbEntity
  8
0
100
AcDbVertex
100
AcDb2dVertex
 10
-530.7216316805882
 20
71.29424721690793
 30
0.0
  0
VERTEX
  5
6B9
330
6B5
100
AcDbEntity
  8
0
100
AcDbVertex
100
AcDb2dVertex
 10
-510.7216316805881
 20
71.29424721690793
 30
0.0
  0
SEQEND
  5
6BA
330
6B5
100
AcDbEntity
  8
0
  0
POLYLINE
  5
6BB
330
1F
100
AcDbEntity
  8
0
100
AcDb2dPolyline
 66
     1
 10
0.0
 20
0.0
 30
0.0
 70
     1
  0
VERTEX
  5
6BC
330
6BB
100
AcDbEntity
  8
0
100
AcDbVertex
100
AcDb2dVertex
 10
-490.7216316805864
 20
11.29424721690793
 30
0.0
  0
VERTEX
  5
6BD
330
6BB
100
AcDbEntity
  8
0
100
AcDbVertex
100
AcDb2dVertex
 10
-510.7216316805881
 20
11.29424721690793
 30
0.0
  0
VERTEX
  5
6BE
330
6BB
100
AcDbEntity
  8
0
100
AcDbVertex
100
AcDb2dVertex
 10
-510.7216316805881
 20
1.294247216907934
 30
0.0
  0
VERTEX
  5
6BF
330
6BB
100
AcDbEntity
  8
0
100
AcDbVertex
100
AcDb2dVertex
 10
-490.7216316805864
 20
1.294247216907934
 30
0.0
  0
SEQEND
  5
6C0
330
6BB
100
AcDbEntity
  8
0
  0
POLYLINE
  5
6C1
330
1F
100
AcDbEntity
  8
0
100
AcDb2dPolyline
 66
     1
 10
0.0
 20
0.0
 30
0.0
 70
     1
  0
VERTEX
  5
6C2
330
6C1
100
AcDbEntity
  8
0
100
AcDbVertex
100
AcDb2dVertex
 10
-490.7216316805864
 20
31.29424721690793
 30
0.0
  0
VERTEX
  5
6C3
330
6C1
100
AcDbEntity
  8
0
100
AcDbVertex
100
AcDb2dVertex
 10
-510.7216316805881
 20
31.29424721690793
 30
0.0
  0
VERTEX
  5
6C4
330
6C1
100
AcDbEntity
  8
0
100
AcDbVertex
100
AcDb2dVertex
 10
-510.7216316805881
 20
21.29424721690793
 30
0.0
  0
VERTEX
  5
6C5
330
6C1
100
AcDbEntity
  8
0
100
AcDbVertex
100
AcDb2dVertex
 10
-490.7216316805864
 20
21.29424721690793
 30
0.0
  0
SEQEND
  5
6C6
330
6C1
100
AcDbEntity
  8
0
  0
POLYLINE
  5
6C7
330
1F
100
AcDbEntity
  8
0
100
AcDb2dPolyline
 66
     1
 10
0.0
 20
0.0
 30
0.0
 70
     1
  0
VERTEX
  5
6C8
330
6C7
100
AcDbEntity
  8
0
100
AcDbVertex
100
AcDb2dVertex
 10
-490.7216316805864
 20
51.29424721690793
 30
0.0
  0
VERTEX
  5
6C9
330
6C7
100
AcDbEntity
  8
0
100
AcDbVertex
100
AcDb2dVertex
 10
-510.7216316805881
 20
51.29424721690793
 30
0.0
  0
VERTEX
  5
6CA
330
6C7
100
AcDbEntity
  8
0
100
AcDbVertex
100
AcDb2dVertex
 10
-510.7216316805881
 20
41.2942472169093
 30
0.0
  0
VERTEX
  5
6CB
330
6C7
100
AcDbEntity
  8
0
100
AcDbVertex
100
AcDb2dVertex
 10
-490.7216316805864
 20
41.2942472169093
 30
0.0
  0
SEQEND
  5
6CC
330
6C7
100
AcDbEntity
  8
0
  0
POLYLINE
  5
6CD
330
1F
100
AcDbEntity
  8
0
100
AcDb2dPolyline
 66
     1
 10
0.0
 20
0.0
 30
0.0
 70
     1
  0
VERTEX
  5
6CE
330
6CD
100
AcDbEntity
  8
0
100
AcDbVertex
100
AcDb2dVertex
 10
-490.7216316805864
 20
71.29424721690793
 30
0.0
  0
VERTEX
  5
6CF
330
6CD
100
AcDbEntity
  8
0
100
AcDbVertex
100
AcDb2dVertex
 10
-510.7216316805881
 20
71.29424721690793
 30
0.0
  0
VERTEX
  5
6D0
330
6CD
100
AcDbEntity
  8
0
100
AcDbVertex
100
AcDb2dVertex
 10
-510.7216316805881
 20
61.29424721690929
 30
0.0
  0
VERTEX
  5
6D1
330
6CD
100
AcDbEntity
  8
0
100
AcDbVertex
100
AcDb2dVertex
 10
-490.7216316805864
 20
61.29424721690929
 30
0.0
  0
SEQEND
  5
6D2
330
6CD
100
AcDbEntity
  8
0
  0
POLYLINE
  5
6D3
330
1F
100
AcDbEntity
  8
0
100
AcDb2dPolyline
 66
     1
 10
0.0
 20
0.0
 30
0.0
 70
     1
  0
VERTEX
  5
6D4
330
6D3
100
AcDbEntity
  8
0
100
AcDbVertex
100
AcDb2dVertex
 10
-490.7216316805864
 20
91.29424721690929
 30
0.0
  0
VERTEX
  5
6D5
330
6D3
100
AcDbEntity
  8
0
100
AcDbVertex
100
AcDb2dVertex
 10
-510.7216316805881
 20
91.29424721690929
 30
0.0
  0
VERTEX
  5
6D6
330
6D3
100
AcDbEntity
  8
0
100
AcDbVertex
100
AcDb2dVertex
 10
-510.7216316805881
 20
81.29424721690929
 30
0.0
  0
VERTEX
  5
6D7
330
6D3
100
AcDbEntity
  8
0
100
AcDbVertex
100
AcDb2dVertex
 10
-490.7216316805864
 20
81.29424721690929
 30
0.0
  0
SEQEND
  5
6D8
330
6D3
100
AcDbEntity
  8
0
  0
POLYLINE
  5
6D9
330
1F
100
AcDbEntity
  8
0
100
AcDb2dPolyline
 66
     1
 10
0.0
 20
0.0
 30
0.0
  0
VERTEX
  5
6DA
330
6D9
100
AcDbEntity
  8
0
100
AcDbVertex
100
AcDb2dVertex
 10
-156.0
 20
157.9999999999999
 30
0.0
  0
VERTEX
  5
6DB
330
6D9
100
AcDbEntity
  8
0
100
AcDbVertex
100
AcDb2dVertex
 10
-156.0
 20
138.0
 30
0.0
  0
SEQEND
  5
6DC
330
6D9
100
AcDbEntity
  8
0
  0
POLYLINE
  5
6DD
330
1F
100
AcDbEntity
  8
0
100
AcDb2dPolyline
 66
     1
 10
0.0
 20
0.0
 30
0.0
  0
VERTEX
  5
6DE
330
6DD
100
AcDbEntity
  8
0
100
AcDbVertex
100
AcDb2dVertex
 10
-156.0
 20
118.0
 30
0.0
  0
VERTEX
  5
6DF
330
6DD
100
AcDbEntity
  8
0
100
AcDbVertex
100
AcDb2dVertex
 10
-156.0
 20
108.0000000000001
 30
0.0
  0
SEQEND
  5
6E0
330
6DD
100
AcDbEntity
  8
0
  0
POLYLINE
  5
6E1
330
1F
100
AcDbEntity
  8
0
100
AcDb2dPolyline
 66
     1
 10
0.0
 20
0.0
 30
0.0
  0
VERTEX
  5
6E2
330
6E1
100
AcDbEntity
  8
0
100
AcDbVertex
100
AcDb2dVertex
 10
-156.0
 20
78.00000000000007
 30
0.0
  0
VERTEX
  5
6E3
330
6E1
100
AcDbEntity
  8
0
100
AcDbVertex
100
AcDb2dVertex
 10
-156.0
 20
67.99999999999993
 30
0.0
  0
SEQEND
  5
6E4
330
6E1
100
AcDbEntity
  8
0
  0
POLYLINE
  5
6E5
330
1F
100
AcDbEntity
  8
0
100
AcDb2dPolyline
 66
     1
 10
0.0
 20
0.0
 30
0.0
  0
VERTEX
  5
6E6
330
6E5
100
AcDbEntity
  8
0
100
AcDbVertex
100
AcDb2dVertex
 10
-156.0
 20
37.99999999999994
 30
0.0
  0
VERTEX
  5
6E7
330
6E5
100
AcDbEntity
  8
0
100
AcDbVertex
100
AcDb2dVertex
 10
-156.0
 20
27.99999999999994
 30
0.0
  0
SEQEND
  5
6E8
330
6E5
100
AcDbEntity
  8
0
  0
POLYLINE
  5
6E9
330
1F
100
AcDbEntity
  8
0
100
AcDb2dPolyline
 66
     1
 10
0.0
 20
0.0
 30
0.0
  0
VERTEX
  5
6EA
330
6E9
100
AcDbEntity
  8
0
100
AcDbVertex
100
AcDb2dVertex
 10
-156.0
 20
-2.000000000000056
 30
0.0
  0
VERTEX
  5
6EB
330
6E9
100
AcDbEntity
  8
0
100
AcDbVertex
100
AcDb2dVertex
 10
-156.0
 20
-12.00000000000006
 30
0.0
  0
SEQEND
  5
6EC
330
6E9
100
AcDbEntity
  8
0
  0
POLYLINE
  5
6ED
330
1F
100
AcDbEntity
  8
0
100
AcDb2dPolyline
 66
     1
 10
0.0
 20
0.0
 30
0.0
  0
VERTEX
  5
6EE
330
6ED
100
AcDbEntity
  8
0
100
AcDbVertex
100
AcDb2dVertex
 10
-156.0
 20
-42.00000000000006
 30
0.0
  0
VERTEX
  5
6EF
330
6ED
100
AcDbEntity
  8
0
100
AcDbVertex
100
AcDb2dVertex
 10
-156.0
 20
-52.00000000000014
 30
0.0
  0
SEQEND
  5
6F0
330
6ED
100
AcDbEntity
  8
0
  0
POLYLINE
  5
6F1
330
1F
100
AcDbEntity
  8
0
100
AcDb2dPolyline
 66
     1
 10
0.0
 20
0.0
 30
0.0
  0
VERTEX
  5
6F2
330
6F1
100
AcDbEntity
  8
0
100
AcDbVertex
100
AcDb2dVertex
 10
-156.0
 20
98.00000000000006
 30
0.0
  0
VERTEX
  5
6F3
330
6F1
100
AcDbEntity
  8
0
100
AcDbVertex
100
AcDb2dVertex
 10
-156.0
 20
108.0000000000001
 30
0.0
  0
VERTEX
  5
6F4
330
6F1
100
AcDbEntity
  8
0
100
AcDbVertex
100
AcDb2dVertex
 10
-195.9999999999991
 20
108.0000000000001
 30
0.0
  0
SEQEND
  5
6F5
330
6F1
100
AcDbEntity
  8
0
  0
POLYLINE
  5
6F6
330
1F
100
AcDbEntity
  8
0
100
AcDb2dPolyline
 66
     1
 10
0.0
 20
0.0
 30
0.0
  0
VERTEX
  5
6F7
330
6F6
100
AcDbEntity
  8
0
100
AcDbVertex
100
AcDb2dVertex
 10
-156.0
 20
78.00000000000007
 30
0.0
  0
VERTEX
  5
6F8
330
6F6
100
AcDbEntity
  8
0
100
AcDbVertex
100
AcDb2dVertex
 10
-156.0
 20
88.00000000000006
 30
0.0
  0
VERTEX
  5
6F9
330
6F6
100
AcDbEntity
  8
0
100
AcDbVertex
100
AcDb2dVertex
 10
-195.9999999999991
 20
88.00000000000011
 30
0.0
  0
SEQEND
  5
6FA
330
6F6
100
AcDbEntity
  8
0
  0
POLYLINE
  5
6FB
330
1F
100
AcDbEntity
  8
0
100
AcDb2dPolyline
 66
     1
 10
0.0
 20
0.0
 30
0.0
  0
VERTEX
  5
6FC
330
6FB
100
AcDbEntity
  8
0
100
AcDbVertex
100
AcDb2dVertex
 10
-156.0
 20
57.99999999999993
 30
0.0
  0
VERTEX
  5
6FD
330
6FB
100
AcDbEntity
  8
0
100
AcDbVertex
100
AcDb2dVertex
 10
-156.0
 20
67.99999999999993
 30
0.0
  0
VERTEX
  5
6FE
330
6FB
100
AcDbEntity
  8
0
100
AcDbVertex
100
AcDb2dVertex
 10
-195.9999999999991
 20
68.0
 30
0.0
  0
SEQEND
  5
6FF
330
6FB
100
AcDbEntity
  8
0
  0
POLYLINE
  5
700
330
1F
100
AcDbEntity
  8
0
100
AcDb2dPolyline
 66
     1
 10
0.0
 20
0.0
 30
0.0
  0
VERTEX
  5
701
330
700
100
AcDbEntity
  8
0
100
AcDbVertex
100
AcDb2dVertex
 10
-156.0
 20
37.99999999999994
 30
0.0
  0
VERTEX
  5
702
330
700
100
AcDbEntity
  8
0
100
AcDbVertex
100
AcDb2dVertex
 10
-156.0
 20
47.99999999999993
 30
0.0
  0
VERTEX
  5
703
330
700
100
AcDbEntity
  8
0
100
AcDbVertex
100
AcDb2dVertex
 10
-195.9999999999991
 20
47.99999999999993
 30
0.0
  0
SEQEND
  5
704
330
700
100
AcDbEntity
  8
0
  0
POLYLINE
  5
705
330
1F
100
AcDbEntity
  8
0
100
AcDb2dPolyline
 66
     1
 10
0.0
 20
0.0
 30
0.0
  0
VERTEX
  5
706
330
705
100
AcDbEntity
  8
0
100
AcDbVertex
100
AcDb2dVertex
 10
-156.0
 20
17.99999999999994
 30
0.0
  0
VERTEX
  5
707
330
705
100
AcDbEntity
  8
0
100
AcDbVertex
100
AcDb2dVertex
 10
-156.0
 20
27.99999999999994
 30
0.0
  0
VERTEX
  5
708
330
705
100
AcDbEntity
  8
0
100
AcDbVertex
100
AcDb2dVertex
 10
-195.9999999999991
 20
27.99999999999994
 30
0.0
  0
SEQEND
  5
709
330
705
100
AcDbEntity
  8
0
  0
POLYLINE
  5
70A
330
1F
100
AcDbEntity
  8
0
100
AcDb2dPolyline
 66
     1
 10
0.0
 20
0.0
 30
0.0
  0
VERTEX
  5
70B
330
70A
100
AcDbEntity
  8
0
100
AcDbVertex
100
AcDb2dVertex
 10
-156.0
 20
-2.000000000000056
 30
0.0
  0
VERTEX
  5
70C
330
70A
100
AcDbEntity
  8
0
100
AcDbVertex
100
AcDb2dVertex
 10
-156.0
 20
7.999999999999943
 30
0.0
  0
VERTEX
  5
70D
330
70A
100
AcDbEntity
  8
0
100
AcDbVertex
100
AcDb2dVertex
 10
-195.9999999999991
 20
7.999999999999943
 30
0.0
  0
SEQEND
  5
70E
330
70A
100
AcDbEntity
  8
0
  0
POLYLINE
  5
70F
330
1F
100
AcDbEntity
  8
0
100
AcDb2dPolyline
 66
     1
 10
0.0
 20
0.0
 30
0.0
  0
VERTEX
  5
710
330
70F
100
AcDbEntity
  8
0
100
AcDbVertex
100
AcDb2dVertex
 10
-156.0
 20
-22.00000000000006
 30
0.0
  0
VERTEX
  5
711
330
70F
100
AcDbEntity
  8
0
100
AcDbVertex
100
AcDb2dVertex
 10
-156.0
 20
-12.00000000000006
 30
0.0
  0
VERTEX
  5
712
330
70F
100
AcDbEntity
  8
0
100
AcDbVertex
100
AcDb2dVertex
 10
-175.9999999999991
 20
-12.0
 30
0.0
  0
VERTEX
  5
713
330
70F
100
AcDbEntity
  8
0
100
AcDbVertex
100
AcDb2dVertex
 10
-195.9999999999991
 20
-12.0
 30
0.0
  0
SEQEND
  5
714
330
70F
100
AcDbEntity
  8
0
  0
POLYLINE
  5
715
330
1F
100
AcDbEntity
  8
0
100
AcDb2dPolyline
 66
     1
 10
0.0
 20
0.0
 30
0.0
  0
VERTEX
  5
716
330
715
100
AcDbEntity
  8
0
100
AcDbVertex
100
AcDb2dVertex
 10
-156.0
 20
-42.00000000000006
 30
0.0
  0
VERTEX
  5
717
330
715
100
AcDbEntity
  8
0
100
AcDbVertex
100
AcDb2dVertex
 10
-156.0
 20
-32.00000000000006
 30
0.0
  0
VERTEX
  5
718
330
715
100
AcDbEntity
  8
0
100
AcDbVertex
100
AcDb2dVertex
 10
-195.9999999999991
 20
-32.00000000000006
 30
0.0
  0
SEQEND
  5
719
330
715
100
AcDbEntity
  8
0
  0
POLYLINE
  5
71A
330
1F
100
AcDbEntity
  8
0
100
AcDb2dPolyline
 66
     1
 10
0.0
 20
0.0
 30
0.0
  0
VERTEX
  5
71B
330
71A
100
AcDbEntity
  8
0
100
AcDbVertex
100
AcDb2dVertex
 10
-156.0
 20
-62.00000000000014
 30
0.0
  0
VERTEX
  5
71C
330
71A
100
AcDbEntity
  8
0
100
AcDbVertex
100
AcDb2dVertex
 10
-156.0
 20
-52.00000000000014
 30
0.0
  0
VERTEX
  5
71D
330
71A
100
AcDbEntity
  8
0
100
AcDbVertex
100
AcDb2dVertex
 10
-195.9999999999991
 20
-52.00000000000014
 30
0.0
  0
SEQEND
  5
71E
330
71A
100
AcDbEntity
  8
0
  0
POLYLINE
  5
71F
330
1F
100
AcDbEntity
  8
0
100
AcDb2dPolyline
 66
     1
 10
0.0
 20
0.0
 30
0.0
  0
VERTEX
  5
720
330
71F
100
AcDbEntity
  8
0
100
AcDbVertex
100
AcDb2dVertex
 10
-175.9999999999991
 20
177.9999999999999
 30
0.0
  0
VERTEX
  5
721
330
71F
100
AcDbEntity
  8
0
100
AcDbVertex
100
AcDb2dVertex
 10
-175.9999999999991
 20
-82.00000000000008
 30
0.0
  0
SEQEND
  5
722
330
71F
100
AcDbEntity
  8
0
  0
POLYLINE
  5
723
330
1F
100
AcDbEntity
  8
0
100
AcDb2dPolyline
 66
     1
 10
0.0
 20
0.0
 30
0.0
  0
VERTEX
  5
724
330
723
100
AcDbEntity
  8
0
100
AcDbVertex
100
AcDb2dVertex
 10
-195.9999999999991
 20
-82.00000000000008
 30
0.0
  0
VERTEX
  5
725
330
723
100
AcDbEntity
  8
0
100
AcDbVertex
100
AcDb2dVertex
 10
-195.9999999999991
 20
177.9999999999999
 30
0.0
  0
SEQEND
  5
726
330
723
100
AcDbEntity
  8
0
  0
POLYLINE
  5
727
330
1F
100
AcDbEntity
  8
0
100
AcDb2dPolyline
 66
     1
 10
0.0
 20
0.0
 30
0.0
  0
VERTEX
  5
728
330
727
100
AcDbEntity
  8
0
100
AcDbVertex
100
AcDb2dVertex
 10
-215.9999999999991
 20
177.9999999999999
 30
0.0
  0
VERTEX
  5
729
330
727
100
AcDbEntity
  8
0
100
AcDbVertex
100
AcDb2dVertex
 10
-215.9999999999991
 20
-82.00000000000008
 30
0.0
  0
SEQEND
  5
72A
330
727
100
AcDbEntity
  8
0
  0
POLYLINE
  5
72B
330
1F
100
AcDbEntity
  8
0
100
AcDb2dPolyline
 66
     1
 10
0.0
 20
0.0
 30
0.0
  0
VERTEX
  5
72C
330
72B
100
AcDbEntity
  8
0
100
AcDbVertex
100
AcDb2dVertex
 10
-235.9999999999991
 20
-82.00000000000008
 30
0.0
  0
VERTEX
  5
72D
330
72B
100
AcDbEntity
  8
0
100
AcDbVertex
100
AcDb2dVertex
 10
-235.9999999999991
 20
177.9999999999999
 30
0.0
  0
SEQEND
  5
72E
330
72B
100
AcDbEntity
  8
0
  0
POLYLINE
  5
72F
330
1F
100
AcDbEntity
  8
0
100
AcDb2dPolyline
 66
     1
 10
0.0
 20
0.0
 30
0.0
  0
VERTEX
  5
730
330
72F
100
AcDbEntity
  8
0
100
AcDbVertex
100
AcDb2dVertex
 10
-255.9999999999991
 20
177.9999999999999
 30
0.0
  0
VERTEX
  5
731
330
72F
100
AcDbEntity
  8
0
100
AcDbVertex
100
AcDb2dVertex
 10
-255.9999999999991
 20
-82.00000000000008
 30
0.0
  0
SEQEND
  5
732
330
72F
100
AcDbEntity
  8
0
  0
POLYLINE
  5
733
330
1F
100
AcDbEntity
  8
0
100
AcDb2dPolyline
 66
     1
 10
0.0
 20
0.0
 30
0.0
  0
VERTEX
  5
734
330
733
100
AcDbEntity
  8
0
100
AcDbVertex
100
AcDb2dVertex
 10
-275.9999999999991
 20
-82.00000000000008
 30
0.0
  0
VERTEX
  5
735
330
733
100
AcDbEntity
  8
0
100
AcDbVertex
100
AcDb2dVertex
 10
-275.9999999999991
 20
177.9999999999999
 30
0.0
  0
SEQEND
  5
736
330
733
100
AcDbEntity
  8
0
  0
POLYLINE
  5
737
330
1F
100
AcDbEntity
  8
0
100
AcDb2dPolyline
 66
     1
 10
0.0
 20
0.0
 30
0.0
  0
VERTEX
  5
738
330
737
100
AcDbEntity
  8
0
100
AcDbVertex
100
AcDb2dVertex
 10
-295.9999999999995
 20
177.9999999999999
 30
0.0
  0
VERTEX
  5
739
330
737
100
AcDbEntity
  8
0
100
AcDbVertex
100
AcDb2dVertex
 10
-295.9999999999991
 20
-82.00000000000008
 30
0.0
  0
SEQEND
  5
73A
330
737
100
AcDbEntity
  8
0
  0
POLYLINE
  5
73B
330
1F
100
AcDbEntity
  8
0
100
AcDb2dPolyline
 66
     1
 10
0.0
 20
0.0
 30
0.0
  0
VERTEX
  5
73C
330
73B
100
AcDbEntity
  8
0
100
AcDbVertex
100
AcDb2dVertex
 10
-315.9999999999986
 20
-82.00000000000027
 30
0.0
  0
VERTEX
  5
73D
330
73B
100
AcDbEntity
  8
0
100
AcDbVertex
100
AcDb2dVertex
 10
-315.9999999999995
 20
177.9999999999999
 30
0.0
  0
SEQEND
  5
73E
330
73B
100
AcDbEntity
  8
0
  0
POLYLINE
  5
73F
330
1F
100
AcDbEntity
  8
0
100
AcDb2dPolyline
 66
     1
 10
0.0
 20
0.0
 30
0.0
  0
VERTEX
  5
740
330
73F
100
AcDbEntity
  8
0
100
AcDbVertex
100
AcDb2dVertex
 10
-335.9999999999986
 20
177.9999999999999
 30
0.0
  0
VERTEX
  5
741
330
73F
100
AcDbEntity
  8
0
100
AcDbVertex
100
AcDb2dVertex
 10
-335.9999999999986
 20
-82.00000000000008
 30
0.0
  0
SEQEND
  5
742
330
73F
100
AcDbEntity
  8
0
  0
POLYLINE
  5
743
330
1F
100
AcDbEntity
  8
0
100
AcDb2dPolyline
 66
     1
 10
0.0
 20
0.0
 30
0.0
  0
VERTEX
  5
744
330
743
100
AcDbEntity
  8
0
100
AcDbVertex
100
AcDb2dVertex
 10
-355.9999999999992
 20
-82.00000000000008
 30
0.0
  0
VERTEX
  5
745
330
743
100
AcDbEntity
  8
0
100
AcDbVertex
100
AcDb2dVertex
 10
-355.9999999999986
 20
177.9999999999999
 30
0.0
  0
SEQEND
  5
746
330
743
100
AcDbEntity
  8
0
  0
POLYLINE
  5
747
330
1F
100
AcDbEntity
  8
0
100
AcDb2dPolyline
 66
     1
 10
0.0
 20
0.0
 30
0.0
  0
VERTEX
  5
748
330
747
100
AcDbEntity
  8
0
100
AcDbVertex
100
AcDb2dVertex
 10
-375.9999999999995
 20
177.9999999999999
 30
0.0
  0
VERTEX
  5
749
330
747
100
AcDbEntity
  8
0
100
AcDbVertex
100
AcDb2dVertex
 10
-375.9999999999991
 20
-82.00000000000008
 30
0.0
  0
SEQEND
  5
74A
330
747
100
AcDbEntity
  8
0
  0
POLYLINE
  5
74B
330
1F
100
AcDbEntity
  8
0
100
AcDb2dPolyline
 66
     1
 10
0.0
 20
0.0
 30
0.0
  0
VERTEX
  5
74C
330
74B
100
AcDbEntity
  8
0
100
AcDbVertex
100
AcDb2dVertex
 10
-396.0
 20
-82.00000000000017
 30
0.0
  0
VERTEX
  5
74D
330
74B
100
AcDbEntity
  8
0
100
AcDbVertex
100
AcDb2dVertex
 10
-396.0
 20
177.9999999999999
 30
0.0
  0
SEQEND
  5
74E
330
74B
100
AcDbEntity
  8
0
  0
POLYLINE
  5
74F
330
1F
100
AcDbEntity
  8
0
100
AcDb2dPolyline
 66
     1
 10
0.0
 20
0.0
 30
0.0
  0
VERTEX
  5
750
330
74F
100
AcDbEntity
  8
0
100
AcDbVertex
100
AcDb2dVertex
 10
-416.0
 20
178.0
 30
0.0
  0
VERTEX
  5
751
330
74F
100
AcDbEntity
  8
0
100
AcDbVertex
100
AcDb2dVertex
 10
-416.0
 20
-82.00000000000009
 30
0.0
  0
SEQEND
  5
752
330
74F
100
AcDbEntity
  8
0
  0
POLYLINE
  5
753
330
1F
100
AcDbEntity
  8
0
100
AcDb2dPolyline
 66
     1
 10
0.0
 20
0.0
 30
0.0
  0
VERTEX
  5
754
330
753
100
AcDbEntity
  8
0
100
AcDbVertex
100
AcDb2dVertex
 10
-415.9999999999994
 20
-62.00000000000009
 30
0.0
  0
VERTEX
  5
755
330
753
100
AcDbEntity
  8
0
100
AcDbVertex
100
AcDb2dVertex
 10
-156.0
 20
-62.00000000000014
 30
0.0
  0
VERTEX
  5
756
330
753
100
AcDbEntity
  8
0
100
AcDbVertex
100
AcDb2dVertex
 10
-156.0
 20
-82.00000000000015
 30
0.0
  0
VERTEX
  5
757
330
753
100
AcDbEntity
  8
0
100
AcDbVertex
100
AcDb2dVertex
 10
-416.0
 20
-82.00000000000009
 30
0.0
  0
SEQEND
  5
758
330
753
100
AcDbEntity
  8
0
  0
POLYLINE
  5
759
330
1F
100
AcDbEntity
  8
0
100
AcDb2dPolyline
 66
     1
 10
0.0
 20
0.0
 30
0.0
  0
VERTEX
  5
75A
330
759
100
AcDbEntity
  8
0
100
AcDbVertex
100
AcDb2dVertex
 10
-415.9999999999994
 20
-22.00000000000006
 30
0.0
  0
VERTEX
  5
75B
330
759
100
AcDbEntity
  8
0
100
AcDbVertex
100
AcDb2dVertex
 10
-156.0
 20
-22.00000000000006
 30
0.0
  0
VERTEX
  5
75C
330
759
100
AcDbEntity
  8
0
100
AcDbVertex
100
AcDb2dVertex
 10
-156.0
 20
-42.00000000000006
 30
0.0
  0
VERTEX
  5
75D
330
759
100
AcDbEntity
  8
0
100
AcDbVertex
100
AcDb2dVertex
 10
-416.0
 20
-42.00000000000009
 30
0.0
  0
SEQEND
  5
75E
330
759
100
AcDbEntity
  8
0
  0
POLYLINE
  5
75F
330
1F
100
AcDbEntity
  8
0
100
AcDb2dPolyline
 66
     1
 10
0.0
 20
0.0
 30
0.0
  0
VERTEX
  5
760
330
75F
100
AcDbEntity
  8
0
100
AcDbVertex
100
AcDb2dVertex
 10
-416.0000000000005
 20
17.99999999999994
 30
0.0
  0
VERTEX
  5
761
330
75F
100
AcDbEntity
  8
0
100
AcDbVertex
100
AcDb2dVertex
 10
-156.0
 20
17.99999999999994
 30
0.0
  0
VERTEX
  5
762
330
75F
100
AcDbEntity
  8
0
100
AcDbVertex
100
AcDb2dVertex
 10
-156.0
 20
-2.000000000000056
 30
0.0
  0
VERTEX
  5
763
330
75F
100
AcDbEntity
  8
0
100
AcDbVertex
100
AcDb2dVertex
 10
-416.0
 20
-2.000000000000056
 30
0.0
  0
SEQEND
  5
764
330
75F
100
AcDbEntity
  8
0
  0
POLYLINE
  5
765
330
1F
100
AcDbEntity
  8
0
100
AcDb2dPolyline
 66
     1
 10
0.0
 20
0.0
 30
0.0
  0
VERTEX
  5
766
330
765
100
AcDbEntity
  8
0
100
AcDbVertex
100
AcDb2dVertex
 10
-416.0000000000005
 20
57.99999999999993
 30
0.0
  0
VERTEX
  5
767
330
765
100
AcDbEntity
  8
0
100
AcDbVertex
100
AcDb2dVertex
 10
-156.0
 20
57.99999999999993
 30
0.0
  0
VERTEX
  5
768
330
765
100
AcDbEntity
  8
0
100
AcDbVertex
100
AcDb2dVertex
 10
-156.0
 20
37.99999999999994
 30
0.0
  0
VERTEX
  5
769
330
765
100
AcDbEntity
  8
0
100
AcDbVertex
100
AcDb2dVertex
 10
-416.0
 20
37.99999999999994
 30
0.0
  0
SEQEND
  5
76A
330
765
100
AcDbEntity
  8
0
  0
POLYLINE
  5
76B
330
1F
100
AcDbEntity
  8
0
100
AcDb2dPolyline
 66
     1
 10
0.0
 20
0.0
 30
0.0
  0
VERTEX
  5
76C
330
76B
100
AcDbEntity
  8
0
100
AcDbVertex
100
AcDb2dVertex
 10
-156.0
 20
98.00000000000006
 30
0.0
  0
VERTEX
  5
76D
330
76B
100
AcDbEntity
  8
0
100
AcDbVertex
100
AcDb2dVertex
 10
-156.0
 20
78.00000000000007
 30
0.0
  0
VERTEX
  5
76E
330
76B
100
AcDbEntity
  8
0
100
AcDbVertex
100
AcDb2dVertex
 10
-416.0
 20
77.99999999999993
 30
0.0
  0
SEQEND
  5
76F
330
76B
100
AcDbEntity
  8
0
  0
POLYLINE
  5
770
330
1F
100
AcDbEntity
  8
0
100
AcDb2dPolyline
 66
     1
 10
0.0
 20
0.0
 30
0.0
  0
VERTEX
  5
771
330
770
100
AcDbEntity
  8
0
100
AcDbVertex
100
AcDb2dVertex
 10
-415.9999999999994
 20
98.0
 30
0.0
  0
VERTEX
  5
772
330
770
100
AcDbEntity
  8
0
100
AcDbVertex
100
AcDb2dVertex
 10
-156.0
 20
98.00000000000006
 30
0.0
  0
SEQEND
  5
773
330
770
100
AcDbEntity
  8
0
  0
POLYLINE
  5
774
330
1F
100
AcDbEntity
  8
0
100
AcDb2dPolyline
 66
     1
 10
0.0
 20
0.0
 30
0.0
  0
VERTEX
  5
775
330
774
100
AcDbEntity
  8
0
100
AcDbVertex
100
AcDb2dVertex
 10
-416.0000000000005
 20
137.9999999999999
 30
0.0
  0
VERTEX
  5
776
330
774
100
AcDbEntity
  8
0
100
AcDbVertex
100
AcDb2dVertex
 10
-156.0
 20
138.0
 30
0.0
  0
VERTEX
  5
777
330
774
100
AcDbEntity
  8
0
100
AcDbVertex
100
AcDb2dVertex
 10
-156.0
 20
118.0
 30
0.0
  0
VERTEX
  5
778
330
774
100
AcDbEntity
  8
0
100
AcDbVertex
100
AcDb2dVertex
 10
-416.0
 20
118.0
 30
0.0
  0
SEQEND
  5
779
330
774
100
AcDbEntity
  8
0
  0
POLYLINE
  5
77A
330
1F
100
AcDbEntity
  8
0
100
AcDb2dPolyline
 66
     1
 10
0.0
 20
0.0
 30
0.0
  0
VERTEX
  5
77B
330
77A
100
AcDbEntity
  8
0
100
AcDbVertex
100
AcDb2dVertex
 10
-416.0
 20
177.9999999999999
 30
0.0
  0
VERTEX
  5
77C
330
77A
100
AcDbEntity
  8
0
100
AcDbVertex
100
AcDb2dVertex
 10
-156.0
 20
177.9999999999999
 30
0.0
  0
VERTEX
  5
77D
330
77A
100
AcDbEntity
  8
0
100
AcDbVertex
100
AcDb2dVertex
 10
-156.0
 20
157.9999999999999
 30
0.0
  0
VERTEX
  5
77E
330
77A
100
AcDbEntity
  8
0
100
AcDbVertex
100
AcDb2dVertex
 10
-416.0
 20
157.9999999999999
 30
0.0
  0
SEQEND
  5
77F
330
77A
100
AcDbEntity
  8
0
  0
POLYLINE
  5
780
330
1F
100
AcDbEntity
  8
0
100
AcDb2dPolyline
 66
     1
 10
0.0
 20
0.0
 30
0.0
  0
VERTEX
  5
781
330
780
100
AcDbEntity
  8
0
100
AcDbVertex
100
AcDb2dVertex
 10
-156.0
 20
-72.00000000000014
 30
0.0
  0
VERTEX
  5
782
330
780
100
AcDbEntity
  8
0
100
AcDbVertex
100
AcDb2dVertex
 10
-195.9999999999991
 20
-72.00000000000009
 30
0.0
  0
SEQEND
  5
783
330
780
100
AcDbEntity
  8
0
  0
POLYLINE
  5
784
330
1F
100
AcDbEntity
  8
0
100
AcDb2dPolyline
 66
     1
 10
0.0
 20
0.0
 30
0.0
  0
VERTEX
  5
785
330
784
100
AcDbEntity
  8
0
100
AcDbVertex
100
AcDb2dVertex
 10
-149.2289035948795
 20
198.4369650753112
 30
0.0
  0
VERTEX
  5
786
330
784
100
AcDbEntity
  8
0
100
AcDbVertex
100
AcDb2dVertex
 10
-149.2289035948795
 20
198.8898175055851
 30
0.0
  0
SEQEND
  5
787
330
784
100
AcDbEntity
  8
0
  0
ENDSEC
  0
SECTION
  2
OBJECTS
  0
DICTIONARY
  5
C
330
0
100
AcDbDictionary
281
     1
  3
ACAD_CIP_PREVIOUS_PRODUCT_INFO
350
7CC
  3
ACAD_COLOR
350
7C7
  3
ACAD_DETAILVIEWSTYLE
350
7C3
  3
ACAD_GROUP
350
D
  3
ACAD_LAST_SAVED_VERSION_INFO
350
7CD
  3
ACAD_LAYOUT
350
1A
  3
ACAD_MATERIAL
350
43
  3
ACAD_MLEADERSTYLE
350
5B
  3
ACAD_MLINESTYLE
350
17
  3
ACAD_PLOTSETTINGS
350
19
  3
ACAD_PLOTSTYLENAME
350
E
  3
ACAD_SCALELIST
350
47
  3
ACAD_SECTIONVIEWSTYLE
350
7C4
  3
ACAD_TABLESTYLE
350
59
  3
ACAD_VISUALSTYLE
350
2A
  3
ACDB_RECOMPOSE_DATA
350
7FD
  3
AcDbVariableDictionary
350
788
  0
SUN
  5
5D
330
29
100
AcDbSun
 90
        1
290
     1
 63
     7
421
 16777215
 40
1.0
291
     1
 91
  2455826
 92
 54000000
292
     0
 70
     0
 71
   256
280
     1
  0
DICTIONARY
  5
7D8
330
2
100
AcDbDictionary
280
     1
281
     1
  3
ACAD_LAYERSTATES
360
7D9
  0
DICTIONARY
  5
7D3
330
10
100
AcDbDictionary
280
     1
281
     1
  3
ADSK_XREC_LAYER_RECONCILED
360
7D4
  0
XRECORD
  5
7CC
102
{ACAD_REACTORS
330
C
102
}
330
C
100
AcDbXrecord
280
     1
300
ACD
300
2025
300

  0
DICTIONARY
  5
7C7
102
{ACAD_REACTORS
330
C
102
}
330
C
100
AcDbDictionary
281
     1
  0
DICTIONARY
  5
7C3
102
{ACAD_REACTORS
330
C
102
}
330
C
100
AcDbDictionary
281
     1
  3
Metric50
350
7C9
  0
DICTIONARY
  5
D
102
{ACAD_REACTORS
330
C
102
}
330
C
100
AcDbDictionary
281
     1
  0
XRECORD
  5
7CD
102
{ACAD_REACTORS
330
C
102
}
330
C
100
AcDbXrecord
280
     1
300
{A220EA3B-A597-2645-A6D0-ADEC5C82D223}
301
{002F1C1F-869C-5C40-B8B7-7A6AB23E037A}
302
{A220EA3B-A597-2645-A6D0-ADEC5C82D223}
303
C:\Users\arzu\Desktop\KEÇİİ Motif Son 27.03.dxf
  0
DICTIONARY
  5
1A
102
{ACAD_REACTORS
330
C
102
}
330
C
100
AcDbDictionary
281
     1
  3
Layout1
350
1E
  3
Layout2
350
26
  3
Model
350
22
  0
DICTIONARY
  5
43
102
{ACAD_REACTORS
330
C
102
}
330
C
100
AcDbDictionary
281
     1
  3
ByBlock
350
45
  3
ByLayer
350
44
  3
Global
350
46
  0
DICTIONARY
  5
5B
102
{ACAD_REACTORS
330
C
102
}
330
C
100
AcDbDictionary
281
     1
  3
Standard
350
5C
  0
DICTIONARY
  5
17
102
{ACAD_REACTORS
330
C
102
}
330
C
100
AcDbDictionary
281
     1
  3
Standard
350
18
  0
DICTIONARY
  5
19
102
{ACAD_REACTORS
330
C
102
}
330
C
100
AcDbDictionary
281
     1
  0
ACDBDICTIONARYWDFLT
  5
E
102
{ACAD_REACTORS
330
C
102
}
330
C
100
AcDbDictionary
281
     1
  3
Normal
350
F
100
AcDbDictionaryWithDefault
340
F
  0
DICTIONARY
  5
47
102
{ACAD_REACTORS
330
C
102
}
330
C
100
AcDbDictionary
281
     1
  3
A0
350
48
  3
A1
350
49
  3
A2
350
4A
  3
A3
350
4B
  3
A4
350
4C
  3
A5
350
4D
  3
A6
350
4E
  3
A7
350
4F
  3
A8
350
50
  3
A9
350
51
  3
B1
350
52
  3
B2
350
53
  3
B3
350
54
  3
B4
350
55
  3
B5
350
56
  3
B6
350
57
  3
B7
350
58
  0
DICTIONARY
  5
7C4
102
{ACAD_REACTORS
330
C
102
}
330
C
100
AcDbDictionary
281
     1
  3
Metric50
350
7C8
  0
DICTIONARY
  5
59
102
{ACAD_REACTORS
330
C
102
}
330
C
100
AcDbDictionary
281
     1
  3
Standard
350
5A
  0
DICTIONARY
  5
2A
102
{ACAD_REACTORS
330
C
102
}
330
C
100
AcDbDictionary
281
     1
  3
2dWireframe
350
2F
  3
Basic
350
32
  3
Brighten
350
36
  3
ColorChange
350
3A
  3
Conceptual
350
34
  3
Dim
350
35
  3
EdgeColorOff
350
3D
  3
Facepattern
350
39
  3
Flat
350
2B
  3
FlatWithEdges
350
2C
  3
Gouraud
350
2D
  3
GouraudWithEdges
350
2E
  3
Hidden
350
31
  3
JitterOff
350
3B
  3
Linepattern
350
38
  3
OverhangOff
350
3C
  3
Realistic
350
33
  3
Shaded
350
42
  3
Shaded with edges
350
41
  3
Shades of Gray
350
3E
  3
Sketchy
350
3F
  3
Thicken
350
37
  3
Wireframe
350
30
  3
X-Ray
350
40
  0
XRECORD
  5
7FD
102
{ACAD_REACTORS
330
C
102
}
330
C
100
AcDbXrecord
280
     1
 90
        1
330
5A
  0
DICTIONARY
  5
788
102
{ACAD_REACTORS
330
C
102
}
330
C
100
AcDbDictionary
281
     1
  3
CANNOSCALE
350
789
  3
CMLEADERSTYLE
350
7C2
  3
CTABLESTYLE
350
7C1
  3
CVIEWDETAILSTYLE
350
7E9
  3
CVIEWSECTIONSTYLE
350
7EA
  3
LAYEREVAL
350
7EB
  3
LAYERNOTIFY
350
7EC
  0
DICTIONARY
  5
7D9
102
{ACAD_REACTORS
330
7D8
102
}
330
7D8
100
AcDbDictionary
281
     1
  0
XRECORD
  5
7D4
102
{ACAD_REACTORS
330
7D3
102
}
330
7D3
100
AcDbXrecord
280
     1
290
     1
  0
ACDBDETAILVIEWSTYLE
  5
7C9
102
{ACAD_REACTORS
330
7C3
102
}
330
7C3
100
AcDbModelDocViewStyle
 70
     0
  3
Metric50
290
     0
300
Metric50
 90
        0
100
AcDbDetailViewStyle
 70
     0
 71
     0
 90
        3
 71
     1
340
11
 62
   256
 40
5.0
340
0
 62
   256
 40
5.0
300

 40
0.0
280
     1
 71
     2
340
16
 90
       25
 62
   256
 71
     3
340
11
 62
   256
 40
5.0
 90
        0
 40
15.0
 90
        1
300
%<\AcVar ViewDetailId>% (%<\AcVar ViewScale \f "%sn">%)
 71
     4
340
16
 90
       25
 62
   256
340
16
 90
       25
 62
   256
280
     0
  0
LAYOUT
  5
1E
102
{ACAD_REACTORS
330
1A
102
}
330
1A
100
AcDbPlotSettings
  1

  2
none_device
  4

  6

 40
0.0
 41
0.0
 42
0.0
 43
0.0
 44
0.0
 45
0.0
 46
0.0
 47
0.0
 48
0.0
 49
0.0
140
0.0
141
0.0
142
1.0
143
1.0
 70
   688
 72
     0
 73
     0
 74
     5
  7

 75
    16
147
1.0
 76
     0
 77
     2
 78
   300
148
0.0
149
0.0
100
AcDbLayout
  1
Layout1
 70
     1
 71
     1
 10
0.0
 20
0.0
 11
12.0
 21
9.0
 12
0.0
 22
0.0
 32
0.0
 14
1.000000000000000E+20
 24
1.000000000000000E+20
 34
1.000000000000000E+20
 15
-1.000000000000000E+20
 25
-1.000000000000000E+20
 35
-1.000000000000000E+20
146
0.0
 13
0.0
 23
0.0
 33
0.0
 16
1.0
 26
0.0
 36
0.0
 17
0.0
 27
1.0
 37
0.0
 76
     0
330
1B
  0
LAYOUT
  5
26
102
{ACAD_REACTORS
330
1A
102
}
330
1A
100
AcDbPlotSettings
  1

  2
none_device
  4

  6

 40
0.0
 41
0.0
 42
0.0
 43
0.0
 44
0.0
 45
0.0
 46
0.0
 47
0.0
 48
0.0
 49
0.0
140
0.0
141
0.0
142
1.0
143
1.0
 70
   688
 72
     0
 73
     0
 74
     5
  7

 75
    16
147
1.0
 76
     0
 77
     2
 78
   300
148
0.0
149
0.0
100
AcDbLayout
  1
Layout2
 70
     1
 71
     2
 10
0.0
 20
0.0
 11
0.0
 21
0.0
 12
0.0
 22
0.0
 32
0.0
 14
0.0
 24
0.0
 34
0.0
 15
0.0
 25
0.0
 35
0.0
146
0.0
 13
0.0
 23
0.0
 33
0.0
 16
1.0
 26
0.0
 36
0.0
 17
0.0
 27
1.0
 37
0.0
 76
     0
330
23
  0
LAYOUT
  5
22
102
{ACAD_REACTORS
330
1A
102
}
330
1A
100
AcDbPlotSettings
  1

  2
none_device
  4
Letter_(8.50_x_11.00_Inches)
  6

 40
6.349999999999999
 41
6.349999999999999
 42
6.350005079999999
 43
6.350005079999999
 44
215.9
 45
279.4
 46
0.0
 47
0.0
 48
0.0
 49
0.0
140
0.0
141
0.0
142
1.0
143
1.0
 70
  1712
 72
     0
 73
     0
 74
     0
  7

 75
     0
147
1.0
 76
     0
 77
     2
 78
   300
148
0.0
149
0.0
100
AcDbLayout
  1
Model
 70
     1
 71
     0
 10
0.0
 20
0.0
 11
12.0
 21
9.0
 12
0.0
 22
0.0
 32
0.0
 14
-1590.713456373441
 24
-105.0000000000012
 34
0.0
 15
-149.2289035948795
 25
206.0
 35
0.0
146
0.0
 13
0.0
 23
0.0
 33
0.0
 16
1.0
 26
0.0
 36
0.0
 17
0.0
 27
1.0
 37
0.0
 76
     0
330
1F
331
29
  0
MATERIAL
  5
45
102
{ACAD_REACTORS
330
43
102
}
330
43
100
AcDbMaterial
  1
ByBlock
  0
MATERIAL
  5
44
102
{ACAD_REACTORS
330
43
102
}
330
43
100
AcDbMaterial
  1
ByLayer
  0
MATERIAL
  5
46
102
{ACAD_REACTORS
330
43
102
}
330
43
100
AcDbMaterial
  1
Global
  0
MLEADERSTYLE
  5
5C
102
{ACAD_REACTORS
330
5B
102
}
330
5B
100
AcDbMLeaderStyle
179
     2
170
     2
171
     1
172
     0
 90
        2
 40
0.0
 41
0.0
173
     1
 91
-1056964608
340
14
 92
       -2
290
     1
 42
0.09
291
     1
 43
0.36
  3
Standard
 44
0.18
300

342
11
174
     1
178
     6
175
     1
176
     0
 93
-1056964608
 45
0.18
292
     0
297
     0
 46
0.18
 94
-1056964608
 47
1.0
 49
1.0
140
1.0
293
     1
141
0.0
294
     1
177
     0
142
1.0
295
     0
296
     0
143
0.125
271
     0
272
     9
273
     9
298
     0
1001
ACAD_MLEADERVER
1070
     2
  0
MLINESTYLE
  5
18
102
{ACAD_REACTORS
330
17
102
}
330
17
100
AcDbMlineStyle
  2
STANDARD
 70
     0
  3

 62
   256
 51
90.0
 52
90.0
 71
     2
 49
0.5
 62
   256
  6
BYLAYER
 49
-0.5
 62
   256
  6
BYLAYER
  0
ACDBPLACEHOLDER
  5
F
102
{ACAD_REACTORS
330
E
102
}
330
E
  0
SCALE
  5
48
102
{ACAD_REACTORS
330
47
102
}
330
47
100
AcDbScale
 70
     0
300
1:1
140
1.0
141
1.0
290
     1
  0
SCALE
  5
49
102
{ACAD_REACTORS
330
47
102
}
330
47
100
AcDbScale
 70
     0
300
1/128" = 1'-0"
140
0.0078125
141
12.0
290
     0
  0
SCALE
  5
4A
102
{ACAD_REACTORS
330
47
102
}
330
47
100
AcDbScale
 70
     0
300
1/64" = 1'-0"
140
0.015625
141
12.0
290
     0
  0
SCALE
  5
4B
102
{ACAD_REACTORS
330
47
102
}
330
47
100
AcDbScale
 70
     0
300
1/32" = 1'-0"
140
0.03125
141
12.0
290
     0
  0
SCALE
  5
4C
102
{ACAD_REACTORS
330
47
102
}
330
47
100
AcDbScale
 70
     0
300
1/16" = 1'-0"
140
0.0625
141
12.0
290
     0
  0
SCALE
  5
4D
102
{ACAD_REACTORS
330
47
102
}
330
47
100
AcDbScale
 70
     0
300
3/32" = 1'-0"
140
0.09375
141
12.0
290
     0
  0
SCALE
  5
4E
102
{ACAD_REACTORS
330
47
102
}
330
47
100
AcDbScale
 70
     0
300
1/8" = 1'-0"
140
0.125
141
12.0
290
     0
  0
SCALE
  5
4F
102
{ACAD_REACTORS
330
47
102
}
330
47
100
AcDbScale
 70
     0
300
3/16" = 1'-0"
140
0.1875
141
12.0
290
     0
  0
SCALE
  5
50
102
{ACAD_REACTORS
330
47
102
}
330
47
100
AcDbScale
 70
     0
300
1/4" = 1'-0"
140
0.25
141
12.0
290
     0
  0
SCALE
  5
51
102
{ACAD_REACTORS
330
47
102
}
330
47
100
AcDbScale
 70
     0
300
3/8" = 1'-0"
140
0.375
141
12.0
290
     0
  0
SCALE
  5
52
102
{ACAD_REACTORS
330
47
102
}
330
47
100
AcDbScale
 70
     0
300
1/2" = 1'-0"
140
0.5
141
12.0
290
     0
  0
SCALE
  5
53
102
{ACAD_REACTORS
330
47
102
}
330
47
100
AcDbScale
 70
     0
300
3/4" = 1'-0"
140
0.75
141
12.0
290
     0
  0
SCALE
  5
54
102
{ACAD_REACTORS
330
47
102
}
330
47
100
AcDbScale
 70
     0
300
1" = 1'-0"
140
1.0
141
12.0
290
     0
  0
SCALE
  5
55
102
{ACAD_REACTORS
330
47
102
}
330
47
100
AcDbScale
 70
     0
300
1-1/2" = 1'-0"
140
1.5
141
12.0
290
     0
  0
SCALE
  5
56
102
{ACAD_REACTORS
330
47
102
}
330
47
100
AcDbScale
 70
     0
300
3" = 1'-0"
140
3.0
141
12.0
290
     0
  0
SCALE
  5
57
102
{ACAD_REACTORS
330
47
102
}
330
47
100
AcDbScale
 70
     0
300
6" = 1'-0"
140
6.0
141
12.0
290
     0
  0
SCALE
  5
58
102
{ACAD_REACTORS
330
47
102
}
330
47
100
AcDbScale
 70
     0
300
1'-0" = 1'-0"
140
12.0
141
12.0
290
     0
  0
ACDBSECTIONVIEWSTYLE
  5
7C8
102
{ACAD_REACTORS
330
7C4
102
}
330
7C4
100
AcDbModelDocViewStyle
 70
     0
  3
Metric50
290
     0
300
Metric50
 90
        0
100
AcDbSectionViewStyle
 70
     0
 71
     0
 90
      102
 71
     1
340
11
 62
   256
 40
5.0
340
0
340
0
 62
   256
 40
5.0
300
I, O, Q, S, X, Z
 40
10.0
 90
        0
 40
2.5
 90
        0
 71
     2
340
16
 90
       25
 62
   256
340
16
 90
       50
 62
   256
 40
5.0
 40
2.5
 40
5.0
 71
     3
340
11
 62
   256
 40
5.0
 90
        0
 40
15.0
 90
        1
300
%<\AcVar ViewSectionStartId>%-%<\AcVar ViewSectionEndId>% (%<\AcVar ViewScale \f "%sn">%)
 71
     4
 62
   256
 62
   257
300
ANSI31
 40
1.0
 90
        0
290
     0
290
     0
 90
        6
 40
0.0
 40
1.570796326794896
 40
0.2617993877991494
 40
1.308996938995747
 40
-0.2617993877991494
 40
1.832595714594046
  0
TABLESTYLE
  5
5A
102
{ACAD_XDICTIONARY
360
7BB
102
}
102
{ACAD_REACTORS
330
59
102
}
330
59
100
AcDbTableStyle
280
     0
  3
Standard
 70
     0
 71
     0
 40
0.06
 41
0.06
280
     0
281
     0
  7
Standard
140
0.18
170
     2
 62
     0
 63
     7
283
     0
 90
        4
 91
        0
  1

274
    -2
284
     1
 64
     0
275
    -2
285
     1
 65
     0
276
    -2
286
     1
 66
     0
277
    -2
287
     1
 67
     0
278
    -2
288
     1
 68
     0
279
    -2
289
     1
 69
     0
  7
Standard
140
0.25
170
     5
 62
     0
 63
     7
283
     0
 90
        4
 91
        0
  1

274
    -2
284
     1
 64
     0
275
    -2
285
     1
 65
     0
276
    -2
286
     1
 66
     0
277
    -2
287
     1
 67
     0
278
    -2
288
     1
 68
     0
279
    -2
289
     1
 69
     0
  7
Standard
140
0.18
170
     5
 62
     0
 63
     7
283
     0
 90
        4
 91
        0
  1

274
    -2
284
     1
 64
     0
275
    -2
285
     1
 65
     0
276
    -2
286
     1
 66
     0
277
    -2
287
     1
 67
     0
278
    -2
288
     1
 68
     0
279
    -2
289
     1
 69
     0
  0
VISUALSTYLE
  5
2F
102
{ACAD_REACTORS
330
2A
102
}
330
2A
100
AcDbVisualStyle
  2

 70
     4
177
     3
291
     0
 70
    58
 90
        0
176
     1
 90
        2
176
     1
 90
        0
176
     1
 90
        0
176
     1
 40
0.6
176
     1
 40
30.0
176
     1
 62
     7
420
 16777215
176
     1
 90
        1
176
     1
 90
        4
176
     1
 62
     7
176
     1
 62
   257
176
     1
 90
        1
176
     1
 90
        1
176
     1
 40
1.0
176
     1
 90
        0
176
     1
 62
   257
176
     1
 40
1.0
176
     1
 90
        1
176
     1
 90
        6
176
     1
 90
        2
176
     1
 62
     7
176
     1
 90
        5
176
     1
 90
        0
176
     1
 90
        0
176
     1
290
     0
176
     1
 90
        1
176
     1
 40
0.0
176
     1
 90
        0
176
     1
290
     1
176
     1
290
     1
176
     1
290
     0
176
     1
290
     0
176
     1
290
     0
176
     1
290
     0
176
     1
290
     0
176
     1
290
     0
176
     1
290
     0
176
     1
 90
       50
176
     1
 40
0.0
176
     1
 40
1.0
176
     1
 90
        0
176
     1
 62
    18
420
        0
176
     1
 90
       50
176
     1
 90
        3
176
     1
 62
     5
420
      255
176
     1
290
     0
176
     1
 90
       50
176
     1
 90
       50
176
     1
 90
       50
176
     1
290
     0
176
     1
 90
       50
176
     1
 62
   256
176
     0
 40
1.0
176
     0
 90
        2
176
     1
  1
strokes_ogs.tif
176
     1
290
     0
176
     1
 40
1.0
176
     1
 40
1.0
176
     1
  0
VISUALSTYLE
  5
32
102
{ACAD_REACTORS
330
2A
102
}
330
2A
100
AcDbVisualStyle
  2

 70
     7
177
     3
291
     1
 70
    58
 90
        1
176
     1
 90
        0
176
     1
 90
        1
176
     1
 90
        0
176
     1
 40
0.6
176
     1
 40
30.0
176
     1
 62
     7
420
 16777215
176
     1
 90
        0
176
     1
 90
        4
176
     1
 62
     7
176
     1
 62
   257
176
     1
 90
        1
176
     1
 90
        1
176
     1
 40
1.0
176
     1
 90
        8
176
     1
 62
     7
176
     1
 40
1.0
176
     1
 90
        1
176
     1
 90
        6
176
     1
 90
        2
176
     1
 62
     7
176
     1
 90
        5
176
     1
 90
        0
176
     1
 90
        0
176
     1
290
     0
176
     1
 90
        1
176
     1
 40
0.0
176
     1
 90
        0
176
     1
290
     0
176
     1
290
     1
176
     1
290
     1
176
     1
290
     0
176
     1
290
     0
176
     1
290
     0
176
     1
290
     0
176
     1
290
     0
176
     1
290
     0
176
     1
 90
       50
176
     1
 40
0.0
176
     1
 40
1.0
176
     1
 90
        0
176
     1
 62
    18
420
        0
176
     1
 90
       50
176
     1
 90
        3
176
     1
 62
     5
420
      255
176
     1
290
     0
176
     1
 90
       50
176
     1
 90
       50
176
     1
 90
       50
176
     1
290
     0
176
     1
 90
       50
176
     1
 62
   256
176
     0
 40
1.0
176
     0
 90
        2
176
     1
  1
strokes_ogs.tif
176
     1
290
     0
176
     1
 40
1.0
176
     1
 40
1.0
176
     1
  0
VISUALSTYLE
  5
36
102
{ACAD_REACTORS
330
2A
102
}
330
2A
100
AcDbVisualStyle
  2

 70
    12
177
     3
291
     1
 70
    58
 90
        2
176
     1
 90
        2
176
     1
 90
        0
176
     1
 90
        0
176
     1
 40
0.6
176
     1
 40
30.0
176
     1
 62
     7
420
 16777215
176
     1
 90
        1
176
     1
 90
        4
176
     1
 62
     7
176
     1
 62
   257
176
     1
 90
        1
176
     1
 90
        1
176
     1
 40
1.0
176
     1
 90
        8
176
     1
 62
     7
176
     1
 40
1.0
176
     1
 90
        1
176
     1
 90
        6
176
     1
 90
        2
176
     1
 62
     7
176
     1
 90
        5
176
     1
 90
        0
176
     1
 90
        0
176
     1
290
     0
176
     1
 90
        1
176
     1
 40
50.0
176
     1
 90
        0
176
     1
290
     0
176
     1
290
     1
176
     1
290
     1
176
     1
290
     0
176
     1
290
     0
176
     1
290
     0
176
     1
290
     0
176
     1
290
     0
176
     1
290
     0
176
     1
 90
       50
176
     1
 40
0.0
176
     1
 40
1.0
176
     1
 90
        0
176
     1
 62
    18
420
        0
176
     1
 90
       50
176
     1
 90
        3
176
     1
 62
     5
420
      255
176
     1
290
     0
176
     1
 90
       50
176
     1
 90
       50
176
     1
 90
       50
176
     1
290
     0
176
     1
 90
       50
176
     1
 62
   256
176
     0
 40
1.0
176
     0
 90
        2
176
     1
  1
strokes_ogs.tif
176
     1
290
     0
176
     1
 40
1.0
176
     1
 40
1.0
176
     1
  0
VISUALSTYLE
  5
3A
102
{ACAD_REACTORS
330
2A
102
}
330
2A
100
AcDbVisualStyle
  2

 70
    16
177
     3
291
     1
 70
    58
 90
        2
176
     1
 90
        2
176
     1
 90
        3
176
     1
 90
        0
176
     1
 40
0.6
176
     1
 40
30.0
176
     1
 62
     8
420
  8421504
176
     1
 90
        1
176
     1
 90
        4
176
     1
 62
     7
176
     1
 62
   257
176
     1
 90
        1
176
     1
 90
        1
176
     1
 40
1.0
176
     1
 90
        8
176
     1
 62
     8
420
  8421504
176
     1
 40
1.0
176
     1
 90
        1
176
     1
 90
        6
176
     1
 90
        2
176
     1
 62
     7
176
     1
 90
        5
176
     1
 90
        0
176
     1
 90
        0
176
     1
290
     0
176
     1
 90
        1
176
     1
 40
0.0
176
     1
 90
        0
176
     1
290
     0
176
     1
290
     1
176
     1
290
     1
176
     1
290
     0
176
     1
290
     0
176
     1
290
     0
176
     1
290
     0
176
     1
290
     0
176
     1
290
     0
176
     1
 90
       50
176
     1
 40
0.0
176
     1
 40
1.0
176
     1
 90
        0
176
     1
 62
    18
420
        0
176
     1
 90
       50
176
     1
 90
        3
176
     1
 62
     5
420
      255
176
     1
290
     0
176
     1
 90
       50
176
     1
 90
       50
176
     1
 90
       50
176
     1
290
     0
176
     1
 90
       50
176
     1
 62
   256
176
     0
 40
1.0
176
     0
 90
        2
176
     1
  1
strokes_ogs.tif
176
     1
290
     0
176
     1
 40
1.0
176
     1
 40
1.0
176
     1
  0
VISUALSTYLE
  5
34
102
{ACAD_REACTORS
330
2A
102
}
330
2A
100
AcDbVisualStyle
  2

 70
     9
177
     3
291
     0
 70
    58
 90
        3
176
     1
 90
        2
176
     1
 90
        0
176
     1
 90
        0
176
     1
 40
0.6
176
     1
 40
30.0
176
     1
 62
     7
420
 16777215
176
     1
 90
        2
176
     1
 90
        2
176
     1
 62
     7
176
     1
 62
   257
176
     1
 90
        1
176
     1
 90
        1
176
     1
 40
179.0
176
     1
 90
        8
176
     1
 62
     7
176
     1
 40
1.0
176
     1
 90
        1
176
     1
 90
        6
176
     1
 90
        2
176
     1
 62
     7
176
     1
 90
        3
176
     1
 90
        0
176
     1
 90
        0
176
     1
290
     0
176
     1
 90
        1
176
     1
 40
0.0
176
     1
 90
        0
176
     1
290
     0
176
     1
290
     1
176
     1
290
     1
176
     1
290
     0
176
     1
290
     0
176
     1
290
     0
176
     1
290
     0
176
     1
290
     0
176
     1
290
     0
176
     1
 90
       50
176
     1
 40
0.0
176
     1
 40
1.0
176
     1
 90
        0
176
     1
 62
    18
420
        0
176
     1
 90
       50
176
     1
 90
        3
176
     1
 62
     5
420
      255
176
     1
290
     0
176
     1
 90
       50
176
     1
 90
       50
176
     1
 90
       50
176
     1
290
     0
176
     1
 90
       50
176
     1
 62
   256
176
     0
 40
1.0
176
     0
 90
        2
176
     1
  1
strokes_ogs.tif
176
     1
290
     0
176
     1
 40
1.0
176
     1
 40
1.0
176
     1
  0
VISUALSTYLE
  5
35
102
{ACAD_REACTORS
330
2A
102
}
330
2A
100
AcDbVisualStyle
  2

 70
    11
177
     3
291
     1
 70
    58
 90
        2
176
     1
 90
        2
176
     1
 90
        0
176
     1
 90
        0
176
     1
 40
0.6
176
     1
 40
30.0
176
     1
 62
     7
420
 16777215
176
     1
 90
        1
176
     1
 90
        4
176
     1
 62
     7
176
     1
 62
   257
176
     1
 90
        1
176
     1
 90
        1
176
     1
 40
1.0
176
     1
 90
        8
176
     1
 62
     7
176
     1
 40
1.0
176
     1
 90
        1
176
     1
 90
        6
176
     1
 90
        2
176
     1
 62
     7
176
     1
 90
        5
176
     1
 90
        0
176
     1
 90
        0
176
     1
290
     0
176
     1
 90
        1
176
     1
 40
-50.0
176
     1
 90
        0
176
     1
290
     0
176
     1
290
     1
176
     1
290
     1
176
     1
290
     0
176
     1
290
     0
176
     1
290
     0
176
     1
290
     0
176
     1
290
     0
176
     1
290
     0
176
     1
 90
       50
176
     1
 40
0.0
176
     1
 40
1.0
176
     1
 90
        0
176
     1
 62
    18
420
        0
176
     1
 90
       50
176
     1
 90
        3
176
     1
 62
     5
420
      255
176
     1
290
     0
176
     1
 90
       50
176
     1
 90
       50
176
     1
 90
       50
176
     1
290
     0
176
     1
 90
       50
176
     1
 62
   256
176
     0
 40
1.0
176
     0
 90
        2
176
     1
  1
strokes_ogs.tif
176
     1
290
     0
176
     1
 40
1.0
176
     1
 40
1.0
176
     1
  0
VISUALSTYLE
  5
3D
102
{ACAD_REACTORS
330
2A
102
}
330
2A
100
AcDbVisualStyle
  2

 70
    22
177
     3
291
     1
 70
    58
 90
        2
176
     0
 90
        2
176
     0
 90
        0
176
     0
 90
        0
176
     0
 40
0.6
176
     0
 40
30.0
176
     0
 62
     7
420
 16777215
176
     0
 90
        1
176
     0
 90
        4
176
     0
 62
     7
176
     0
 62
   257
176
     0
 90
        1
176
     0
 90
        1
176
     0
 40
1.0
176
     0
 90
        8
176
     2
 62
     7
176
     0
 40
1.0
176
     0
 90
        1
176
     0
 90
        6
176
     0
 90
        2
176
     0
 62
     7
176
     0
 90
        5
176
     0
 90
        0
176
     0
 90
        0
176
     0
290
     0
176
     0
 90
        1
176
     0
 40
0.0
176
     0
 90
        0
176
     0
290
     0
176
     0
290
     1
176
     0
290
     1
176
     0
290
     0
176
     0
290
     0
176
     0
290
     0
176
     0
290
     0
176
     0
290
     0
176
     0
290
     0
176
     0
 90
       50
176
     0
 40
0.0
176
     0
 40
1.0
176
     0
 90
        0
176
     0
 62
    18
420
        0
176
     0
 90
       50
176
     0
 90
        3
176
     0
 62
     5
420
      255
176
     0
290
     0
176
     0
 90
       50
176
     0
 90
       50
176
     0
 90
       50
176
     0
290
     0
176
     0
 90
       50
176
     0
 62
   256
176
     0
 40
1.0
176
     0
 90
        2
176
     0
  1
strokes_ogs.tif
176
     0
290
     0
176
     0
 40
1.0
176
     0
 40
1.0
176
     0
  0
VISUALSTYLE
  5
39
102
{ACAD_REACTORS
330
2A
102
}
330
2A
100
AcDbVisualStyle
  2

 70
    15
177
     3
291
     1
 70
    58
 90
        2
176
     1
 90
        2
176
     1
 90
        0
176
     1
 90
        0
176
     1
 40
0.6
176
     1
 40
30.0
176
     1
 62
     7
420
 16777215
176
     1
 90
        1
176
     1
 90
        4
176
     1
 62
     7
176
     1
 62
   257
176
     1
 90
        1
176
     1
 90
        1
176
     1
 40
1.0
176
     1
 90
        8
176
     1
 62
     7
176
     1
 40
1.0
176
     1
 90
        1
176
     1
 90
        6
176
     1
 90
        2
176
     1
 62
     7
176
     1
 90
        5
176
     1
 90
        0
176
     1
 90
        0
176
     1
290
     0
176
     1
 90
        1
176
     1
 40
0.0
176
     1
 90
        0
176
     1
290
     0
176
     1
290
     1
176
     1
290
     1
176
     1
290
     0
176
     1
290
     0
176
     1
290
     0
176
     1
290
     0
176
     1
290
     0
176
     1
290
     0
176
     1
 90
       50
176
     1
 40
0.0
176
     1
 40
1.0
176
     1
 90
        0
176
     1
 62
    18
420
        0
176
     1
 90
       50
176
     1
 90
        3
176
     1
 62
     5
420
      255
176
     1
290
     0
176
     1
 90
       50
176
     1
 90
       50
176
     1
 90
       50
176
     1
290
     0
176
     1
 90
       50
176
     1
 62
   256
176
     0
 40
1.0
176
     0
 90
        2
176
     1
  1
strokes_ogs.tif
176
     1
290
     0
176
     1
 40
1.0
176
     1
 40
1.0
176
     1
  0
VISUALSTYLE
  5
2B
102
{ACAD_REACTORS
330
2A
102
}
330
2A
100
AcDbVisualStyle
  2

 70
     0
177
     3
291
     1
 70
    58
 90
        2
176
     1
 90
        1
176
     1
 90
        1
176
     1
 90
        2
176
     1
 40
0.6
176
     1
 40
30.0
176
     1
 62
     7
420
 16777215
176
     1
 90
        0
176
     1
 90
        0
176
     1
 62
     7
176
     1
 62
   257
176
     1
 90
        1
176
     1
 90
        1
176
     1
 40
1.0
176
     1
 90
        8
176
     1
 62
     7
176
     1
 40
1.0
176
     1
 90
        1
176
     1
 90
        6
176
     1
 90
        2
176
     1
 62
     7
176
     1
 90
        5
176
     1
 90
        0
176
     1
 90
        0
176
     1
290
     0
176
     1
 90
       13
176
     1
 40
0.0
176
     1
 90
        0
176
     1
290
     0
176
     1
290
     1
176
     1
290
     1
176
     1
290
     0
176
     1
290
     0
176
     1
290
     0
176
     1
290
     0
176
     1
290
     0
176
     1
290
     0
176
     1
 90
       50
176
     1
 40
0.0
176
     1
 40
1.0
176
     1
 90
        0
176
     1
 62
    18
420
        0
176
     1
 90
       50
176
     1
 90
        3
176
     1
 62
     5
420
      255
176
     1
290
     0
176
     1
 90
       50
176
     1
 90
       50
176
     1
 90
       50
176
     1
290
     0
176
     1
 90
       50
176
     1
 62
   256
176
     0
 40
1.0
176
     0
 90
        2
176
     1
  1
strokes_ogs.tif
176
     1
290
     0
176
     1
 40
1.0
176
     1
 40
1.0
176
     1
  0
VISUALSTYLE
  5
2C
102
{ACAD_REACTORS
330
2A
102
}
330
2A
100
AcDbVisualStyle
  2

 70
     1
177
     3
291
     1
 70
    58
 90
        2
176
     1
 90
        1
176
     1
 90
        1
176
     1
 90
        2
176
     1
 40
0.6
176
     1
 40
30.0
176
     1
 62
     7
420
 16777215
176
     1
 90
        1
176
     1
 90
        0
176
     1
 62
     7
176
     1
 62
   257
176
     1
 90
        1
176
     1
 90
        1
176
     1
 40
1.0
176
     1
 90
        0
176
     1
 62
   257
176
     1
 40
1.0
176
     1
 90
        1
176
     1
 90
        6
176
     1
 90
        2
176
     1
 62
     7
176
     1
 90
        5
176
     1
 90
        0
176
     1
 90
        0
176
     1
290
     0
176
     1
 90
       13
176
     1
 40
0.0
176
     1
 90
        0
176
     1
290
     0
176
     1
290
     1
176
     1
290
     1
176
     1
290
     0
176
     1
290
     0
176
     1
290
     0
176
     1
290
     0
176
     1
290
     0
176
     1
290
     0
176
     1
 90
       50
176
     1
 40
0.0
176
     1
 40
1.0
176
     1
 90
        0
176
     1
 62
    18
420
        0
176
     1
 90
       50
176
     1
 90
        3
176
     1
 62
     5
420
      255
176
     1
290
     0
176
     1
 90
       50
176
     1
 90
       50
176
     1
 90
       50
176
     1
290
     0
176
     1
 90
       50
176
     1
 62
   256
176
     0
 40
1.0
176
     0
 90
        2
176
     1
  1
strokes_ogs.tif
176
     1
290
     0
176
     1
 40
1.0
176
     1
 40
1.0
176
     1
  0
VISUALSTYLE
  5
2D
102
{ACAD_REACTORS
330
2A
102
}
330
2A
100
AcDbVisualStyle
  2

 70
     2
177
     3
291
     1
 70
    58
 90
        2
176
     1
 90
        2
176
     1
 90
        1
176
     1
 90
        2
176
     1
 40
0.6
176
     1
 40
30.0
176
     1
 62
     7
420
 16777215
176
     1
 90
        0
176
     1
 90
        0
176
     1
 62
     7
176
     1
 62
   257
176
     1
 90
        1
176
     1
 90
        1
176
     1
 40
1.0
176
     1
 90
        0
176
     1
 62
     7
176
     1
 40
1.0
176
     1
 90
        1
176
     1
 90
        6
176
     1
 90
        2
176
     1
 62
     7
176
     1
 90
        5
176
     1
 90
        0
176
     1
 90
        0
176
     1
290
     0
176
     1
 90
       13
176
     1
 40
0.0
176
     1
 90
        0
176
     1
290
     0
176
     1
290
     1
176
     1
290
     1
176
     1
290
     0
176
     1
290
     0
176
     1
290
     0
176
     1
290
     0
176
     1
290
     0
176
     1
290
     0
176
     1
 90
       50
176
     1
 40
0.0
176
     1
 40
1.0
176
     1
 90
        0
176
     1
 62
    18
420
        0
176
     1
 90
       50
176
     1
 90
        3
176
     1
 62
     5
420
      255
176
     1
290
     0
176
     1
 90
       50
176
     1
 90
       50
176
     1
 90
       50
176
     1
290
     0
176
     1
 90
       50
176
     1
 62
   256
176
     0
 40
1.0
176
     0
 90
        2
176
     1
  1
strokes_ogs.tif
176
     1
290
     0
176
     1
 40
1.0
176
     1
 40
1.0
176
     1
  0
VISUALSTYLE
  5
2E
102
{ACAD_REACTORS
330
2A
102
}
330
2A
100
AcDbVisualStyle
  2

 70
     3
177
     3
291
     1
 70
    58
 90
        2
176
     1
 90
        2
176
     1
 90
        1
176
     1
 90
        2
176
     1
 40
0.6
176
     1
 40
30.0
176
     1
 62
     7
420
 16777215
176
     1
 90
        1
176
     1
 90
        0
176
     1
 62
     7
176
     1
 62
   257
176
     1
 90
        1
176
     1
 90
        1
176
     1
 40
1.0
176
     1
 90
        0
176
     1
 62
   257
176
     1
 40
1.0
176
     1
 90
        1
176
     1
 90
        6
176
     1
 90
        2
176
     1
 62
     7
176
     1
 90
        5
176
     1
 90
        0
176
     1
 90
        0
176
     1
290
     0
176
     1
 90
       13
176
     1
 40
0.0
176
     1
 90
        0
176
     1
290
     0
176
     1
290
     1
176
     1
290
     1
176
     1
290
     0
176
     1
290
     0
176
     1
290
     0
176
     1
290
     0
176
     1
290
     0
176
     1
290
     0
176
     1
 90
       50
176
     1
 40
0.0
176
     1
 40
1.0
176
     1
 90
        0
176
     1
 62
    18
420
        0
176
     1
 90
       50
176
     1
 90
        3
176
     1
 62
     5
420
      255
176
     1
290
     0
176
     1
 90
       50
176
     1
 90
       50
176
     1
 90
       50
176
     1
290
     0
176
     1
 90
       50
176
     1
 62
   256
176
     0
 40
1.0
176
     0
 90
        2
176
     1
  1
strokes_ogs.tif
176
     1
290
     0
176
     1
 40
1.0
176
     1
 40
1.0
176
     1
  0
VISUALSTYLE
  5
31
102
{ACAD_REACTORS
330
2A
102
}
330
2A
100
AcDbVisualStyle
  2

 70
     6
177
     3
291
     0
 70
    58
 90
        1
176
     1
 90
        2
176
     1
 90
        2
176
     1
 90
        0
176
     1
 40
0.6
176
     1
 40
30.0
176
     1
 62
     7
420
 16777215
176
     1
 90
        2
176
     1
 90
        2
176
     1
 62
     7
176
     1
 62
   257
176
     1
 90
        2
176
     1
 90
        1
176
     1
 40
40.0
176
     1
 90
        0
176
     1
 62
   257
176
     1
 40
1.0
176
     1
 90
        1
176
     1
 90
        6
176
     1
 90
        2
176
     1
 62
     7
176
     1
 90
        3
176
     1
 90
        0
176
     1
 90
        0
176
     1
290
     0
176
     1
 90
        1
176
     1
 40
0.0
176
     1
 90
        0
176
     1
290
     0
176
     1
290
     1
176
     1
290
     1
176
     1
290
     0
176
     1
290
     0
176
     1
290
     0
176
     1
290
     0
176
     1
290
     0
176
     1
290
     0
176
     1
 90
       50
176
     1
 40
0.0
176
     1
 40
1.0
176
     1
 90
        0
176
     1
 62
    18
420
        0
176
     1
 90
       50
176
     1
 90
        3
176
     1
 62
     5
420
      255
176
     1
290
     0
176
     1
 90
       50
176
     1
 90
       50
176
     1
 90
       50
176
     1
290
     0
176
     1
 90
       50
176
     1
 62
   256
176
     0
 40
1.0
176
     0
 90
        2
176
     1
  1
strokes_ogs.tif
176
     1
290
     0
176
     1
 40
1.0
176
     1
 40
1.0
176
     1
  0
VISUALSTYLE
  5
3B
102
{ACAD_REACTORS
330
2A
102
}
330
2A
100
AcDbVisualStyle
  2

 70
    20
177
     3
291
     1
 70
    58
 90
        2
176
     0
 90
        2
176
     0
 90
        0
176
     0
 90
        0
176
     0
 40
0.6
176
     0
 40
30.0
176
     0
 62
     7
420
 16777215
176
     0
 90
        1
176
     0
 90
        4
176
     0
 62
     7
176
     0
 62
   257
176
     0
 90
        1
176
     0
 90
        1
176
     0
 40
1.0
176
     0
 90
       10
176
     2
 62
     7
176
     0
 40
1.0
176
     0
 90
        1
176
     0
 90
        6
176
     0
 90
        2
176
     0
 62
     7
176
     0
 90
        5
176
     0
 90
        0
176
     0
 90
        0
176
     0
290
     0
176
     0
 90
        1
176
     0
 40
0.0
176
     0
 90
        0
176
     0
290
     0
176
     0
290
     1
176
     0
290
     1
176
     0
290
     0
176
     0
290
     0
176
     0
290
     0
176
     0
290
     0
176
     0
290
     0
176
     0
290
     0
176
     0
 90
       50
176
     0
 40
0.0
176
     0
 40
1.0
176
     0
 90
        0
176
     0
 62
    18
420
        0
176
     0
 90
       50
176
     0
 90
        3
176
     0
 62
     5
420
      255
176
     0
290
     0
176
     0
 90
       50
176
     0
 90
       50
176
     0
 90
       50
176
     0
290
     0
176
     0
 90
       50
176
     0
 62
   256
176
     0
 40
1.0
176
     0
 90
        2
176
     0
  1
strokes_ogs.tif
176
     0
290
     0
176
     0
 40
1.0
176
     0
 40
1.0
176
     0
  0
VISUALSTYLE
  5
38
102
{ACAD_REACTORS
330
2A
102
}
330
2A
100
AcDbVisualStyle
  2

 70
    14
177
     3
291
     1
 70
    58
 90
        2
176
     1
 90
        2
176
     1
 90
        0
176
     1
 90
        0
176
     1
 40
0.6
176
     1
 40
30.0
176
     1
 62
     7
420
 16777215
176
     1
 90
        1
176
     1
 90
        4
176
     1
 62
     7
176
     1
 62
   257
176
     1
 90
        7
176
     1
 90
        7
176
     1
 40
1.0
176
     1
 90
        8
176
     1
 62
     7
176
     1
 40
1.0
176
     1
 90
        1
176
     1
 90
        6
176
     1
 90
        2
176
     1
 62
     7
176
     1
 90
        5
176
     1
 90
        0
176
     1
 90
        0
176
     1
290
     0
176
     1
 90
        1
176
     1
 40
0.0
176
     1
 90
        0
176
     1
290
     0
176
     1
290
     1
176
     1
290
     1
176
     1
290
     0
176
     1
290
     0
176
     1
290
     0
176
     1
290
     0
176
     1
290
     0
176
     1
290
     0
176
     1
 90
       50
176
     1
 40
0.0
176
     1
 40
1.0
176
     1
 90
        0
176
     1
 62
    18
420
        0
176
     1
 90
       50
176
     1
 90
        3
176
     1
 62
     5
420
      255
176
     1
290
     0
176
     1
 90
       50
176
     1
 90
       50
176
     1
 90
       50
176
     1
290
     0
176
     1
 90
       50
176
     1
 62
   256
176
     0
 40
1.0
176
     0
 90
        2
176
     1
  1
strokes_ogs.tif
176
     1
290
     0
176
     1
 40
1.0
176
     1
 40
1.0
176
     1
  0
VISUALSTYLE
  5
3C
102
{ACAD_REACTORS
330
2A
102
}
330
2A
100
AcDbVisualStyle
  2

 70
    21
177
     3
291
     1
 70
    58
 90
        2
176
     0
 90
        2
176
     0
 90
        0
176
     0
 90
        0
176
     0
 40
0.6
176
     0
 40
30.0
176
     0
 62
     7
420
 16777215
176
     0
 90
        1
176
     0
 90
        4
176
     0
 62
     7
176
     0
 62
   257
176
     0
 90
        1
176
     0
 90
        1
176
     0
 40
1.0
176
     0
 90
        9
176
     2
 62
     7
176
     0
 40
1.0
176
     0
 90
        1
176
     0
 90
        6
176
     0
 90
        2
176
     0
 62
     7
176
     0
 90
        5
176
     0
 90
        0
176
     0
 90
        0
176
     0
290
     0
176
     0
 90
        1
176
     0
 40
0.0
176
     0
 90
        0
176
     0
290
     0
176
     0
290
     1
176
     0
290
     1
176
     0
290
     0
176
     0
290
     0
176
     0
290
     0
176
     0
290
     0
176
     0
290
     0
176
     0
290
     0
176
     0
 90
       50
176
     0
 40
0.0
176
     0
 40
1.0
176
     0
 90
        0
176
     0
 62
    18
420
        0
176
     0
 90
       50
176
     0
 90
        3
176
     0
 62
     5
420
      255
176
     0
290
     0
176
     0
 90
       50
176
     0
 90
       50
176
     0
 90
       50
176
     0
290
     0
176
     0
 90
       50
176
     0
 62
   256
176
     0
 40
1.0
176
     0
 90
        2
176
     0
  1
strokes_ogs.tif
176
     0
290
     0
176
     0
 40
1.0
176
     0
 40
1.0
176
     0
  0
VISUALSTYLE
  5
33
102
{ACAD_REACTORS
330
2A
102
}
330
2A
100
AcDbVisualStyle
  2

 70
     8
177
     3
291
     0
 70
    58
 90
        2
176
     1
 90
        3
176
     1
 90
        0
176
     1
 90
        2
176
     1
 40
0.6
176
     1
 40
30.0
176
     1
 62
     7
420
 16777215
176
     1
 90
        0
176
     1
 90
        0
176
     1
 62
     7
176
     1
 62
   257
176
     1
 90
        1
176
     1
 90
        1
176
     1
 40
1.0
176
     1
 90
        8
176
     1
 62
   257
176
     1
 40
1.0
176
     1
 90
        1
176
     1
 90
        6
176
     1
 90
        2
176
     1
 62
     7
176
     1
 90
        3
176
     1
 90
        0
176
     1
 90
        0
176
     1
290
     0
176
     1
 90
       13
176
     1
 40
0.0
176
     1
 90
        0
176
     1
290
     0
176
     1
290
     1
176
     1
290
     1
176
     1
290
     0
176
     1
290
     0
176
     1
290
     0
176
     1
290
     0
176
     1
290
     0
176
     1
290
     0
176
     1
 90
       50
176
     1
 40
0.0
176
     1
 40
1.0
176
     1
 90
        0
176
     1
 62
    18
420
        0
176
     1
 90
       50
176
     1
 90
        3
176
     1
 62
     5
420
      255
176
     1
290
     0
176
     1
 90
       50
176
     1
 90
       50
176
     1
 90
       50
176
     1
290
     0
176
     1
 90
       50
176
     1
 62
   256
176
     0
 40
1.0
176
     0
 90
        2
176
     1
  1
strokes_ogs.tif
176
     1
290
     0
176
     1
 40
1.0
176
     1
 40
1.0
176
     1
  0
VISUALSTYLE
  5
42
102
{ACAD_REACTORS
330
2A
102
}
330
2A
100
AcDbVisualStyle
  2

 70
    27
177
     3
291
     0
 70
    58
 90
        2
176
     1
 90
        2
176
     1
 90
        1
176
     1
 90
        2
176
     1
 40
0.6
176
     1
 40
30.0
176
     1
 62
     7
420
 16777215
176
     1
 90
        0
176
     1
 90
        4
176
     1
 62
     7
176
     1
 62
   257
176
     1
 90
        1
176
     1
 90
        1
176
     1
 40
1.0
176
     1
 90
        8
176
     1
 62
   257
176
     1
 40
1.0
176
     1
 90
        1
176
     1
 90
        6
176
     1
 90
        2
176
     1
 62
     8
420
  7895160
176
     1
 90
        3
176
     1
 90
        0
176
     1
 90
        0
176
     1
290
     0
176
     1
 90
        5
176
     1
 40
0.0
176
     1
 90
        0
176
     1
290
     0
176
     1
290
     1
176
     1
290
     1
176
     1
290
     0
176
     1
290
     0
176
     1
290
     0
176
     1
290
     0
176
     1
290
     0
176
     1
290
     0
176
     1
 90
       50
176
     1
 40
0.0
176
     1
 40
1.0
176
     1
 90
        0
176
     1
 62
    18
420
        0
176
     1
 90
       50
176
     1
 90
        3
176
     1
 62
     5
420
      255
176
     1
290
     0
176
     1
 90
       50
176
     1
 90
       50
176
     1
 90
       50
176
     1
290
     0
176
     1
 90
       50
176
     1
 62
   256
176
     0
 40
1.0
176
     0
 90
        2
176
     1
  1
strokes_ogs.tif
176
     1
290
     0
176
     1
 40
1.0
176
     1
 40
1.0
176
     1
  0
VISUALSTYLE
  5
41
102
{ACAD_REACTORS
330
2A
102
}
330
2A
100
AcDbVisualStyle
  2

 70
    26
177
     3
291
     0
 70
    58
 90
        2
176
     1
 90
        2
176
     1
 90
        1
176
     1
 90
        2
176
     1
 40
0.6
176
     1
 40
30.0
176
     1
 62
     7
420
 16777215
176
     1
 90
        1
176
     1
 90
        2
176
     1
 62
     7
176
     1
 62
   257
176
     1
 90
        2
176
     1
 90
        1
176
     1
 40
1.0
176
     1
 90
        8
176
     1
 62
   257
176
     1
 40
1.0
176
     1
 90
        1
176
     1
 90
        6
176
     1
 90
        2
176
     1
 62
     7
176
     1
 90
        3
176
     1
 90
        0
176
     1
 90
        0
176
     1
290
     0
176
     1
 90
        5
176
     1
 40
0.0
176
     1
 90
        0
176
     1
290
     0
176
     1
290
     1
176
     1
290
     1
176
     1
290
     0
176
     1
290
     0
176
     1
290
     0
176
     1
290
     0
176
     1
290
     0
176
     1
290
     0
176
     1
 90
       50
176
     1
 40
0.0
176
     1
 40
1.0
176
     1
 90
        0
176
     1
 62
    18
420
        0
176
     1
 90
       50
176
     1
 90
        3
176
     1
 62
     5
420
      255
176
     1
290
     0
176
     1
 90
       50
176
     1
 90
       50
176
     1
 90
       50
176
     1
290
     0
176
     1
 90
       50
176
     1
 62
   256
176
     0
 40
1.0
176
     0
 90
        2
176
     1
  1
strokes_ogs.tif
176
     1
290
     0
176
     1
 40
1.0
176
     1
 40
1.0
176
     1
  0
VISUALSTYLE
  5
3E
102
{ACAD_REACTORS
330
2A
102
}
330
2A
100
AcDbVisualStyle
  2

 70
    23
177
     3
291
     0
 70
    58
 90
        2
176
     1
 90
        2
176
     1
 90
        3
176
     1
 90
        0
176
     1
 40
0.6
176
     1
 40
30.0
176
     1
 62
     7
420
 16777215
176
     1
 90
        2
176
     1
 90
        2
176
     1
 62
     7
176
     1
 62
     7
176
     1
 90
        1
176
     1
 90
        1
176
     1
 40
40.0
176
     1
 90
        8
176
     1
 62
     7
176
     1
 40
1.0
176
     1
 90
        1
176
     1
 90
        6
176
     1
 90
        2
176
     1
 62
     7
176
     1
 90
        3
176
     1
 90
        0
176
     1
 90
        0
176
     1
290
     0
176
     1
 90
        1
176
     1
 40
0.0
176
     1
 90
        0
176
     1
290
     0
176
     1
290
     1
176
     1
290
     1
176
     1
290
     0
176
     1
290
     0
176
     1
290
     0
176
     1
290
     0
176
     1
290
     0
176
     1
290
     0
176
     1
 90
       50
176
     1
 40
0.0
176
     1
 40
1.0
176
     1
 90
        0
176
     1
 62
    18
420
        0
176
     1
 90
       50
176
     1
 90
        3
176
     1
 62
     5
420
      255
176
     1
290
     0
176
     1
 90
       50
176
     1
 90
       50
176
     1
 90
       50
176
     1
290
     0
176
     1
 90
       50
176
     1
 62
   256
176
     0
 40
1.0
176
     0
 90
        2
176
     1
  1
strokes_ogs.tif
176
     1
290
     0
176
     1
 40
1.0
176
     1
 40
1.0
176
     1
  0
VISUALSTYLE
  5
3F
102
{ACAD_REACTORS
330
2A
102
}
330
2A
100
AcDbVisualStyle
  2

 70
    24
177
     3
291
     0
 70
    58
 90
        1
176
     1
 90
        2
176
     1
 90
        2
176
     1
 90
        0
176
     1
 40
0.6
176
     1
 40
30.0
176
     1
 62
     7
420
 16777215
176
     1
 90
        2
176
     1
 90
        2
176
     1
 62
     7
176
     1
 62
     7
176
     1
 90
        1
176
     1
 90
        1
176
     1
 40
40.0
176
     1
 90
       11
176
     1
 62
     7
176
     1
 40
1.0
176
     1
 90
        1
176
     1
 90
        6
176
     1
 90
        2
176
     1
 62
     7
176
     1
 90
        6
176
     1
 90
        0
176
     1
 90
        0
176
     1
290
     0
176
     1
 90
        1
176
     1
 40
0.0
176
     1
 90
        0
176
     1
290
     0
176
     1
290
     1
176
     1
290
     1
176
     1
290
     0
176
     1
290
     0
176
     1
290
     0
176
     1
290
     0
176
     1
290
     0
176
     1
290
     0
176
     1
 90
       50
176
     1
 40
0.0
176
     1
 40
1.0
176
     1
 90
        0
176
     1
 62
    18
420
        0
176
     1
 90
       50
176
     1
 90
        3
176
     1
 62
     5
420
      255
176
     1
290
     0
176
     1
 90
       50
176
     1
 90
       50
176
     1
 90
       50
176
     1
290
     0
176
     1
 90
       50
176
     1
 62
   256
176
     0
 40
1.0
176
     0
 90
        2
176
     1
  1
strokes_ogs.tif
176
     1
290
     0
176
     1
 40
1.0
176
     1
 40
1.0
176
     1
  0
VISUALSTYLE
  5
37
102
{ACAD_REACTORS
330
2A
102
}
330
2A
100
AcDbVisualStyle
  2

 70
    13
177
     3
291
     1
 70
    58
 90
        2
176
     1
 90
        2
176
     1
 90
        0
176
     1
 90
        0
176
     1
 40
0.6
176
     1
 40
30.0
176
     1
 62
     7
420
 16777215
176
     1
 90
        1
176
     1
 90
        4
176
     1
 62
     7
176
     1
 62
   257
176
     1
 90
        1
176
     1
 90
        1
176
     1
 40
1.0
176
     1
 90
       12
176
     1
 62
     7
176
     1
 40
1.0
176
     1
 90
        1
176
     1
 90
        6
176
     1
 90
        2
176
     1
 62
     7
176
     1
 90
        5
176
     1
 90
        0
176
     1
 90
        0
176
     1
290
     0
176
     1
 90
        1
176
     1
 40
0.0
176
     1
 90
        0
176
     1
290
     0
176
     1
290
     1
176
     1
290
     1
176
     1
290
     0
176
     1
290
     0
176
     1
290
     0
176
     1
290
     0
176
     1
290
     0
176
     1
290
     0
176
     1
 90
       50
176
     1
 40
0.0
176
     1
 40
1.0
176
     1
 90
        0
176
     1
 62
    18
420
        0
176
     1
 90
       50
176
     1
 90
        3
176
     1
 62
     5
420
      255
176
     1
290
     0
176
     1
 90
       50
176
     1
 90
       50
176
     1
 90
       50
176
     1
290
     0
176
     1
 90
       50
176
     1
 62
   256
176
     0
 40
1.0
176
     0
 90
        2
176
     1
  1
strokes_ogs.tif
176
     1
290
     0
176
     1
 40
1.0
176
     1
 40
1.0
176
     1
  0
VISUALSTYLE
  5
30
102
{ACAD_REACTORS
330
2A
102
}
330
2A
100
AcDbVisualStyle
  2

 70
     5
177
     3
291
     0
 70
    58
 90
        0
176
     1
 90
        2
176
     1
 90
        0
176
     1
 90
        0
176
     1
 40
0.6
176
     1
 40
30.0
176
     1
 62
     7
420
 16777215
176
     1
 90
        1
176
     1
 90
        4
176
     1
 62
     7
176
     1
 62
   257
176
     1
 90
        1
176
     1
 90
        1
176
     1
 40
1.0
176
     1
 90
        0
176
     1
 62
   257
176
     1
 40
1.0
176
     1
 90
        1
176
     1
 90
        6
176
     1
 90
        2
176
     1
 62
     7
176
     1
 90
        3
176
     1
 90
        0
176
     1
 90
        0
176
     1
290
     0
176
     1
 90
        1
176
     1
 40
0.0
176
     1
 90
        0
176
     1
290
     0
176
     1
290
     1
176
     1
290
     1
176
     1
290
     0
176
     1
290
     0
176
     1
290
     0
176
     1
290
     0
176
     1
290
     0
176
     1
290
     0
176
     1
 90
       50
176
     1
 40
0.0
176
     1
 40
1.0
176
     1
 90
        0
176
     1
 62
    18
420
        0
176
     1
 90
       50
176
     1
 90
        3
176
     1
 62
     5
420
      255
176
     1
290
     0
176
     1
 90
       50
176
     1
 90
       50
176
     1
 90
       50
176
     1
290
     0
176
     1
 90
       50
176
     1
 62
   256
176
     0
 40
1.0
176
     0
 90
        2
176
     1
  1
strokes_ogs.tif
176
     1
290
     0
176
     1
 40
1.0
176
     1
 40
1.0
176
     1
  0
VISUALSTYLE
  5
40
102
{ACAD_REACTORS
330
2A
102
}
330
2A
100
AcDbVisualStyle
  2

 70
    25
177
     3
291
     0
 70
    58
 90
        2
176
     1
 90
        2
176
     1
 90
        1
176
     1
 90
        1
176
     1
 40
0.5
176
     1
 40
30.0
176
     1
 62
     7
420
 16777215
176
     1
 90
        1
176
     1
 90
        0
176
     1
 62
     7
176
     1
 62
   257
176
     1
 90
        1
176
     1
 90
        1
176
     1
 40
1.0
176
     1
 90
        8
176
     1
 62
     7
176
     1
 40
1.0
176
     1
 90
        1
176
     1
 90
        6
176
     1
 90
        2
176
     1
 62
     7
176
     1
 90
        3
176
     1
 90
        0
176
     1
 90
        0
176
     1
290
     0
176
     1
 90
       13
176
     1
 40
0.0
176
     1
 90
        0
176
     1
290
     0
176
     1
290
     1
176
     1
290
     1
176
     1
290
     0
176
     1
290
     0
176
     1
290
     0
176
     1
290
     0
176
     1
290
     0
176
     1
290
     0
176
     1
 90
       50
176
     1
 40
0.0
176
     1
 40
1.0
176
     1
 90
        0
176
     1
 62
    18
420
        0
176
     1
 90
       50
176
     1
 90
        3
176
     1
 62
     5
420
      255
176
     1
290
     0
176
     1
 90
       50
176
     1
 90
       50
176
     1
 90
       50
176
     1
290
     0
176
     1
 90
       50
176
     1
 62
   256
176
     0
 40
1.0
176
     0
 90
        2
176
     1
  1
strokes_ogs.tif
176
     1
290
     0
176
     1
 40
1.0
176
     1
 40
1.0
176
     1
  0
DICTIONARYVAR
  5
789
102
{ACAD_REACTORS
330
788
102
}
330
788
100
DictionaryVariables
280
     0
  1
1:1
  0
DICTIONARYVAR
  5
7C2
102
{ACAD_REACTORS
330
788
102
}
330
788
100
DictionaryVariables
280
     0
  1
STANDARD
  0
DICTIONARYVAR
  5
7C1
102
{ACAD_REACTORS
330
788
102
}
330
788
100
DictionaryVariables
280
     0
  1
STANDARD
  0
DICTIONARYVAR
  5
7E9
102
{ACAD_REACTORS
330
788
102
}
330
788
100
DictionaryVariables
280
     0
  1
Metric50
  0
DICTIONARYVAR
  5
7EA
102
{ACAD_REACTORS
330
788
102
}
330
788
100
DictionaryVariables
280
     0
  1
Metric50
  0
DICTIONARYVAR
  5
7EB
102
{ACAD_REACTORS
330
788
102
}
330
788
100
DictionaryVariables
280
     0
  1
1
  0
DICTIONARYVAR
  5
7EC
102
{ACAD_REACTORS
330
788
102
}
330
788
100
DictionaryVariables
280
     0
  1
15
  0
DICTIONARY
  5
7BB
330
5A
100
AcDbDictionary
280
     1
281
     1
  3
ACAD_ROUNDTRIP_2008_TABLESTYLE_CELLSTYLEMAP
360
7FC
  0
CELLSTYLEMAP
  5
7FC
102
{ACAD_REACTORS
330
7BB
102
}
330
7BB
100
AcDbCellStyleMap
 90
        3
300
CELLSTYLE
  1
TABLEFORMAT_BEGIN
 90
        5
170
     1
 91
        0
 92
    32768
 62
   257
 93
        1
300
CONTENTFORMAT
  1
CONTENTFORMAT_BEGIN
 90
        0
 91
        0
 92
        4
 93
        0
300

 40
0.0
140
1.0
 94
        5
 62
     0
340
11
144
0.25
309
CONTENTFORMAT_END
171
     1
301
MARGIN
  1
CELLMARGIN_BEGIN
 40
0.06
 40
0.06
 40
0.06
 40
0.06
 40
0.18
 40
0.18
309
CELLMARGIN_END
 94
        6
 95
        1
302
GRIDFORMAT
  1
GRIDFORMAT_BEGIN
 90
        0
 91
        1
 62
     0
 92
       -2
340
14
 93
        0
 40
0.045
309
GRIDFORMAT_END
 95
        2
302
GRIDFORMAT
  1
GRIDFORMAT_BEGIN
 90
        0
 91
        1
 62
     0
 92
       -2
340
14
 93
        0
 40
0.045
309
GRIDFORMAT_END
 95
        4
302
GRIDFORMAT
  1
GRIDFORMAT_BEGIN
 90
        0
 91
        1
 62
     0
 92
       -2
340
14
 93
        0
 40
0.045
309
GRIDFORMAT_END
 95
        8
302
GRIDFORMAT
  1
GRIDFORMAT_BEGIN
 90
        0
 91
        1
 62
     0
 92
       -2
340
14
 93
        0
 40
0.045
309
GRIDFORMAT_END
 95
       16
302
GRIDFORMAT
  1
GRIDFORMAT_BEGIN
 90
        0
 91
        1
 62
     0
 92
       -2
340
14
 93
        0
 40
0.045
309
GRIDFORMAT_END
 95
       32
302
GRIDFORMAT
  1
GRIDFORMAT_BEGIN
 90
        0
 91
        1
 62
     0
 92
       -2
340
14
 93
        0
 40
0.045
309
GRIDFORMAT_END
309
TABLEFORMAT_END
  1
CELLSTYLE_BEGIN
 90
        1
 91
        1
300
_TITLE
309
CELLSTYLE_END
300
CELLSTYLE
  1
TABLEFORMAT_BEGIN
 90
        5
170
     1
 91
        0
 92
        0
 62
   257
 93
        1
300
CONTENTFORMAT
  1
CONTENTFORMAT_BEGIN
 90
        0
 91
        0
 92
        4
 93
        0
300

 40
0.0
140
1.0
 94
        5
 62
     0
340
11
144
0.18
309
CONTENTFORMAT_END
171
     1
301
MARGIN
  1
CELLMARGIN_BEGIN
 40
0.06
 40
0.06
 40
0.06
 40
0.06
 40
0.18
 40
0.18
309
CELLMARGIN_END
 94
        6
 95
        1
302
GRIDFORMAT
  1
GRIDFORMAT_BEGIN
 90
        0
 91
        1
 62
     0
 92
       -2
340
14
 93
        0
 40
0.045
309
GRIDFORMAT_END
 95
        2
302
GRIDFORMAT
  1
GRIDFORMAT_BEGIN
 90
        0
 91
        1
 62
     0
 92
       -2
340
14
 93
        0
 40
0.045
309
GRIDFORMAT_END
 95
        4
302
GRIDFORMAT
  1
GRIDFORMAT_BEGIN
 90
        0
 91
        1
 62
     0
 92
       -2
340
14
 93
        0
 40
0.045
309
GRIDFORMAT_END
 95
        8
302
GRIDFORMAT
  1
GRIDFORMAT_BEGIN
 90
        0
 91
        1
 62
     0
 92
       -2
340
14
 93
        0
 40
0.045
309
GRIDFORMAT_END
 95
       16
302
GRIDFORMAT
  1
GRIDFORMAT_BEGIN
 90
        0
 91
        1
 62
     0
 92
       -2
340
14
 93
        0
 40
0.045
309
GRIDFORMAT_END
 95
       32
302
GRIDFORMAT
  1
GRIDFORMAT_BEGIN
 90
        0
 91
        1
 62
     0
 92
       -2
340
14
 93
        0
 40
0.045
309
GRIDFORMAT_END
309
TABLEFORMAT_END
  1
CELLSTYLE_BEGIN
 90
        2
 91
        1
300
_HEADER
309
CELLSTYLE_END
300
CELLSTYLE
  1
TABLEFORMAT_BEGIN
 90
        5
170
     1
 91
        0
 92
        0
 62
   257
 93
        1
300
CONTENTFORMAT
  1
CONTENTFORMAT_BEGIN
 90
        0
 91
        0
 92
        4
 93
        0
300

 40
0.0
140
1.0
 94
        2
 62
     0
340
11
144
0.18
309
CONTENTFORMAT_END
171
     1
301
MARGIN
  1
CELLMARGIN_BEGIN
 40
0.06
 40
0.06
 40
0.06
 40
0.06
 40
0.18
 40
0.18
309
CELLMARGIN_END
 94
        6
 95
        1
302
GRIDFORMAT
  1
GRIDFORMAT_BEGIN
 90
        0
 91
        1
 62
     0
 92
       -2
340
14
 93
        0
 40
0.045
309
GRIDFORMAT_END
 95
        2
302
GRIDFORMAT
  1
GRIDFORMAT_BEGIN
 90
        0
 91
        1
 62
     0
 92
       -2
340
14
 93
        0
 40
0.045
309
GRIDFORMAT_END
 95
        4
302
GRIDFORMAT
  1
GRIDFORMAT_BEGIN
 90
        0
 91
        1
 62
     0
 92
       -2
340
14
 93
        0
 40
0.045
309
GRIDFORMAT_END
 95
        8
302
GRIDFORMAT
  1
GRIDFORMAT_BEGIN
 90
        0
 91
        1
 62
     0
 92
       -2
340
14
 93
        0
 40
0.045
309
GRIDFORMAT_END
 95
       16
302
GRIDFORMAT
  1
GRIDFORMAT_BEGIN
 90
        0
 91
        1
 62
     0
 92
       -2
340
14
 93
        0
 40
0.045
309
GRIDFORMAT_END
 95
       32
302
GRIDFORMAT
  1
GRIDFORMAT_BEGIN
 90
        0
 91
        1
 62
     0
 92
       -2
340
14
 93
        0
 40
0.045
309
GRIDFORMAT_END
309
TABLEFORMAT_END
  1
CELLSTYLE_BEGIN
 90
        3
 91
        2
300
_DATA
309
CELLSTYLE_END
  0
ENDSEC
  0
SECTION
  2
ACDSDATA
 70
     2
 71
     8
  0
ACDSSCHEMA
 90
        0
  1
AcDb_Thumbnail_Schema
  2
AcDbDs::ID
280
    10
 91
        8
  2
Thumbnail_Data
280
    15
 91
        0
101
ACDSRECORD
 95
        0
 90
        1
  2
AcDbDs::TreatedAsObjectData
280
     1
291
     1
101
ACDSRECORD
 95
        0
 90
        2
  2
AcDbDs::Legacy
280
     1
291
     1
101
ACDSRECORD
  1
AcDbDs::ID
 90
        3
  2
AcDs:Indexable
280
     1
291
     1
101
ACDSRECORD
  1
AcDbDs::ID
 90
        4
  2
AcDbDs::HandleAttribute
280
     7
282
     1
  0
ACDSSCHEMA
 90
        1
  1
AcDbDs::TreatedAsObjectDataSchema
  2
AcDbDs::TreatedAsObjectData
280
     1
 91
        0
  0
ACDSSCHEMA
 90
        2
  1
AcDbDs::LegacySchema
  2
AcDbDs::Legacy
280
     1
 91
        0
  0
ACDSSCHEMA
 90
        3
  1
AcDbDs::IndexedPropertySchema
  2
AcDs:Indexable
280
     1
 91
        0
  0
ACDSSCHEMA
 90
        4
  1
AcDbDs::HandleAttributeSchema
  2
AcDbDs::HandleAttribute
280
     7
 91
        1
284
     1
  0
ACDSRECORD
 90
        0
  2
AcDbDs::ID
280
    10
320
22
  2
Thumbnail_Data
280
    15
 94
     1426
310
89504E470D0A1A0A0000000D49484452000001000000007408030000005D681C3700000300504C5445212830FFFFFF2128300000000000000000000000000000000000000000000000000000330000660000990000CC0000FF0033000033330033660033990033CC0033FF0066000066330066660066990066CC0066FF0099
310
000099330099660099990099CC0099FF00CC0000CC3300CC6600CC9900CCCC00CCFF00FF0000FF3300FF6600FF9900FFCC00FFFF3300003300333300663300993300CC3300FF3333003333333333663333993333CC3333FF3366003366333366663366993366CC3366FF3399003399333399663399993399CC3399FF33CC00
310
33CC3333CC6633CC9933CCCC33CCFF33FF0033FF3333FF6633FF9933FFCC33FFFF6600006600336600666600996600CC6600FF6633006633336633666633996633CC6633FF6666006666336666666666996666CC6666FF6699006699336699666699996699CC6699FF66CC0066CC3366CC6666CC9966CCCC66CCFF66FF0066
310
FF3366FF6666FF9966FFCC66FFFF9900009900339900669900999900CC9900FF9933009933339933669933999933CC9933FF9966009966339966669966999966CC9966FF9999009999339999669999999999CC9999FF99CC0099CC3399CC6699CC9999CCCC99CCFF99FF0099FF3399FF6699FF9999FFCC99FFFFCC0000CC00
310
33CC0066CC0099CC00CCCC00FFCC3300CC3333CC3366CC3399CC33CCCC33FFCC6600CC6633CC6666CC6699CC66CCCC66FFCC9900CC9933CC9966CC9999CC99CCCC99FFCCCC00CCCC33CCCC66CCCC99CCCCCCCCCCFFCCFF00CCFF33CCFF66CCFF99CCFFCCCCFFFFFF0000FF0033FF0066FF0099FF00CCFF00FFFF3300FF3333
310
FF3366FF3399FF33CCFF33FFFF6600FF6633FF6666FF6699FF66CCFF66FFFF9900FF9933FF9966FF9999FF99CCFF99FFFFCC00FFCC33FFCC66FFCC99FFCCCCFFCCFFFFFF00FFFF33FFFF66FFFF99FFFFCCFFFFFF0000000D0D0D1A1A1A2828283535354343435050505D5D5D6B6B6B787878868686939393A1A1A1AEAEAEBB
310
BBBBC9C9C9D6D6D6E4E4E4F1F1F1FFFFFF0000000000000000000000000000000000000000000000000000000000002E4550F10000024D4944415478DAED9B5B7283300C45BDFF656A259DB6809FC282844182733E9A9630A975AD872D939400000000000000000000E05264CAC3ED4F62BCC1AA543045E7C359EEB02A6557
310
D48B07186FB12A6556349C00C61BE5D0FFBC3F38EE16E0FFAFFC820084C04D0274B9598AB714C3DA6107F600F935B79A80E2822E401E7A7001649970A9EDAF4C7AB2009BB5520444BE301660B0C00B9B03F2544B352FCB05458076EE3A01FE3459A4E97385230FC8339F57B3E585D302AC89647BF11B02F9C732DEF2EAA502
310
780801A9875F6E6A140F28C6ABE7007D17E833094A5FFDD424580C56AF020317712C80F4066D579F2F4065756F5B2380DAFE382580B3DDA00CD6849D00EA146E7974D210F2BB1992E17AEEB0008A35F57D1E0590B6269CF7804DC8C2B7D7A2E13604A4AF7DAD004DFD1BE780C6E85E0CA71E205A10481AAC8BD4E4568740F3
310
BBEF10102992A0E20126013ADFC8131F3A0966D79EAE04656DFE4A1D5DDD87FB2B835D062804A8560BFA5EA034A712C07F191C94803302EC7B806B01863D8DA32150BD933DDD7F19CC9950ED0A9B9360D41048DA0AEE4C190C19023B8DE33794C1B900969560DA5F08792B83F6E3F1A3BBC1284B61E371FE459BA1DB05B03F
310
F871A421B2B71D76160227F7CD9396D8BE9ABE3CE0120102F504EF1620680898CE051EEC0129194E86821C8C5C274090B3C10F764DB3E3F11867839FAC99270F48C4381EBF50007327FAD502C40E81273C25F6F57D330220C07B72C0170408C453BF2FF0F5D651B46F8C5CD03A7AF9B7B00000000000000000000000000000
310
00000000000086FC00C3B54E238EAB784C0000000049454E44AE426082
  0
ENDSEC
  0
EOF
