0
SECTION
2
HEADER
9
$INSUNITS
70
4
9
$ACADVER
1
AC1014
9
$HANDSEED
5
FFFF
0
ENDSEC
0
SECTION
2
TABLES
0
TABLE
2
VPORT
5
8
100
AcDbSymbolTable
0
ENDTAB
0
TABLE
2
LTYPE
5
5
100
AcDbSymbolTable
0
LTYPE
5
14
100
AcDbSymbolTableRecord
100
AcDbLinetypeTableRecord
2
BYBLOCK
70
0
0
LTYPE
5
15
100
AcDbSymbolTableRecord
100
AcDbLinetypeTableRecord
2
BYLAYER
70
0
0
ENDTAB
0
TABLE
2
LAYER
5
2
100
AcDbSymbolTable
70
2
0
LAYER
5
50
100
AcDbSymbolTableRecord
100
AcDbLayerTableRecord
2
0
70
0
6
CONTINUOUS
0
ENDTAB
0
TABLE
2
STYLE
5
3
100
AcDbSymbolTable
70
1
0
STYLE
5
11
100
AcDbSymbolTableRecord
100
AcDbTextStyleTableRecord
2
STANDARD
70
0
0
ENDTAB
0
TABLE
2
VIEW
5
6
100
AcDbSymbolTable
70
0
0
ENDTAB
0
TABLE
2
UCS
5
7
100
AcDbSymbolTable
70
0
0
ENDTAB
0
TABLE
2
APPID
5
9
100
AcDbSymbolTable
70
2
0
APPID
5
12
100
AcDbSymbolTableRecord
100
AcDbRegAppTableRecord
2
ACAD
70
0
0
ENDTAB
0
TABLE
2
DIMSTYLE
5
A
100
AcDbSymbolTable
70
1
0
ENDTAB
0
TABLE
2
BLOCK_RECORD
5
1
100
AcDbSymbolTable
70
1
0
BLOCK_RECORD
5
1F
100
AcDbSymbolTableRecord
100
AcDbBlockTableRecord
2
*MODEL_SPACE
0
BLOCK_RECORD
5
1B
100
AcDbSymbolTableRecord
100
AcDbBlockTableRecord
2
*PAPER_SPACE
0
ENDTAB
0
ENDSEC
0
SECTION
2
BLOCKS
0
BLOCK
5
20
100
AcDbEntity
100
AcDbBlockBegin
2
*MODEL_SPACE
0
ENDBLK
5
21
100
AcDbEntity
100
AcDbBlockEnd
0
BLOCK
5
1C
100
AcDbEntity
100
AcDbBlockBegin
2
*PAPER_SPACE
0
ENDBLK
5
1D
100
AcDbEntity
100
AcDbBlockEnd
0
ENDSEC
0
SECTION
2
ENTITIES
0
LINE
5
100
100
AcDbEntity
8
0
100
AcDbLine
10
89
20
3.0000000000000004
30
0
11
88.999999999999986
21
57.000000000000014
31
0
0
LINE
5
101
100
AcDbEntity
8
0
100
AcDbLine
10
2.2204460492503131e-15
20
57
30
0
11
2.2204460492503131e-15
21
2.9999999999999982
31
0
0
ARC
5
102
100
AcDbEntity
8
0
100
AcDbCircle
10
3.0000000000000027
20
57
30
0
40
2.9999999999999982
210
0
220
-0
230
1
100
AcDbArc
50
90
51
180
0
ARC
5
103
100
AcDbEntity
8
0
100
AcDbCircle
10
3.0000000000000027
20
3.0000000000000004
30
0
40
3.0000000000000004
210
0
220
0
230
1
100
AcDbArc
50
180
51
270
0
ARC
5
104
100
AcDbEntity
8
0
100
AcDbCircle
10
86
20
3.0000000000000004
30
0
40
3.0000000000000004
210
-0
220
0
230
1
100
AcDbArc
50
-90
51
0
0
ARC
5
105
100
AcDbEntity
8
0
100
AcDbCircle
10
85.999999999999972
20
56.999999999999986
30
0
40
3.0000000000000071
210
0
220
-0
230
1
100
AcDbArc
50
0
51
89.99999999999946
0
CIRCLE
5
106
100
AcDbEntity
8
0
100
AcDbCircle
10
6.5000000000000018
20
3.5000000000000004
30
0
40
0.87500000000000011
210
0
220
0
230
1
0
CIRCLE
5
107
100
AcDbEntity
8
0
100
AcDbCircle
10
6.5000000000000044
20
52.5
30
0
40
0.87500000000000011
210
0
220
0
230
1
0
CIRCLE
5
108
100
AcDbEntity
8
0
100
AcDbCircle
10
64.5
20
52.5
30
0
40
0.87500000000000011
210
0
220
0
230
1
0
CIRCLE
5
109
100
AcDbEntity
8
0
100
AcDbCircle
10
64.5
20
3.5000000000000004
30
0
40
0.87500000000000011
210
0
220
0
230
1
0
LINE
5
110
100
AcDbEntity
8
0
100
AcDbLine
10
3.0000000000000027
20
0
30
0
11
3.0000000000000027
21
-2.2500000447034725
31
0
0
LINE
5
111
100
AcDbEntity
8
0
100
AcDbLine
10
86
20
-2.2500000447034729
30
0
11
86
21
0
31
0
0
LINE
5
112
100
AcDbEntity
8
0
100
AcDbLine
10
44.499999999999993
20
-3.0000000447034836
30
0
11
54.874999999999986
21
-3.0000000447034836
31
0
0
LINE
5
113
100
AcDbEntity
8
0
100
AcDbLine
10
65.25
20
-3.0000000447034836
30
0
11
85.249999999999986
21
-3.0000000447034973
31
0
0
LINE
5
114
100
AcDbEntity
8
0
100
AcDbLine
10
44.500000000000014
20
-3.0000000447034836
30
0
11
34.875000000000028
21
-3.0000000447034836
31
0
0
LINE
5
115
100
AcDbEntity
8
0
100
AcDbLine
10
34.125000000000014
20
0
30
0
11
23.750000000000007
21
0
31
0
0
LINE
5
116
100
AcDbEntity
8
0
100
AcDbLine
10
34.125000000000014
20
-2.2500000447034729
30
0
11
34.125000000000014
21
0
31
0
0
LINE
5
117
100
AcDbEntity
8
0
100
AcDbLine
10
23.750000000000007
20
-2.2500000447034729
30
0
11
23.750000000000007
21
0
31
0
0
LINE
5
118
100
AcDbEntity
8
0
100
AcDbLine
10
23
20
-3.0000000447034836
30
0
11
3.7500000000000133
21
-3.0000000447034831
31
0
0
LINE
5
119
100
AcDbEntity
8
0
100
AcDbLine
10
54.874999999999986
20
-3.0000000447034836
30
0
11
65.25
21
-3.0000000447034836
31
0
0
ARC
5
120
100
AcDbEntity
8
0
100
AcDbCircle
10
85.249999999999972
20
-2.2500000447034689
30
0
40
0.75000000000002842
210
-0
220
0
230
1
100
AcDbArc
50
270.00000000000108
51
360
0
ARC
5
121
100
AcDbEntity
8
0
100
AcDbCircle
10
34.875000000000028
20
-2.2500000447034734
30
0
40
0.75000000000001066
210
0
220
0
230
1
100
AcDbArc
50
180
51
270
0
ARC
5
122
100
AcDbEntity
8
0
100
AcDbCircle
10
23
20
-2.2500000447034734
30
0
40
0.75000000000001044
210
-0
220
0
230
1
100
AcDbArc
50
-90
51
0
0
ARC
5
123
100
AcDbEntity
8
0
100
AcDbCircle
10
3.7500000000000138
20
-2.250000044703472
30
0
40
0.75000000000001121
210
0
220
0
230
1
100
AcDbArc
50
180
51
269.99999999999994
0
LINE
5
124
100
AcDbEntity
8
0
100
AcDbLine
10
44.499999999999993
20
63.000000044703484
30
0
11
54.874999999999986
21
63.000000044703484
31
0
0
ARC
5
125
100
AcDbEntity
8
0
100
AcDbCircle
10
3.7500000000000138
20
62.250000044703469
30
0
40
0.75000000000001066
210
0
220
0
230
1
100
AcDbArc
50
90.000000000000043
51
180
0
LINE
5
126
100
AcDbEntity
8
0
100
AcDbLine
10
65.25
20
63.000000044703484
30
0
11
85.249999999999986
21
63.000000044703498
31
0
0
LINE
5
127
100
AcDbEntity
8
0
100
AcDbLine
10
86
20
62.250000044703469
30
0
11
86
21
60
31
0
0
ARC
5
128
100
AcDbEntity
8
0
100
AcDbCircle
10
23
20
62.250000044703469
30
0
40
0.75000000000001066
210
-0
220
0
230
1
100
AcDbArc
50
0
51
90
0
LINE
5
129
100
AcDbEntity
8
0
100
AcDbLine
10
34.125000000000014
20
62.250000044703469
30
0
11
34.125000000000014
21
60
31
0
0
LINE
5
130
100
AcDbEntity
8
0
100
AcDbLine
10
3.0000000000000027
20
60
30
0
11
3.0000000000000027
21
62.250000044703469
31
0
0
ARC
5
131
100
AcDbEntity
8
0
100
AcDbCircle
10
34.875000000000028
20
62.250000044703469
30
0
40
0.75000000000001066
210
0
220
-0
230
1
100
AcDbArc
50
90
51
180
0
ARC
5
132
100
AcDbEntity
8
0
100
AcDbCircle
10
85.249999999999972
20
62.250000044703469
30
0
40
0.75000000000002842
210
-0
220
0
230
1
100
AcDbArc
50
0
51
89.99999999999892
0
LINE
5
133
100
AcDbEntity
8
0
100
AcDbLine
10
54.874999999999986
20
63.000000044703484
30
0
11
65.25
21
63.000000044703484
31
0
0
LINE
5
134
100
AcDbEntity
8
0
100
AcDbLine
10
23.750000000000007
20
62.250000044703469
30
0
11
23.750000000000007
21
60
31
0
0
LINE
5
135
100
AcDbEntity
8
0
100
AcDbLine
10
23
20
63.000000044703484
30
0
11
3.7500000000000133
21
63.000000044703484
31
0
0
LINE
5
136
100
AcDbEntity
8
0
100
AcDbLine
10
44.500000000000014
20
63.000000044703484
30
0
11
34.875000000000028
21
63.000000044703484
31
0
0
LINE
5
137
100
AcDbEntity
8
0
100
AcDbLine
10
23.750000000000007
20
60
30
0
11
34.125000000000014
21
60
31
0
0
ENDSEC
0
SECTION
2
OBJECTS
0
DICTIONARY
5
C
100
AcDbDictionary
3
ACAD_GROUP
350
D
3
ACAD_MLINESTYLE
350
17
0
DICTIONARY
5
D
100
AcDbDictionary
0
DICTIONARY
5
1A
330
C
100
AcDbDictionary
0
DICTIONARY
5
17
100
AcDbDictionary
0
ENDSEC
0
EOF
