  0
SECTION
  2
HEADER
  9
$ACADVER
  1
AC1018
  9
$ACADMAINTVER
 70
   104
  9
$DWGCODEPAGE
  3
ANSI_1255
  9
$INSBASE
 10
0.0
 20
0.0
 30
0.0
  9
$EXTMIN
 10
1.000000000000000E+20
 20
1.000000000000000E+20
 30
1.000000000000000E+20
  9
$EXTMAX
 10
-1.000000000000000E+20
 20
-1.000000000000000E+20
 30
-1.000000000000000E+20
  9
$LIMMIN
 10
0.0
 20
0.0
  9
$LIMMAX
 10
12.0
 20
9.0
  9
$ORTHOMODE
 70
     0
  9
$REGENMODE
 70
     1
  9
$FILLMODE
 70
     1
  9
$QTEXTMODE
 70
     0
  9
$MIRRTEXT
 70
     0
  9
$LTSCALE
 40
1.0
  9
$ATTMODE
 70
     1
  9
$TEXTSIZE
 40
0.2
  9
$TRACEWID
 40
0.05
  9
$TEXTSTYLE
  7
Standard
  9
$CLAYER
  8
0
  9
$CELTYPE
  6
ByLayer
  9
$CECOLOR
 62
   256
  9
$CELTSCALE
 40
1.0
  9
$DISPSILH
 70
     0
  9
$DIMSCALE
 40
1.0
  9
$DIMASZ
 40
0.18
  9
$DIMEXO
 40
0.0625
  9
$DIMDLI
 40
0.38
  9
$DIMRND
 40
0.0
  9
$DIMDLE
 40
0.0
  9
$DIMEXE
 40
0.18
  9
$DIMTP
 40
0.0
  9
$DIMTM
 40
0.0
  9
$DIMTXT
 40
0.18
  9
$DIMCEN
 40
0.09
  9
$DIMTSZ
 40
0.0
  9
$DIMTOL
 70
     0
  9
$DIMLIM
 70
     0
  9
$DIMTIH
 70
     1
  9
$DIMTOH
 70
     1
  9
$DIMSE1
 70
     0
  9
$DIMSE2
 70
     0
  9
$DIMTAD
 70
     0
  9
$DIMZIN
 70
     0
  9
$DIMBLK
  1

  9
$DIMASO
 70
     1
  9
$DIMSHO
 70
     1
  9
$DIMPOST
  1

  9
$DIMAPOST
  1

  9
$DIMALT
 70
     0
  9
$DIMALTD
 70
     2
  9
$DIMALTF
 40
25.4
  9
$DIMLFAC
 40
1.0
  9
$DIMTOFL
 70
     0
  9
$DIMTVP
 40
0.0
  9
$DIMTIX
 70
     0
  9
$DIMSOXD
 70
     0
  9
$DIMSAH
 70
     0
  9
$DIMBLK1
  1

  9
$DIMBLK2
  1

  9
$DIMSTYLE
  2
Standard
  9
$DIMCLRD
 70
     0
  9
$DIMCLRE
 70
     0
  9
$DIMCLRT
 70
     0
  9
$DIMTFAC
 40
1.0
  9
$DIMGAP
 40
0.09
  9
$DIMJUST
 70
     0
  9
$DIMSD1
 70
     0
  9
$DIMSD2
 70
     0
  9
$DIMTOLJ
 70
     1
  9
$DIMTZIN
 70
     0
  9
$DIMALTZ
 70
     0
  9
$DIMALTTZ
 70
     0
  9
$DIMUPT
 70
     0
  9
$DIMDEC
 70
     4
  9
$DIMTDEC
 70
     4
  9
$DIMALTU
 70
     2
  9
$DIMALTTD
 70
     2
  9
$DIMTXSTY
  7
Standard
  9
$DIMAUNIT
 70
     0
  9
$DIMADEC
 70
     0
  9
$DIMALTRND
 40
0.0
  9
$DIMAZIN
 70
     0
  9
$DIMDSEP
 70
    46
  9
$DIMATFIT
 70
     3
  9
$DIMFRAC
 70
     0
  9
$DIMLDRBLK
  1

  9
$DIMLUNIT
 70
     2
  9
$DIMLWD
 70
    -2
  9
$DIMLWE
 70
    -2
  9
$DIMTMOVE
 70
     0
  9
$LUNITS
 70
     2
  9
$LUPREC
 70
     4
  9
$SKETCHINC
 40
0.1
  9
$FILLETRAD
 40
0.0
  9
$AUNITS
 70
     0
  9
$AUPREC
 70
     0
  9
$MENU
  1
.
  9
$ELEVATION
 40
0.0
  9
$PELEVATION
 40
0.0
  9
$THICKNESS
 40
0.0
  9
$LIMCHECK
 70
     0
  9
$CHAMFERA
 40
0.0
  9
$CHAMFERB
 40
0.0
  9
$CHAMFERC
 40
0.0
  9
$CHAMFERD
 40
0.0
  9
$SKPOLY
 70
     0
  9
$TDCREATE
 40
2460840.000497686
  9
$TDUCREATE
 40
2460839.875497685
  9
$TDUPDATE
 40
2460840.000497686
  9
$TDUUPDATE
 40
2460839.875497685
  9
$TDINDWG
 40
0.0000000000
  9
$TDUSRTIMER
 40
0.0000000000
  9
$USRTIMER
 70
     1
  9
$ANGBASE
 50
0.0
  9
$ANGDIR
 70
     0
  9
$PDMODE
 70
     0
  9
$PDSIZE
 40
0.0
  9
$PLINEWID
 40
0.0
  9
$SPLFRAME
 70
     0
  9
$SPLINETYPE
 70
     6
  9
$SPLINESEGS
 70
     8
  9
$HANDSEED
  5
113
  9
$SURFTAB1
 70
     6
  9
$SURFTAB2
 70
     6
  9
$SURFTYPE
 70
     6
  9
$SURFU
 70
     6
  9
$SURFV
 70
     6
  9
$UCSBASE
  2

  9
$UCSNAME
  2

  9
$UCSORG
 10
0.0
 20
0.0
 30
0.0
  9
$UCSXDIR
 10
1.0
 20
0.0
 30
0.0
  9
$UCSYDIR
 10
0.0
 20
1.0
 30
0.0
  9
$UCSORTHOREF
  2

  9
$UCSORTHOVIEW
 70
     0
  9
$UCSORGTOP
 10
0.0
 20
0.0
 30
0.0
  9
$UCSORGBOTTOM
 10
0.0
 20
0.0
 30
0.0
  9
$UCSORGLEFT
 10
0.0
 20
0.0
 30
0.0
  9
$UCSORGRIGHT
 10
0.0
 20
0.0
 30
0.0
  9
$UCSORGFRONT
 10
0.0
 20
0.0
 30
0.0
  9
$UCSORGBACK
 10
0.0
 20
0.0
 30
0.0
  9
$PUCSBASE
  2

  9
$PUCSNAME
  2

  9
$PUCSORG
 10
0.0
 20
0.0
 30
0.0
  9
$PUCSXDIR
 10
1.0
 20
0.0
 30
0.0
  9
$PUCSYDIR
 10
0.0
 20
1.0
 30
0.0
  9
$PUCSORTHOREF
  2

  9
$PUCSORTHOVIEW
 70
     0
  9
$PUCSORGTOP
 10
0.0
 20
0.0
 30
0.0
  9
$PUCSORGBOTTOM
 10
0.0
 20
0.0
 30
0.0
  9
$PUCSORGLEFT
 10
0.0
 20
0.0
 30
0.0
  9
$PUCSORGRIGHT
 10
0.0
 20
0.0
 30
0.0
  9
$PUCSORGFRONT
 10
0.0
 20
0.0
 30
0.0
  9
$PUCSORGBACK
 10
0.0
 20
0.0
 30
0.0
  9
$USERI1
 70
     0
  9
$USERI2
 70
     0
  9
$USERI3
 70
     0
  9
$USERI4
 70
     0
  9
$USERI5
 70
     0
  9
$USERR1
 40
0.0
  9
$USERR2
 40
0.0
  9
$USERR3
 40
0.0
  9
$USERR4
 40
0.0
  9
$USERR5
 40
0.0
  9
$WORLDVIEW
 70
     1
  9
$SHADEDGE
 70
     3
  9
$SHADEDIF
 70
    70
  9
$TILEMODE
 70
     1
  9
$MAXACTVP
 70
    64
  9
$PINSBASE
 10
0.0
 20
0.0
 30
0.0
  9
$PLIMCHECK
 70
     0
  9
$PEXTMIN
 10
1.000000000000000E+20
 20
1.000000000000000E+20
 30
1.000000000000000E+20
  9
$PEXTMAX
 10
-1.000000000000000E+20
 20
-1.000000000000000E+20
 30
-1.000000000000000E+20
  9
$PLIMMIN
 10
0.0
 20
0.0
  9
$PLIMMAX
 10
12.0
 20
9.0
  9
$UNITMODE
 70
     0
  9
$VISRETAIN
 70
     1
  9
$PLINEGEN
 70
     0
  9
$PSLTSCALE
 70
     1
  9
$TREEDEPTH
 70
  3020
  9
$CMLSTYLE
  2
Standard
  9
$CMLJUST
 70
     0
  9
$CMLSCALE
 40
1.0
  9
$PROXYGRAPHICS
 70
     1
  9
$MEASUREMENT
 70
     0
  9
$CELWEIGHT
370
    -1
  9
$ENDCAPS
280
     0
  9
$JOINSTYLE
280
     0
  9
$LWDISPLAY
290
     1
  9
$INSUNITS
 70
     4
  9
$HYPERLINKBASE
  1

  9
$STYLESHEET
  1

  9
$XEDIT
290
     1
  9
$CEPSNTYPE
380
     0
  9
$PSTYLEMODE
290
     1
  9
$FINGERPRINTGUID
  2
{BB4C1547-E3AC-7247-9867-851DA64F1D5A}
  9
$VERSIONGUID
  2
{961C1B73-1204-DF40-BB28-93225EC137C0}
  9
$EXTNAMES
290
     1
  9
$PSVPSCALE
 40
0.0
  9
$OLESTARTUP
290
     0
  9
$SORTENTS
280
   127
  9
$INDEXCTL
280
     0
  9
$HIDETEXT
280
     1
  9
$XCLIPFRAME
290
     0
  9
$HALOGAP
280
     0
  9
$OBSCOLOR
 70
   257
  9
$OBSLTYPE
280
     0
  9
$INTERSECTIONDISPLAY
280
     0
  9
$INTERSECTIONCOLOR
 70
   257
  9
$DIMASSOC
280
     2
  9
$PROJECTNAME
  1

  0
ENDSEC
  0
SECTION
  2
CLASSES
  0
CLASS
  1
ACDBDICTIONARYWDFLT
  2
AcDbDictionaryWithDefault
  3
ObjectDBX Classes
 90
        0
 91
        1
280
     0
281
     0
  0
CLASS
  1
MATERIAL
  2
AcDbMaterial
  3
ObjectDBX Classes
 90
     1153
 91
        3
280
     0
281
     0
  0
CLASS
  1
VISUALSTYLE
  2
AcDbVisualStyle
  3
ObjectDBX Classes
 90
     4095
 91
       24
280
     0
281
     0
  0
CLASS
  1
SCALE
  2
AcDbScale
  3
ObjectDBX Classes
 90
     1153
 91
       17
280
     0
281
     0
  0
CLASS
  1
TABLESTYLE
  2
AcDbTableStyle
  3
ObjectDBX Classes
 90
     4095
 91
        1
280
     0
281
     0
  0
CLASS
  1
MLEADERSTYLE
  2
AcDbMLeaderStyle
  3
ACDB_MLEADERSTYLE_CLASS
 90
     4095
 91
        1
280
     0
281
     0
  0
CLASS
  1
ACDBSECTIONVIEWSTYLE
  2
AcDbSectionViewStyle
  3
ObjectDBX Classes
 90
     1025
 91
        1
280
     0
281
     0
  0
CLASS
  1
ACDBDETAILVIEWSTYLE
  2
AcDbDetailViewStyle
  3
ObjectDBX Classes
 90
     1025
 91
        1
280
     0
281
     0
  0
CLASS
  1
DICTIONARYVAR
  2
AcDbDictionaryVar
  3
ObjectDBX Classes
 90
        0
 91
       10
280
     0
281
     0
  0
CLASS
  1
CELLSTYLEMAP
  2
AcDbCellStyleMap
  3
ObjectDBX Classes
 90
     1152
 91
        1
280
     0
281
     0
  0
ENDSEC
  0
SECTION
  2
TABLES
  0
TABLE
  2
VPORT
  5
8
330
0
100
AcDbSymbolTable
 70
     1
  0
VPORT
  5
57
330
8
100
AcDbSymbolTableRecord
100
AcDbViewportTableRecord
  2
*Active
 70
     0
 10
0.0
 20
0.0
 11
1.0
 21
1.0
 12
0.0
 22
0.0
 13
0.0
 23
0.0
 14
1.0
 24
1.0
 15
0.0
 25
0.0
 16
0.0
 26
0.0
 36
1.0
 17
460.7121422655347
 27
-610.4645028083771
 37
0.0
 40
998.6524596099108
 41
0.8389833403239794
 42
50.0
 43
0.0
 44
0.0
 50
0.0
 51
0.0
 71
     0
 72
   100
 73
     1
 74
     1
 75
     0
 76
     0
 77
     0
 78
     0
281
     0
 65
     1
110
0.0
120
0.0
130
0.0
111
1.0
121
0.0
131
0.0
112
0.0
122
1.0
132
0.0
 79
     0
146
0.0
  0
ENDTAB
  0
TABLE
  2
LTYPE
  5
5
330
0
100
AcDbSymbolTable
 70
     1
  0
LTYPE
  5
5B
330
5
100
AcDbSymbolTableRecord
100
AcDbLinetypeTableRecord
  2
ByBlock
 70
     0
  3

 72
    65
 73
     0
 40
0.0
  0
LTYPE
  5
5C
330
5
100
AcDbSymbolTableRecord
100
AcDbLinetypeTableRecord
  2
ByLayer
 70
     0
  3

 72
    65
 73
     0
 40
0.0
  0
LTYPE
  5
5D
330
5
100
AcDbSymbolTableRecord
100
AcDbLinetypeTableRecord
  2
Continuous
 70
     0
  3
Solid line
 72
    65
 73
     0
 40
0.0
  0
ENDTAB
  0
TABLE
  2
LAYER
  5
2
330
0
100
AcDbSymbolTable
 70
     2
  0
LAYER
  5
54
330
2
100
AcDbSymbolTableRecord
100
AcDbLayerTableRecord
  2
0
 70
     0
 62
     7
  6
Continuous
370
    -3
390
F
  0
LAYER
  5
78
330
2
100
AcDbSymbolTableRecord
100
AcDbLayerTableRecord
  2
Layer 1
 70
     0
 62
     7
  6
Continuous
370
     0
390
F
  0
ENDTAB
  0
TABLE
  2
STYLE
  5
3
330
0
100
AcDbSymbolTable
 70
     2
  0
STYLE
  5
55
330
3
100
AcDbSymbolTableRecord
100
AcDbTextStyleTableRecord
  2
Standard
 70
     0
 40
0.0
 41
1.0
 50
0.0
 71
     0
 42
0.2
  3
txt
  4

  0
STYLE
  5
5A
330
3
100
AcDbSymbolTableRecord
100
AcDbTextStyleTableRecord
  2
Annotative
 70
     0
 40
0.0
 41
1.0
 50
0.0
 71
     0
 42
0.2
  3
txt
  4

1001
AcadAnnotative
1000
AnnotativeData
1002
{
1070
     1
1070
     1
1002
}
  0
ENDTAB
  0
TABLE
  2
VIEW
  5
6
330
0
100
AcDbSymbolTable
 70
     0
  0
ENDTAB
  0
TABLE
  2
UCS
  5
7
330
0
100
AcDbSymbolTable
 70
     0
  0
ENDTAB
  0
TABLE
  2
APPID
  5
9
330
0
100
AcDbSymbolTable
 70
     3
  0
APPID
  5
56
330
9
100
AcDbSymbolTableRecord
100
AcDbRegAppTableRecord
  2
ACAD
 70
     0
  0
APPID
  5
5E
330
9
100
AcDbSymbolTableRecord
100
AcDbRegAppTableRecord
  2
AcadAnnotative
 70
     0
  0
APPID
  5
10C
330
9
100
AcDbSymbolTableRecord
100
AcDbRegAppTableRecord
  2
ACAD_MLEADERVER
 70
     0
  0
ENDTAB
  0
TABLE
  2
DIMSTYLE
  5
A
330
0
100
AcDbSymbolTable
 70
     2
100
AcDbDimStyleTable
 71
     0
  0
DIMSTYLE
105
58
330
A
100
AcDbSymbolTableRecord
100
AcDbDimStyleTableRecord
  2
Standard
 70
     0
340
55
  0
DIMSTYLE
105
59
330
A
100
AcDbSymbolTableRecord
100
AcDbDimStyleTableRecord
  2
Annotative
 70
     0
340
55
1001
AcadAnnotative
1000
AnnotativeData
1002
{
1070
     1
1070
     1
1002
}
  0
ENDTAB
  0
TABLE
  2
BLOCK_RECORD
  5
1
330
0
100
AcDbSymbolTable
 70
     3
  0
BLOCK_RECORD
  5
70
330
1
100
AcDbSymbolTableRecord
100
AcDbBlockTableRecord
  2
*Model_Space
340
73
  0
BLOCK_RECORD
  5
6C
330
1
100
AcDbSymbolTableRecord
100
AcDbBlockTableRecord
  2
*Paper_Space
340
6F
  0
BLOCK_RECORD
  5
74
330
1
100
AcDbSymbolTableRecord
100
AcDbBlockTableRecord
  2
*Paper_Space0
340
77
  0
BLOCK_RECORD
  5
91
330
1
100
AcDbSymbolTableRecord
100
AcDbBlockTableRecord
  2
Block_0
340
0
102
{BLKREFS
331
92
102
}
  0
BLOCK_RECORD
  5
95
330
1
100
AcDbSymbolTableRecord
100
AcDbBlockTableRecord
  2
Block_1
340
0
102
{BLKREFS
331
96
102
}
  0
ENDTAB
  0
ENDSEC
  0
SECTION
  2
BLOCKS
  0
BLOCK
  5
71
330
70
100
AcDbEntity
  8
0
100
AcDbBlockBegin
  2
*Model_Space
 70
     0
 10
0.0
 20
0.0
 30
0.0
  3
*Model_Space
  1

  0
ENDBLK
  5
72
330
70
100
AcDbEntity
  8
0
100
AcDbBlockEnd
  0
BLOCK
  5
6D
330
6C
100
AcDbEntity
 67
     1
  8
0
100
AcDbBlockBegin
  2
*Paper_Space
 70
     0
 10
0.0
 20
0.0
 30
0.0
  3
*Paper_Space
  1

  0
ENDBLK
  5
6E
330
6C
100
AcDbEntity
 67
     1
  8
0
100
AcDbBlockEnd
  0
BLOCK
  5
75
330
74
100
AcDbEntity
 67
     1
  8
0
100
AcDbBlockBegin
  2
*Paper_Space0
 70
     0
 10
0.0
 20
0.0
 30
0.0
  3
*Paper_Space0
  1

  0
ENDBLK
  5
76
330
74
100
AcDbEntity
 67
     1
  8
0
100
AcDbBlockEnd
  0
BLOCK
  5
93
330
91
100
AcDbEntity
  8
0
100
AcDbBlockBegin
  2
Block_0
 70
     0
 10
0.0
 20
0.0
 30
0.0
  3
Block_0
  1

  0
INSERT
  5
96
330
91
100
AcDbEntity
  8
Layer 1
100
AcDbBlockReference
  2
Block_1
 10
0.0
 20
0.0
 30
0.0
  0
ENDBLK
  5
94
330
91
100
AcDbEntity
  8
0
100
AcDbBlockEnd
  0
BLOCK
  5
97
330
95
100
AcDbEntity
  8
0
100
AcDbBlockBegin
  2
Block_1
 70
     0
 10
0.0
 20
0.0
 30
0.0
  3
Block_1
  1

  0
SPLINE
  5
99
330
95
100
AcDbEntity
  8
Layer 1
100
AcDbSpline
210
0.0
220
0.0
230
1.0
 70
    11
 71
     3
 72
    23
 73
    19
 74
     0
 42
0.0000000001
 43
0.0000000001
 40
0.0
 40
0.0
 40
0.0
 40
0.0
 40
1.0
 40
1.0
 40
1.0
 40
2.0
 40
2.0
 40
2.0
 40
3.0
 40
3.0
 40
3.0
 40
4.0
 40
4.0
 40
4.0
 40
5.0
 40
5.0
 40
5.0
 40
6.0
 40
6.0
 40
6.0
 40
6.0
 10
89.52299365879962
 20
-155.0800610072369
 30
0.0
 10
89.52299365879962
 20
-155.0800610072369
 30
0.0
 10
91.53958030109061
 20
-155.0800610072369
 30
0.0
 10
91.53958030109061
 20
-155.0800610072369
 30
0.0
 10
91.53958030109061
 20
-155.0800610072369
 30
0.0
 10
91.53958030109061
 20
-169.0106491113931
 30
0.0
 10
91.53958030109061
 20
-169.0106491113931
 30
0.0
 10
91.53958030109061
 20
-169.0106491113931
 30
0.0
 10
98.21514182285921
 20
-169.0106491113931
 30
0.0
 10
98.21514182285921
 20
-169.0106491113931
 30
0.0
 10
98.21514182285921
 20
-169.0106491113931
 30
0.0
 10
98.21514182285921
 20
-170.7027077589736
 30
0.0
 10
98.21514182285921
 20
-170.7027077589736
 30
0.0
 10
98.21514182285921
 20
-170.7027077589736
 30
0.0
 10
89.52299365879962
 20
-170.7027077589736
 30
0.0
 10
89.52299365879962
 20
-170.7027077589736
 30
0.0
 10
89.52299365879962
 20
-170.7027077589736
 30
0.0
 10
89.52299365879962
 20
-155.0800610072369
 30
0.0
 10
89.52299365879962
 20
-155.0800610072369
 30
0.0
  0
HATCH
  5
9A
330
95
100
AcDbEntity
  8
Layer 1
 62
     7
440
 33554687
100
AcDbHatch
 10
0.0
 20
0.0
 30
0.0
210
0.0
220
0.0
230
1.0
  2
SOLID
 70
     1
 71
     1
 91
        1
 92
        1
 93
        1
 72
     4
 94
        3
 73
     0
 74
     0
 95
       23
 96
       19
 40
0.0
 40
0.0
 40
0.0
 40
0.0
 40
1.0
 40
1.0
 40
1.0
 40
2.0
 40
2.0
 40
2.0
 40
3.0
 40
3.0
 40
3.0
 40
4.0
 40
4.0
 40
4.0
 40
5.0
 40
5.0
 40
5.0
 40
6.0
 40
6.0
 40
6.0
 40
6.0
 10
89.52299365879962
 20
-155.0800610072369
 10
89.52299365879962
 20
-155.0800610072369
 10
91.53958030109061
 20
-155.0800610072369
 10
91.53958030109061
 20
-155.0800610072369
 10
91.53958030109061
 20
-155.0800610072369
 10
91.53958030109061
 20
-169.0106491113931
 10
91.53958030109061
 20
-169.0106491113931
 10
91.53958030109061
 20
-169.0106491113931
 10
98.21514182285921
 20
-169.0106491113931
 10
98.21514182285921
 20
-169.0106491113931
 10
98.21514182285921
 20
-169.0106491113931
 10
98.21514182285921
 20
-170.7027077589736
 10
98.21514182285921
 20
-170.7027077589736
 10
98.21514182285921
 20
-170.7027077589736
 10
89.52299365879962
 20
-170.7027077589736
 10
89.52299365879962
 20
-170.7027077589736
 10
89.52299365879962
 20
-170.7027077589736
 10
89.52299365879962
 20
-155.0800610072369
 10
89.52299365879962
 20
-155.0800610072369
 97
        1
330
99
 75
     2
 76
     1
 98
        1
 10
0.0
 20
0.0
450
        0
451
        0
460
0.0
461
0.0
452
        0
462
0.0
453
        0
470

  0
SPLINE
  5
9B
330
95
100
AcDbEntity
  8
Layer 1
100
AcDbSpline
210
0.0
220
0.0
230
1.0
 70
     9
 71
     3
 72
    20
 73
    16
 74
     0
 42
0.0000000001
 43
0.0000000001
 40
0.0
 40
0.0
 40
0.0
 40
0.0
 40
1.0
 40
1.0
 40
1.0
 40
2.0
 40
2.0
 40
2.0
 40
3.0
 40
3.0
 40
3.0
 40
4.0
 40
4.0
 40
4.0
 40
5.0
 40
5.0
 40
5.0
 40
5.0
 10
106.3042260222258
 20
-164.9774758268111
 30
0.0
 10
104.0790388483029
 20
-164.9311392925346
 30
0.0
 10
101.5524058194207
 20
-165.3250859612729
 30
0.0
 10
101.5524058194207
 20
-167.5039366009191
 30
0.0
 10
101.5524058194207
 20
-168.8251307195124
 30
0.0
 10
102.4333167349991
 20
-169.4511045691823
 30
0.0
 10
103.4763193931585
 20
-169.4511045691823
 30
0.0
 10
104.9365231145816
 20
-169.4511045691823
 30
0.0
 10
105.8637705644366
 20
-168.5238571193274
 30
0.0
 10
106.1882985591471
 20
-167.5735275297212
 30
0.0
 10
106.2577172331749
 20
-167.3649269980893
 30
0.0
 10
106.3042260222258
 20
-167.133072071932
 30
0.0
 10
106.3042260222258
 20
-166.9244715403001
 30
0.0
 10
106.3042260222258
 20
-166.9244715403001
 30
0.0
 10
106.3042260222258
 20
-164.9774758268111
 30
0.0
 10
106.3042260222258
 20
-164.9774758268111
 30
0.0
  0
SPLINE
  5
9C
330
95
100
AcDbEntity
  8
Layer 1
100
AcDbSpline
210
0.0
220
0.0
230
1.0
 70
    11
 71
     3
 72
    47
 73
    43
 74
     0
 42
0.0000000001
 43
0.0000000001
 40
0.0
 40
0.0
 40
0.0
 40
0.0
 40
1.0
 40
1.0
 40
1.0
 40
2.0
 40
2.0
 40
2.0
 40
3.0
 40
3.0
 40
3.0
 40
4.0
 40
4.0
 40
4.0
 40
5.0
 40
5.0
 40
5.0
 40
6.0
 40
6.0
 40
6.0
 40
7.0
 40
7.0
 40
7.0
 40
8.0
 40
8.0
 40
8.0
 40
9.0
 40
9.0
 40
9.0
 40
10.0
 40
10.0
 40
10.0
 40
11.0
 40
11.0
 40
11.0
 40
12.0
 40
12.0
 40
12.0
 40
13.0
 40
13.0
 40
13.0
 40
14.0
 40
14.0
 40
14.0
 40
14.0
 10
106.6054996224109
 20
-170.7027077589736
 30
0.0
 10
106.6054996224109
 20
-170.7027077589736
 30
0.0
 10
106.4432356250556
 20
-169.2888405718271
 30
0.0
 10
106.4432356250556
 20
-169.2888405718271
 30
0.0
 10
106.4432356250556
 20
-169.2888405718271
 30
0.0
 10
106.3736446962536
 20
-169.2888405718271
 30
0.0
 10
106.3736446962536
 20
-169.2888405718271
 30
0.0
 10
105.747843101358
 20
-170.1695792326312
 30
0.0
 10
104.5425764458433
 20
-170.9576448248821
 30
0.0
 10
102.9431908668161
 20
-170.9576448248821
 30
0.0
 10
100.6716671586166
 20
-170.9576448248821
 30
0.0
 10
99.51273703737857
 20
-169.3582592458549
 30
0.0
 10
99.51273703737857
 20
-167.7357915270764
 30
0.0
 10
99.51273703737857
 20
-165.0238123610878
 30
0.0
 10
101.9232703484079
 20
-163.5403542451392
 30
0.0
 10
106.2577172331749
 20
-163.5636086396646
 30
0.0
 10
106.2577172331749
 20
-163.5636086396646
 30
0.0
 10
106.2577172331749
 20
-163.3317537135073
 30
0.0
 10
106.2577172331749
 20
-163.3317537135073
 30
0.0
 10
106.2577172331749
 20
-162.4046785184266
 30
0.0
 10
106.0027801672664
 20
-160.7357020105973
 30
0.0
 10
103.7080020645415
 20
-160.7357020105973
 30
0.0
 10
102.6649994063821
 20
-160.7357020105973
 30
0.0
 10
101.5756602139461
 20
-161.0602300053078
 30
0.0
 10
100.7875946216952
 20
-161.5701041371248
 30
0.0
 10
100.7875946216952
 20
-161.5701041371248
 30
0.0
 10
100.3238847693806
 20
-160.2258278787803
 30
0.0
 10
100.3238847693806
 20
-160.2258278787803
 30
0.0
 10
101.2511322192356
 20
-159.6231084236358
 30
0.0
 10
102.5955807323543
 20
-159.2291617548976
 30
0.0
 10
104.0094479195009
 20
-159.2291617548976
 30
0.0
 10
107.4399017489384
 20
-159.2291617548976
 30
0.0
 10
108.2743038754659
 20
-161.5701041371248
 30
0.0
 10
108.2743038754659
 20
-163.8185457055731
 30
0.0
 10
108.2743038754659
 20
-163.8185457055731
 30
0.0
 10
108.2743038754659
 20
-168.0139829875104
 30
0.0
 10
108.2743038754659
 20
-168.0139829875104
 30
0.0
 10
108.2743038754659
 20
-168.9873947168677
 30
0.0
 10
108.3206404097425
 20
-169.9377243064739
 30
0.0
 10
108.4598222673466
 20
-170.7027077589736
 30
0.0
 10
108.4598222673466
 20
-170.7027077589736
 30
0.0
 10
106.6054996224109
 20
-170.7027077589736
 30
0.0
 10
106.6054996224109
 20
-170.7027077589736
 30
0.0
  0
HATCH
  5
9D
330
95
100
AcDbEntity
  8
Layer 1
 62
     7
440
 33554687
100
AcDbHatch
 10
0.0
 20
0.0
 30
0.0
210
0.0
220
0.0
230
1.0
  2
SOLID
 70
     1
 71
     1
 91
        2
 92
        1
 93
        1
 72
     4
 94
        3
 73
     0
 74
     0
 95
       20
 96
       16
 40
0.0
 40
0.0
 40
0.0
 40
0.0
 40
1.0
 40
1.0
 40
1.0
 40
2.0
 40
2.0
 40
2.0
 40
3.0
 40
3.0
 40
3.0
 40
4.0
 40
4.0
 40
4.0
 40
5.0
 40
5.0
 40
5.0
 40
5.0
 10
106.3042260222258
 20
-164.9774758268111
 10
104.0790388483029
 20
-164.9311392925346
 10
101.5524058194207
 20
-165.3250859612729
 10
101.5524058194207
 20
-167.5039366009191
 10
101.5524058194207
 20
-168.8251307195124
 10
102.4333167349991
 20
-169.4511045691823
 10
103.4763193931585
 20
-169.4511045691823
 10
104.9365231145816
 20
-169.4511045691823
 10
105.8637705644366
 20
-168.5238571193274
 10
106.1882985591471
 20
-167.5735275297212
 10
106.2577172331749
 20
-167.3649269980893
 10
106.3042260222258
 20
-167.133072071932
 10
106.3042260222258
 20
-166.9244715403001
 10
106.3042260222258
 20
-166.9244715403001
 10
106.3042260222258
 20
-164.9774758268111
 10
106.3042260222258
 20
-164.9774758268111
 97
        1
330
9B
 92
        1
 93
        1
 72
     4
 94
        3
 73
     0
 74
     0
 95
       47
 96
       43
 40
0.0
 40
0.0
 40
0.0
 40
0.0
 40
1.0
 40
1.0
 40
1.0
 40
2.0
 40
2.0
 40
2.0
 40
3.0
 40
3.0
 40
3.0
 40
4.0
 40
4.0
 40
4.0
 40
5.0
 40
5.0
 40
5.0
 40
6.0
 40
6.0
 40
6.0
 40
7.0
 40
7.0
 40
7.0
 40
8.0
 40
8.0
 40
8.0
 40
9.0
 40
9.0
 40
9.0
 40
10.0
 40
10.0
 40
10.0
 40
11.0
 40
11.0
 40
11.0
 40
12.0
 40
12.0
 40
12.0
 40
13.0
 40
13.0
 40
13.0
 40
14.0
 40
14.0
 40
14.0
 40
14.0
 10
106.6054996224109
 20
-170.7027077589736
 10
106.6054996224109
 20
-170.7027077589736
 10
106.4432356250556
 20
-169.2888405718271
 10
106.4432356250556
 20
-169.2888405718271
 10
106.4432356250556
 20
-169.2888405718271
 10
106.3736446962536
 20
-169.2888405718271
 10
106.3736446962536
 20
-169.2888405718271
 10
105.747843101358
 20
-170.1695792326312
 10
104.5425764458433
 20
-170.9576448248821
 10
102.9431908668161
 20
-170.9576448248821
 10
100.6716671586166
 20
-170.9576448248821
 10
99.51273703737857
 20
-169.3582592458549
 10
99.51273703737857
 20
-167.7357915270764
 10
99.51273703737857
 20
-165.0238123610878
 10
101.9232703484079
 20
-163.5403542451392
 10
106.2577172331749
 20
-163.5636086396646
 10
106.2577172331749
 20
-163.5636086396646
 10
106.2577172331749
 20
-163.3317537135073
 10
106.2577172331749
 20
-163.3317537135073
 10
106.2577172331749
 20
-162.4046785184266
 10
106.0027801672664
 20
-160.7357020105973
 10
103.7080020645415
 20
-160.7357020105973
 10
102.6649994063821
 20
-160.7357020105973
 10
101.5756602139461
 20
-161.0602300053078
 10
100.7875946216952
 20
-161.5701041371248
 10
100.7875946216952
 20
-161.5701041371248
 10
100.3238847693806
 20
-160.2258278787803
 10
100.3238847693806
 20
-160.2258278787803
 10
101.2511322192356
 20
-159.6231084236358
 10
102.5955807323543
 20
-159.2291617548976
 10
104.0094479195009
 20
-159.2291617548976
 10
107.4399017489384
 20
-159.2291617548976
 10
108.2743038754659
 20
-161.5701041371248
 10
108.2743038754659
 20
-163.8185457055731
 10
108.2743038754659
 20
-163.8185457055731
 10
108.2743038754659
 20
-168.0139829875104
 10
108.2743038754659
 20
-168.0139829875104
 10
108.2743038754659
 20
-168.9873947168677
 10
108.3206404097425
 20
-169.9377243064739
 10
108.4598222673466
 20
-170.7027077589736
 10
108.4598222673466
 20
-170.7027077589736
 10
106.6054996224109
 20
-170.7027077589736
 10
106.6054996224109
 20
-170.7027077589736
 97
        1
330
9C
 75
     2
 76
     1
 98
        1
 10
0.0
 20
0.0
450
        0
451
        0
460
0.0
461
0.0
452
        0
462
0.0
453
        0
470

  0
SPLINE
  5
9E
330
95
100
AcDbEntity
  8
Layer 1
100
AcDbSpline
210
0.0
220
0.0
230
1.0
 70
     9
 71
     3
 72
    47
 73
    43
 74
     0
 42
0.0000000001
 43
0.0000000001
 40
0.0
 40
0.0
 40
0.0
 40
0.0
 40
1.0
 40
1.0
 40
1.0
 40
2.0
 40
2.0
 40
2.0
 40
3.0
 40
3.0
 40
3.0
 40
4.0
 40
4.0
 40
4.0
 40
5.0
 40
5.0
 40
5.0
 40
6.0
 40
6.0
 40
6.0
 40
7.0
 40
7.0
 40
7.0
 40
8.0
 40
8.0
 40
8.0
 40
9.0
 40
9.0
 40
9.0
 40
10.0
 40
10.0
 40
10.0
 40
11.0
 40
11.0
 40
11.0
 40
12.0
 40
12.0
 40
12.0
 40
13.0
 40
13.0
 40
13.0
 40
14.0
 40
14.0
 40
14.0
 40
14.0
 10
111.2875566416397
 20
-168.6165301878806
 30
0.0
 10
111.8902760967841
 20
-169.0106491113931
 30
0.0
 10
112.956533149469
 20
-169.4278501746569
 30
0.0
 10
113.9764536678772
 20
-169.4278501746569
 30
0.0
 10
115.4599117838258
 20
-169.4278501746569
 30
0.0
 10
116.1551320527492
 20
-168.6861211166826
 30
0.0
 10
116.1551320527492
 20
-167.7590459216019
 30
0.0
 10
116.1551320527492
 20
-166.7854619374703
 30
0.0
 10
115.5756669921302
 20
-166.2523334111279
 30
0.0
 10
114.0691267364304
 20
-165.6961227450343
 30
0.0
 10
112.0525400941394
 20
-164.9774758268111
 30
0.0
 10
111.1022105045333
 20
-163.8648822398497
 30
0.0
 10
111.1022105045333
 20
-162.520433726731
 30
0.0
 10
111.1022105045333
 20
-160.7126198708461
 30
0.0
 10
112.5624142259564
 20
-159.2291617548976
 30
0.0
 10
114.97311979176
 20
-159.2291617548976
 30
0.0
 10
116.1087955184726
 20
-159.2291617548976
 30
0.0
 10
117.1056338971296
 20
-159.5535174948338
 30
0.0
 10
117.7314354920253
 20
-159.924382023821
 30
0.0
 10
117.7314354920253
 20
-159.924382023821
 30
0.0
 10
117.221389105434
 20
-161.4078401397695
 30
0.0
 10
117.221389105434
 20
-161.4078401397695
 30
0.0
 10
116.7811059024191
 20
-161.1298209341098
 30
0.0
 10
115.9697859156427
 20
-160.7589564051227
 30
0.0
 10
114.9267832574834
 20
-160.7589564051227
 30
0.0
 10
113.7213443471944
 20
-160.7589564051227
 30
0.0
 10
113.0492062180222
 20
-161.4543489288204
 30
0.0
 10
113.0492062180222
 20
-162.2887510553479
 30
0.0
 10
113.0492062180222
 20
-163.2158262504287
 30
0.0
 10
113.7213443471944
 20
-163.6330273136924
 30
0.0
 10
115.1817203233918
 20
-164.1894102345603
 30
0.0
 10
117.1287160368808
 20
-164.9311392925346
 30
0.0
 10
118.1253821607636
 20
-165.9047232766662
 30
0.0
 10
118.1253821607636
 20
-167.5735275297212
 30
0.0
 10
118.1253821607636
 20
-169.5437776377356
 30
0.0
 10
116.5955875105384
 20
-170.9345626851309
 30
0.0
 10
113.9299448788263
 20
-170.9345626851309
 30
0.0
 10
112.7015960835605
 20
-170.9345626851309
 30
0.0
 10
111.5657481020736
 20
-170.6331168301716
 30
0.0
 10
110.7776825098227
 20
-170.1695792326312
 30
0.0
 10
110.7776825098227
 20
-170.1695792326312
 30
0.0
 10
111.2875566416397
 20
-168.6165301878806
 30
0.0
 10
111.2875566416397
 20
-168.6165301878806
 30
0.0
  0
HATCH
  5
9F
330
95
100
AcDbEntity
  8
Layer 1
 62
     7
440
 33554687
100
AcDbHatch
 10
0.0
 20
0.0
 30
0.0
210
0.0
220
0.0
230
1.0
  2
SOLID
 70
     1
 71
     1
 91
        1
 92
        1
 93
        1
 72
     4
 94
        3
 73
     0
 74
     0
 95
       47
 96
       43
 40
0.0
 40
0.0
 40
0.0
 40
0.0
 40
1.0
 40
1.0
 40
1.0
 40
2.0
 40
2.0
 40
2.0
 40
3.0
 40
3.0
 40
3.0
 40
4.0
 40
4.0
 40
4.0
 40
5.0
 40
5.0
 40
5.0
 40
6.0
 40
6.0
 40
6.0
 40
7.0
 40
7.0
 40
7.0
 40
8.0
 40
8.0
 40
8.0
 40
9.0
 40
9.0
 40
9.0
 40
10.0
 40
10.0
 40
10.0
 40
11.0
 40
11.0
 40
11.0
 40
12.0
 40
12.0
 40
12.0
 40
13.0
 40
13.0
 40
13.0
 40
14.0
 40
14.0
 40
14.0
 40
14.0
 10
111.2875566416397
 20
-168.6165301878806
 10
111.8902760967841
 20
-169.0106491113931
 10
112.956533149469
 20
-169.4278501746569
 10
113.9764536678772
 20
-169.4278501746569
 10
115.4599117838258
 20
-169.4278501746569
 10
116.1551320527492
 20
-168.6861211166826
 10
116.1551320527492
 20
-167.7590459216019
 10
116.1551320527492
 20
-166.7854619374703
 10
115.5756669921302
 20
-166.2523334111279
 10
114.0691267364304
 20
-165.6961227450343
 10
112.0525400941394
 20
-164.9774758268111
 10
111.1022105045333
 20
-163.8648822398497
 10
111.1022105045333
 20
-162.520433726731
 10
111.1022105045333
 20
-160.7126198708461
 10
112.5624142259564
 20
-159.2291617548976
 10
114.97311979176
 20
-159.2291617548976
 10
116.1087955184726
 20
-159.2291617548976
 10
117.1056338971296
 20
-159.5535174948338
 10
117.7314354920253
 20
-159.924382023821
 10
117.7314354920253
 20
-159.924382023821
 10
117.221389105434
 20
-161.4078401397695
 10
117.221389105434
 20
-161.4078401397695
 10
116.7811059024191
 20
-161.1298209341098
 10
115.9697859156427
 20
-160.7589564051227
 10
114.9267832574834
 20
-160.7589564051227
 10
113.7213443471944
 20
-160.7589564051227
 10
113.0492062180222
 20
-161.4543489288204
 10
113.0492062180222
 20
-162.2887510553479
 10
113.0492062180222
 20
-163.2158262504287
 10
113.7213443471944
 20
-163.6330273136924
 10
115.1817203233918
 20
-164.1894102345603
 10
117.1287160368808
 20
-164.9311392925346
 10
118.1253821607636
 20
-165.9047232766662
 10
118.1253821607636
 20
-167.5735275297212
 10
118.1253821607636
 20
-169.5437776377356
 10
116.5955875105384
 20
-170.9345626851309
 10
113.9299448788263
 20
-170.9345626851309
 10
112.7015960835605
 20
-170.9345626851309
 10
111.5657481020736
 20
-170.6331168301716
 10
110.7776825098227
 20
-170.1695792326312
 10
110.7776825098227
 20
-170.1695792326312
 10
111.2875566416397
 20
-168.6165301878806
 10
111.2875566416397
 20
-168.6165301878806
 97
        1
330
9E
 75
     2
 76
     1
 98
        1
 10
0.0
 20
0.0
450
        0
451
        0
460
0.0
461
0.0
452
        0
462
0.0
453
        0
470

  0
SPLINE
  5
A0
330
95
100
AcDbEntity
  8
Layer 1
100
AcDbSpline
210
0.0
220
0.0
230
1.0
 70
     9
 71
     3
 72
    14
 73
    10
 74
     0
 42
0.0000000001
 43
0.0000000001
 40
0.0
 40
0.0
 40
0.0
 40
0.0
 40
1.0
 40
1.0
 40
1.0
 40
2.0
 40
2.0
 40
2.0
 40
3.0
 40
3.0
 40
3.0
 40
3.0
 10
127.8605329829826
 20
-164.0038918426795
 30
0.0
 10
127.8836151227338
 20
-162.7059521186117
 30
0.0
 10
127.3274044566402
 20
-160.6893654763207
 30
0.0
 10
125.0326263539152
 20
-160.6893654763207
 30
0.0
 10
122.9697031773476
 20
-160.6893654763207
 30
0.0
 10
122.0657101220181
 20
-162.590024655533
 30
0.0
 10
121.9034461246628
 20
-164.0038918426795
 30
0.0
 10
121.9034461246628
 20
-164.0038918426795
 30
0.0
 10
127.8605329829826
 20
-164.0038918426795
 30
0.0
 10
127.8605329829826
 20
-164.0038918426795
 30
0.0
  0
SPLINE
  5
A1
330
95
100
AcDbEntity
  8
Layer 1
100
AcDbSpline
210
0.0
220
0.0
230
1.0
 70
     9
 71
     3
 72
    32
 73
    28
 74
     0
 42
0.0000000001
 43
0.0000000001
 40
0.0
 40
0.0
 40
0.0
 40
0.0
 40
1.0
 40
1.0
 40
1.0
 40
2.0
 40
2.0
 40
2.0
 40
3.0
 40
3.0
 40
3.0
 40
4.0
 40
4.0
 40
4.0
 40
5.0
 40
5.0
 40
5.0
 40
6.0
 40
6.0
 40
6.0
 40
7.0
 40
7.0
 40
7.0
 40
8.0
 40
8.0
 40
8.0
 40
9.0
 40
9.0
 40
9.0
 40
9.0
 10
121.8803639849116
 20
-165.4642678188769
 30
0.0
 10
121.9267005191883
 20
-168.2225835191422
 30
0.0
 10
123.6881778407965
 20
-169.3582592458549
 30
0.0
 10
125.7280188776129
 20
-169.3582592458549
 30
0.0
 10
127.1882225990361
 20
-169.3582592458549
 30
0.0
 10
128.0691335146144
 20
-169.1033221799464
 30
0.0
 10
128.8339447123399
 20
-168.7787941852358
 30
0.0
 10
128.8339447123399
 20
-168.7787941852358
 30
0.0
 10
129.1817271015759
 20
-170.2391701614332
 30
0.0
 10
129.1817271015759
 20
-170.2391701614332
 30
0.0
 10
128.4630801833528
 20
-170.5636981561438
 30
0.0
 10
127.2347313880869
 20
-170.9345626851309
 30
0.0
 10
125.449827417179
 20
-170.9345626851309
 30
0.0
 10
121.996119193216
 20
-170.9345626851309
 30
0.0
 10
119.9331960166484
 20
-168.6630389769314
 30
0.0
 10
119.9331960166484
 20
-165.2787494269963
 30
0.0
 10
119.9331960166484
 20
-161.8946321318353
 30
0.0
 10
121.9267005191883
 20
-159.2291617548976
 30
0.0
 10
125.1948903512705
 20
-159.2291617548976
 30
0.0
 10
128.8571991068653
 20
-159.2291617548976
 30
0.0
 10
129.8307830909969
 20
-162.4510150527032
 30
0.0
 10
129.8307830909969
 20
-164.5139382292708
 30
0.0
 10
129.8307830909969
 20
-164.9311392925346
 30
0.0
 10
129.7842743019461
 20
-165.2556672872451
 30
0.0
 10
129.7611921621949
 20
-165.4642678188769
 30
0.0
 10
129.7611921621949
 20
-165.4642678188769
 30
0.0
 10
121.8803639849116
 20
-165.4642678188769
 30
0.0
 10
121.8803639849116
 20
-165.4642678188769
 30
0.0
  0
HATCH
  5
A2
330
95
100
AcDbEntity
  8
Layer 1
 62
     7
440
 33554687
100
AcDbHatch
 10
0.0
 20
0.0
 30
0.0
210
0.0
220
0.0
230
1.0
  2
SOLID
 70
     1
 71
     1
 91
        2
 92
        1
 93
        1
 72
     4
 94
        3
 73
     0
 74
     0
 95
       14
 96
       10
 40
0.0
 40
0.0
 40
0.0
 40
0.0
 40
1.0
 40
1.0
 40
1.0
 40
2.0
 40
2.0
 40
2.0
 40
3.0
 40
3.0
 40
3.0
 40
3.0
 10
127.8605329829826
 20
-164.0038918426795
 10
127.8836151227338
 20
-162.7059521186117
 10
127.3274044566402
 20
-160.6893654763207
 10
125.0326263539152
 20
-160.6893654763207
 10
122.9697031773476
 20
-160.6893654763207
 10
122.0657101220181
 20
-162.590024655533
 10
121.9034461246628
 20
-164.0038918426795
 10
121.9034461246628
 20
-164.0038918426795
 10
127.8605329829826
 20
-164.0038918426795
 10
127.8605329829826
 20
-164.0038918426795
 97
        1
330
A0
 92
        1
 93
        1
 72
     4
 94
        3
 73
     0
 74
     0
 95
       32
 96
       28
 40
0.0
 40
0.0
 40
0.0
 40
0.0
 40
1.0
 40
1.0
 40
1.0
 40
2.0
 40
2.0
 40
2.0
 40
3.0
 40
3.0
 40
3.0
 40
4.0
 40
4.0
 40
4.0
 40
5.0
 40
5.0
 40
5.0
 40
6.0
 40
6.0
 40
6.0
 40
7.0
 40
7.0
 40
7.0
 40
8.0
 40
8.0
 40
8.0
 40
9.0
 40
9.0
 40
9.0
 40
9.0
 10
121.8803639849116
 20
-165.4642678188769
 10
121.9267005191883
 20
-168.2225835191422
 10
123.6881778407965
 20
-169.3582592458549
 10
125.7280188776129
 20
-169.3582592458549
 10
127.1882225990361
 20
-169.3582592458549
 10
128.0691335146144
 20
-169.1033221799464
 10
128.8339447123399
 20
-168.7787941852358
 10
128.8339447123399
 20
-168.7787941852358
 10
129.1817271015759
 20
-170.2391701614332
 10
129.1817271015759
 20
-170.2391701614332
 10
128.4630801833528
 20
-170.5636981561438
 10
127.2347313880869
 20
-170.9345626851309
 10
125.449827417179
 20
-170.9345626851309
 10
121.996119193216
 20
-170.9345626851309
 10
119.9331960166484
 20
-168.6630389769314
 10
119.9331960166484
 20
-165.2787494269963
 10
119.9331960166484
 20
-161.8946321318353
 10
121.9267005191883
 20
-159.2291617548976
 10
125.1948903512705
 20
-159.2291617548976
 10
128.8571991068653
 20
-159.2291617548976
 10
129.8307830909969
 20
-162.4510150527032
 10
129.8307830909969
 20
-164.5139382292708
 10
129.8307830909969
 20
-164.9311392925346
 10
129.7842743019461
 20
-165.2556672872451
 10
129.7611921621949
 20
-165.4642678188769
 10
129.7611921621949
 20
-165.4642678188769
 10
121.8803639849116
 20
-165.4642678188769
 10
121.8803639849116
 20
-165.4642678188769
 97
        1
330
A1
 75
     2
 76
     1
 98
        1
 10
0.0
 20
0.0
450
        0
451
        0
460
0.0
461
0.0
452
        0
462
0.0
453
        0
470

  0
SPLINE
  5
A3
330
95
100
AcDbEntity
  8
Layer 1
100
AcDbSpline
210
0.0
220
0.0
230
1.0
 70
     9
 71
     3
 72
    44
 73
    40
 74
     0
 42
0.0000000001
 43
0.0000000001
 40
0.0
 40
0.0
 40
0.0
 40
0.0
 40
1.0
 40
1.0
 40
1.0
 40
2.0
 40
2.0
 40
2.0
 40
3.0
 40
3.0
 40
3.0
 40
4.0
 40
4.0
 40
4.0
 40
5.0
 40
5.0
 40
5.0
 40
6.0
 40
6.0
 40
6.0
 40
7.0
 40
7.0
 40
7.0
 40
8.0
 40
8.0
 40
8.0
 40
9.0
 40
9.0
 40
9.0
 40
10.0
 40
10.0
 40
10.0
 40
11.0
 40
11.0
 40
11.0
 40
12.0
 40
12.0
 40
12.0
 40
13.0
 40
13.0
 40
13.0
 40
13.0
 10
132.3570716103307
 20
-162.9841435790456
 30
0.0
 10
132.3570716103307
 20
-161.6629494604523
 30
0.0
 10
132.3339894705795
 20
-160.5271014789654
 30
0.0
 10
132.2643985417774
 20
-159.484098820806
 30
0.0
 10
132.2643985417774
 20
-159.484098820806
 30
0.0
 10
134.0491302579111
 20
-159.484098820806
 30
0.0
 10
134.0491302579111
 20
-159.484098820806
 30
0.0
 10
134.0491302579111
 20
-159.484098820806
 30
0.0
 10
134.1187211867131
 20
-161.6860316002034
 30
0.0
 10
134.1187211867131
 20
-161.6860316002034
 30
0.0
 10
134.1187211867131
 20
-161.6860316002034
 30
0.0
 10
134.2113942552664
 20
-161.6860316002034
 30
0.0
 10
134.2113942552664
 20
-161.6860316002034
 30
0.0
 10
134.7212683870834
 20
-160.1794913445037
 30
0.0
 10
135.9497894371235
 20
-159.2291617548976
 30
0.0
 10
137.3173200899934
 20
-159.2291617548976
 30
0.0
 10
137.5491750161507
 20
-159.2291617548976
 30
0.0
 10
137.7114390135059
 20
-159.2522438946487
 30
0.0
 10
137.8967851506124
 20
-159.2985804289253
 30
0.0
 10
137.8967851506124
 20
-159.2985804289253
 30
0.0
 10
137.8967851506124
 20
-161.2224940026631
 30
0.0
 10
137.8967851506124
 20
-161.2224940026631
 30
0.0
 10
137.6881846189805
 20
-161.1761574683865
 30
0.0
 10
137.4795840873486
 20
-161.152903073861
 30
0.0
 10
137.201564881689
 20
-161.152903073861
 30
0.0
 10
135.764443300017
 20
-161.152903073861
 30
0.0
 10
134.7445227816088
 20
-162.2424145210713
 30
0.0
 10
134.4663313211749
 20
-163.7722091712965
 30
0.0
 10
134.4199947868983
 20
-164.0504006317304
 30
0.0
 10
134.3736582526217
 20
-164.3747563716667
 30
0.0
 10
134.3736582526217
 20
-164.7225387609027
 30
0.0
 10
134.3736582526217
 20
-164.7225387609027
 30
0.0
 10
134.3736582526217
 20
-170.7027077589736
 30
0.0
 10
134.3736582526217
 20
-170.7027077589736
 30
0.0
 10
134.3736582526217
 20
-170.7027077589736
 30
0.0
 10
132.3570716103307
 20
-170.7027077589736
 30
0.0
 10
132.3570716103307
 20
-170.7027077589736
 30
0.0
 10
132.3570716103307
 20
-170.7027077589736
 30
0.0
 10
132.3570716103307
 20
-162.9841435790456
 30
0.0
 10
132.3570716103307
 20
-162.9841435790456
 30
0.0
  0
HATCH
  5
A4
330
95
100
AcDbEntity
  8
Layer 1
 62
     7
440
 33554687
100
AcDbHatch
 10
0.0
 20
0.0
 30
0.0
210
0.0
220
0.0
230
1.0
  2
SOLID
 70
     1
 71
     1
 91
        1
 92
        1
 93
        1
 72
     4
 94
        3
 73
     0
 74
     0
 95
       44
 96
       40
 40
0.0
 40
0.0
 40
0.0
 40
0.0
 40
1.0
 40
1.0
 40
1.0
 40
2.0
 40
2.0
 40
2.0
 40
3.0
 40
3.0
 40
3.0
 40
4.0
 40
4.0
 40
4.0
 40
5.0
 40
5.0
 40
5.0
 40
6.0
 40
6.0
 40
6.0
 40
7.0
 40
7.0
 40
7.0
 40
8.0
 40
8.0
 40
8.0
 40
9.0
 40
9.0
 40
9.0
 40
10.0
 40
10.0
 40
10.0
 40
11.0
 40
11.0
 40
11.0
 40
12.0
 40
12.0
 40
12.0
 40
13.0
 40
13.0
 40
13.0
 40
13.0
 10
132.3570716103307
 20
-162.9841435790456
 10
132.3570716103307
 20
-161.6629494604523
 10
132.3339894705795
 20
-160.5271014789654
 10
132.2643985417774
 20
-159.484098820806
 10
132.2643985417774
 20
-159.484098820806
 10
134.0491302579111
 20
-159.484098820806
 10
134.0491302579111
 20
-159.484098820806
 10
134.0491302579111
 20
-159.484098820806
 10
134.1187211867131
 20
-161.6860316002034
 10
134.1187211867131
 20
-161.6860316002034
 10
134.1187211867131
 20
-161.6860316002034
 10
134.2113942552664
 20
-161.6860316002034
 10
134.2113942552664
 20
-161.6860316002034
 10
134.7212683870834
 20
-160.1794913445037
 10
135.9497894371235
 20
-159.2291617548976
 10
137.3173200899934
 20
-159.2291617548976
 10
137.5491750161507
 20
-159.2291617548976
 10
137.7114390135059
 20
-159.2522438946487
 10
137.8967851506124
 20
-159.2985804289253
 10
137.8967851506124
 20
-159.2985804289253
 10
137.8967851506124
 20
-161.2224940026631
 10
137.8967851506124
 20
-161.2224940026631
 10
137.6881846189805
 20
-161.1761574683865
 10
137.4795840873486
 20
-161.152903073861
 10
137.201564881689
 20
-161.152903073861
 10
135.764443300017
 20
-161.152903073861
 10
134.7445227816088
 20
-162.2424145210713
 10
134.4663313211749
 20
-163.7722091712965
 10
134.4199947868983
 20
-164.0504006317304
 10
134.3736582526217
 20
-164.3747563716667
 10
134.3736582526217
 20
-164.7225387609027
 10
134.3736582526217
 20
-164.7225387609027
 10
134.3736582526217
 20
-170.7027077589736
 10
134.3736582526217
 20
-170.7027077589736
 10
134.3736582526217
 20
-170.7027077589736
 10
132.3570716103307
 20
-170.7027077589736
 10
132.3570716103307
 20
-170.7027077589736
 10
132.3570716103307
 20
-170.7027077589736
 10
132.3570716103307
 20
-162.9841435790456
 10
132.3570716103307
 20
-162.9841435790456
 97
        1
330
A3
 75
     2
 76
     1
 98
        1
 10
0.0
 20
0.0
450
        0
451
        0
460
0.0
461
0.0
452
        0
462
0.0
453
        0
470

  0
SPLINE
  5
A5
330
95
100
AcDbEntity
  8
Layer 1
100
AcDbSpline
210
0.0
220
0.0
230
1.0
 70
     9
 71
     3
 72
    35
 73
    31
 74
     0
 42
0.0000000001
 43
0.0000000001
 40
0.0
 40
0.0
 40
0.0
 40
0.0
 40
1.0
 40
1.0
 40
1.0
 40
2.0
 40
2.0
 40
2.0
 40
3.0
 40
3.0
 40
3.0
 40
4.0
 40
4.0
 40
4.0
 40
5.0
 40
5.0
 40
5.0
 40
6.0
 40
6.0
 40
6.0
 40
7.0
 40
7.0
 40
7.0
 40
8.0
 40
8.0
 40
8.0
 40
9.0
 40
9.0
 40
9.0
 40
10.0
 40
10.0
 40
10.0
 40
10.0
 10
152.8469492636283
 20
-170.2855066957098
 30
0.0
 10
152.3138207372859
 20
-170.5636981561438
 30
0.0
 10
151.1318084762967
 20
-170.9345626851309
 30
0.0
 10
149.6250959658227
 20
-170.9345626851309
 30
0.0
 10
146.2409786706617
 20
-170.9345626851309
 30
0.0
 10
144.0388736364901
 20
-168.639784582406
 30
0.0
 10
144.0388736364901
 20
-165.2093307529685
 30
0.0
 10
144.0388736364901
 20
-161.7556225290055
 30
0.0
 10
146.403242668017
 20
-159.2522438946487
 30
0.0
 10
150.0655514236119
 20
-159.2522438946487
 30
0.0
 10
151.2708180791265
 20
-159.2522438946487
 30
0.0
 10
152.3370751318113
 20
-159.5535174948338
 30
0.0
 10
152.8932857979049
 20
-159.8317089552677
 30
0.0
 10
152.8932857979049
 20
-159.8317089552677
 30
0.0
 10
152.4297482003646
 20
-161.4078401397695
 30
0.0
 10
152.4297482003646
 20
-161.4078401397695
 30
0.0
 10
151.9429562082988
 20
-161.1298209341098
 30
0.0
 10
151.1781450105733
 20
-160.8747116134271
 30
0.0
 10
150.0655514236119
 20
-160.8747116134271
 30
0.0
 10
147.492581860453
 20
-160.8747116134271
 30
0.0
 10
146.1017968130577
 20
-162.7755430474137
 30
0.0
 10
146.1017968130577
 20
-165.116485429641
 30
0.0
 10
146.1017968130577
 20
-167.712537132551
 30
0.0
 10
147.7707733208869
 20
-169.3119227115782
 30
0.0
 10
149.9959604948098
 20
-169.3119227115782
 30
0.0
 10
151.1548906160478
 20
-169.3119227115782
 30
0.0
 10
151.9198740685476
 20
-169.0106491113931
 30
0.0
 10
152.4993391291666
 20
-168.7557120454846
 30
0.0
 10
152.4993391291666
 20
-168.7557120454846
 30
0.0
 10
152.8469492636283
 20
-170.2855066957098
 30
0.0
 10
152.8469492636283
 20
-170.2855066957098
 30
0.0
  0
HATCH
  5
A6
330
95
100
AcDbEntity
  8
Layer 1
 62
     7
440
 33554687
100
AcDbHatch
 10
0.0
 20
0.0
 30
0.0
210
0.0
220
0.0
230
1.0
  2
SOLID
 70
     1
 71
     1
 91
        1
 92
        1
 93
        1
 72
     4
 94
        3
 73
     0
 74
     0
 95
       35
 96
       31
 40
0.0
 40
0.0
 40
0.0
 40
0.0
 40
1.0
 40
1.0
 40
1.0
 40
2.0
 40
2.0
 40
2.0
 40
3.0
 40
3.0
 40
3.0
 40
4.0
 40
4.0
 40
4.0
 40
5.0
 40
5.0
 40
5.0
 40
6.0
 40
6.0
 40
6.0
 40
7.0
 40
7.0
 40
7.0
 40
8.0
 40
8.0
 40
8.0
 40
9.0
 40
9.0
 40
9.0
 40
10.0
 40
10.0
 40
10.0
 40
10.0
 10
152.8469492636283
 20
-170.2855066957098
 10
152.3138207372859
 20
-170.5636981561438
 10
151.1318084762967
 20
-170.9345626851309
 10
149.6250959658227
 20
-170.9345626851309
 10
146.2409786706617
 20
-170.9345626851309
 10
144.0388736364901
 20
-168.639784582406
 10
144.0388736364901
 20
-165.2093307529685
 10
144.0388736364901
 20
-161.7556225290055
 10
146.403242668017
 20
-159.2522438946487
 10
150.0655514236119
 20
-159.2522438946487
 10
151.2708180791265
 20
-159.2522438946487
 10
152.3370751318113
 20
-159.5535174948338
 10
152.8932857979049
 20
-159.8317089552677
 10
152.8932857979049
 20
-159.8317089552677
 10
152.4297482003646
 20
-161.4078401397695
 10
152.4297482003646
 20
-161.4078401397695
 10
151.9429562082988
 20
-161.1298209341098
 10
151.1781450105733
 20
-160.8747116134271
 10
150.0655514236119
 20
-160.8747116134271
 10
147.492581860453
 20
-160.8747116134271
 10
146.1017968130577
 20
-162.7755430474137
 10
146.1017968130577
 20
-165.116485429641
 10
146.1017968130577
 20
-167.712537132551
 10
147.7707733208869
 20
-169.3119227115782
 10
149.9959604948098
 20
-169.3119227115782
 10
151.1548906160478
 20
-169.3119227115782
 10
151.9198740685476
 20
-169.0106491113931
 10
152.4993391291666
 20
-168.7557120454846
 10
152.4993391291666
 20
-168.7557120454846
 10
152.8469492636283
 20
-170.2855066957098
 10
152.8469492636283
 20
-170.2855066957098
 97
        1
330
A5
 75
     2
 76
     1
 98
        1
 10
0.0
 20
0.0
450
        0
451
        0
460
0.0
461
0.0
452
        0
462
0.0
453
        0
470

  0
SPLINE
  5
A7
330
95
100
AcDbEntity
  8
Layer 1
100
AcDbSpline
210
0.0
220
0.0
230
1.0
 70
     9
 71
     3
 72
    50
 73
    46
 74
     0
 42
0.0000000001
 43
0.0000000001
 40
0.0
 40
0.0
 40
0.0
 40
0.0
 40
1.0
 40
1.0
 40
1.0
 40
2.0
 40
2.0
 40
2.0
 40
3.0
 40
3.0
 40
3.0
 40
4.0
 40
4.0
 40
4.0
 40
5.0
 40
5.0
 40
5.0
 40
6.0
 40
6.0
 40
6.0
 40
7.0
 40
7.0
 40
7.0
 40
8.0
 40
8.0
 40
8.0
 40
9.0
 40
9.0
 40
9.0
 40
10.0
 40
10.0
 40
10.0
 40
11.0
 40
11.0
 40
11.0
 40
12.0
 40
12.0
 40
12.0
 40
13.0
 40
13.0
 40
13.0
 40
14.0
 40
14.0
 40
14.0
 40
15.0
 40
15.0
 40
15.0
 40
15.0
 10
164.6219411226637
 20
-167.6431184585232
 30
0.0
 10
164.6219411226637
 20
-168.8020485797613
 30
0.0
 10
164.6450232624149
 20
-169.8219690981695
 30
0.0
 10
164.714614191217
 20
-170.7027077589736
 30
0.0
 10
164.714614191217
 20
-170.7027077589736
 30
0.0
 10
162.9066280805579
 20
-170.7027077589736
 30
0.0
 10
162.9066280805579
 20
-170.7027077589736
 30
0.0
 10
162.9066280805579
 20
-170.7027077589736
 30
0.0
 10
162.7907006174792
 20
-168.8716395085633
 30
0.0
 10
162.7907006174792
 20
-168.8716395085633
 30
0.0
 10
162.7907006174792
 20
-168.8716395085633
 30
0.0
 10
162.7443640832026
 20
-168.8716395085633
 30
0.0
 10
162.7443640832026
 20
-168.8716395085633
 30
0.0
 10
162.2112355568602
 20
-169.7754603091186
 30
0.0
 10
161.0292232958709
 20
-170.9576448248821
 30
0.0
 10
159.0357187933312
 20
-170.9576448248821
 30
0.0
 10
157.2742414717229
 20
-170.9576448248821
 30
0.0
 10
155.1648095061044
 20
-169.9842330955247
 30
0.0
 10
155.1648095061044
 20
-166.043732879496
 30
0.0
 10
155.1648095061044
 20
-166.043732879496
 30
0.0
 10
155.1648095061044
 20
-159.484098820806
 30
0.0
 10
155.1648095061044
 20
-159.484098820806
 30
0.0
 10
155.1648095061044
 20
-159.484098820806
 30
0.0
 10
157.2046505429208
 20
-159.484098820806
 30
0.0
 10
157.2046505429208
 20
-159.484098820806
 30
0.0
 10
157.2046505429208
 20
-159.484098820806
 30
0.0
 10
157.2046505429208
 20
-165.6961227450343
 30
0.0
 10
157.2046505429208
 20
-165.6961227450343
 30
0.0
 10
157.2046505429208
 20
-167.8284645956297
 30
0.0
 10
157.8537065323419
 20
-169.2655861773016
 30
0.0
 10
159.7080291772776
 20
-169.2655861773016
 30
0.0
 10
161.0755598301476
 20
-169.2655861773016
 30
0.0
 10
162.0258894197537
 20
-168.3152565876955
 30
0.0
 10
162.3967539487409
 20
-167.4112635323659
 30
0.0
 10
162.5126814118195
 20
-167.1099899321808
 30
0.0
 10
162.5821000858473
 20
-166.7391254031937
 30
0.0
 10
162.5821000858473
 20
-166.3682608742065
 30
0.0
 10
162.5821000858473
 20
-166.3682608742065
 30
0.0
 10
162.5821000858473
 20
-159.484098820806
 30
0.0
 10
162.5821000858473
 20
-159.484098820806
 30
0.0
 10
162.5821000858473
 20
-159.484098820806
 30
0.0
 10
164.6219411226637
 20
-159.484098820806
 30
0.0
 10
164.6219411226637
 20
-159.484098820806
 30
0.0
 10
164.6219411226637
 20
-159.484098820806
 30
0.0
 10
164.6219411226637
 20
-167.6431184585232
 30
0.0
 10
164.6219411226637
 20
-167.6431184585232
 30
0.0
  0
HATCH
  5
A8
330
95
100
AcDbEntity
  8
Layer 1
 62
     7
440
 33554687
100
AcDbHatch
 10
0.0
 20
0.0
 30
0.0
210
0.0
220
0.0
230
1.0
  2
SOLID
 70
     1
 71
     1
 91
        1
 92
        1
 93
        1
 72
     4
 94
        3
 73
     0
 74
     0
 95
       50
 96
       46
 40
0.0
 40
0.0
 40
0.0
 40
0.0
 40
1.0
 40
1.0
 40
1.0
 40
2.0
 40
2.0
 40
2.0
 40
3.0
 40
3.0
 40
3.0
 40
4.0
 40
4.0
 40
4.0
 40
5.0
 40
5.0
 40
5.0
 40
6.0
 40
6.0
 40
6.0
 40
7.0
 40
7.0
 40
7.0
 40
8.0
 40
8.0
 40
8.0
 40
9.0
 40
9.0
 40
9.0
 40
10.0
 40
10.0
 40
10.0
 40
11.0
 40
11.0
 40
11.0
 40
12.0
 40
12.0
 40
12.0
 40
13.0
 40
13.0
 40
13.0
 40
14.0
 40
14.0
 40
14.0
 40
15.0
 40
15.0
 40
15.0
 40
15.0
 10
164.6219411226637
 20
-167.6431184585232
 10
164.6219411226637
 20
-168.8020485797613
 10
164.6450232624149
 20
-169.8219690981695
 10
164.714614191217
 20
-170.7027077589736
 10
164.714614191217
 20
-170.7027077589736
 10
162.9066280805579
 20
-170.7027077589736
 10
162.9066280805579
 20
-170.7027077589736
 10
162.9066280805579
 20
-170.7027077589736
 10
162.7907006174792
 20
-168.8716395085633
 10
162.7907006174792
 20
-168.8716395085633
 10
162.7907006174792
 20
-168.8716395085633
 10
162.7443640832026
 20
-168.8716395085633
 10
162.7443640832026
 20
-168.8716395085633
 10
162.2112355568602
 20
-169.7754603091186
 10
161.0292232958709
 20
-170.9576448248821
 10
159.0357187933312
 20
-170.9576448248821
 10
157.2742414717229
 20
-170.9576448248821
 10
155.1648095061044
 20
-169.9842330955247
 10
155.1648095061044
 20
-166.043732879496
 10
155.1648095061044
 20
-166.043732879496
 10
155.1648095061044
 20
-159.484098820806
 10
155.1648095061044
 20
-159.484098820806
 10
155.1648095061044
 20
-159.484098820806
 10
157.2046505429208
 20
-159.484098820806
 10
157.2046505429208
 20
-159.484098820806
 10
157.2046505429208
 20
-159.484098820806
 10
157.2046505429208
 20
-165.6961227450343
 10
157.2046505429208
 20
-165.6961227450343
 10
157.2046505429208
 20
-167.8284645956297
 10
157.8537065323419
 20
-169.2655861773016
 10
159.7080291772776
 20
-169.2655861773016
 10
161.0755598301476
 20
-169.2655861773016
 10
162.0258894197537
 20
-168.3152565876955
 10
162.3967539487409
 20
-167.4112635323659
 10
162.5126814118195
 20
-167.1099899321808
 10
162.5821000858473
 20
-166.7391254031937
 10
162.5821000858473
 20
-166.3682608742065
 10
162.5821000858473
 20
-166.3682608742065
 10
162.5821000858473
 20
-159.484098820806
 10
162.5821000858473
 20
-159.484098820806
 10
162.5821000858473
 20
-159.484098820806
 10
164.6219411226637
 20
-159.484098820806
 10
164.6219411226637
 20
-159.484098820806
 10
164.6219411226637
 20
-159.484098820806
 10
164.6219411226637
 20
-167.6431184585232
 10
164.6219411226637
 20
-167.6431184585232
 97
        1
330
A7
 75
     2
 76
     1
 98
        1
 10
0.0
 20
0.0
450
        0
451
        0
460
0.0
461
0.0
452
        0
462
0.0
453
        0
470

  0
SPLINE
  5
A9
330
95
100
AcDbEntity
  8
Layer 1
100
AcDbSpline
210
0.0
220
0.0
230
1.0
 70
    11
 71
     3
 72
    56
 73
    52
 74
     0
 42
0.0000000001
 43
0.0000000001
 40
0.0
 40
0.0
 40
0.0
 40
0.0
 40
1.0
 40
1.0
 40
1.0
 40
2.0
 40
2.0
 40
2.0
 40
3.0
 40
3.0
 40
3.0
 40
4.0
 40
4.0
 40
4.0
 40
5.0
 40
5.0
 40
5.0
 40
6.0
 40
6.0
 40
6.0
 40
7.0
 40
7.0
 40
7.0
 40
8.0
 40
8.0
 40
8.0
 40
9.0
 40
9.0
 40
9.0
 40
10.0
 40
10.0
 40
10.0
 40
11.0
 40
11.0
 40
11.0
 40
12.0
 40
12.0
 40
12.0
 40
13.0
 40
13.0
 40
13.0
 40
14.0
 40
14.0
 40
14.0
 40
15.0
 40
15.0
 40
15.0
 40
16.0
 40
16.0
 40
16.0
 40
17.0
 40
17.0
 40
17.0
 40
17.0
 10
170.4629282631306
 20
-156.2622455230004
 30
0.0
 10
170.4629282631306
 20
-156.2622455230004
 30
0.0
 10
170.4629282631306
 20
-159.484098820806
 30
0.0
 10
170.4629282631306
 20
-159.484098820806
 30
0.0
 10
170.4629282631306
 20
-159.484098820806
 30
0.0
 10
173.3835079607511
 20
-159.484098820806
 30
0.0
 10
173.3835079607511
 20
-159.484098820806
 30
0.0
 10
173.3835079607511
 20
-159.484098820806
 30
0.0
 10
173.3835079607511
 20
-161.0369756107824
 30
0.0
 10
173.3835079607511
 20
-161.0369756107824
 30
0.0
 10
173.3835079607511
 20
-161.0369756107824
 30
0.0
 10
170.4629282631306
 20
-161.0369756107824
 30
0.0
 10
170.4629282631306
 20
-161.0369756107824
 30
0.0
 10
170.4629282631306
 20
-161.0369756107824
 30
0.0
 10
170.4629282631306
 20
-167.0867355376554
 30
0.0
 10
170.4629282631306
 20
-167.0867355376554
 30
0.0
 10
170.4629282631306
 20
-168.4775205850507
 30
0.0
 10
170.8568749318689
 20
-169.2655861773016
 30
0.0
 10
171.9927229133558
 20
-169.2655861773016
 30
0.0
 10
172.5258514396982
 20
-169.2655861773016
 30
0.0
 10
172.9197981084365
 20
-169.1959952484996
 30
0.0
 10
173.1749074291193
 20
-169.1265765744718
 30
0.0
 10
173.1749074291193
 20
-169.1265765744718
 30
0.0
 10
173.2675804976725
 20
-170.656371224697
 30
0.0
 10
173.2675804976725
 20
-170.656371224697
 30
0.0
 10
172.8734615741599
 20
-170.8186352220522
 30
0.0
 10
172.2476599792643
 20
-170.9345626851309
 30
0.0
 10
171.4595943870134
 20
-170.9345626851309
 30
0.0
 10
170.5092647974072
 20
-170.9345626851309
 30
0.0
 10
169.7442813449075
 20
-170.6331168301716
 30
0.0
 10
169.2574893528417
 20
-170.076906164078
 30
0.0
 10
168.6780242922226
 20
-169.4741867089335
 30
0.0
 10
168.4694237605908
 20
-168.4775205850507
 30
0.0
 10
168.4694237605908
 20
-167.1563264664574
 30
0.0
 10
168.4694237605908
 20
-167.1563264664574
 30
0.0
 10
168.4694237605908
 20
-161.0369756107824
 30
0.0
 10
168.4694237605908
 20
-161.0369756107824
 30
0.0
 10
168.4694237605908
 20
-161.0369756107824
 30
0.0
 10
166.7310285787337
 20
-161.0369756107824
 30
0.0
 10
166.7310285787337
 20
-161.0369756107824
 30
0.0
 10
166.7310285787337
 20
-161.0369756107824
 30
0.0
 10
166.7310285787337
 20
-159.484098820806
 30
0.0
 10
166.7310285787337
 20
-159.484098820806
 30
0.0
 10
166.7310285787337
 20
-159.484098820806
 30
0.0
 10
168.4694237605908
 20
-159.484098820806
 30
0.0
 10
168.4694237605908
 20
-159.484098820806
 30
0.0
 10
168.4694237605908
 20
-159.484098820806
 30
0.0
 10
168.4694237605908
 20
-156.7953740493428
 30
0.0
 10
168.4694237605908
 20
-156.7953740493428
 30
0.0
 10
168.4694237605908
 20
-156.7953740493428
 30
0.0
 10
170.4629282631306
 20
-156.2622455230004
 30
0.0
 10
170.4629282631306
 20
-156.2622455230004
 30
0.0
  0
HATCH
  5
AA
330
95
100
AcDbEntity
  8
Layer 1
 62
     7
440
 33554687
100
AcDbHatch
 10
0.0
 20
0.0
 30
0.0
210
0.0
220
0.0
230
1.0
  2
SOLID
 70
     1
 71
     1
 91
        1
 92
        1
 93
        1
 72
     4
 94
        3
 73
     0
 74
     0
 95
       56
 96
       52
 40
0.0
 40
0.0
 40
0.0
 40
0.0
 40
1.0
 40
1.0
 40
1.0
 40
2.0
 40
2.0
 40
2.0
 40
3.0
 40
3.0
 40
3.0
 40
4.0
 40
4.0
 40
4.0
 40
5.0
 40
5.0
 40
5.0
 40
6.0
 40
6.0
 40
6.0
 40
7.0
 40
7.0
 40
7.0
 40
8.0
 40
8.0
 40
8.0
 40
9.0
 40
9.0
 40
9.0
 40
10.0
 40
10.0
 40
10.0
 40
11.0
 40
11.0
 40
11.0
 40
12.0
 40
12.0
 40
12.0
 40
13.0
 40
13.0
 40
13.0
 40
14.0
 40
14.0
 40
14.0
 40
15.0
 40
15.0
 40
15.0
 40
16.0
 40
16.0
 40
16.0
 40
17.0
 40
17.0
 40
17.0
 40
17.0
 10
170.4629282631306
 20
-156.2622455230004
 10
170.4629282631306
 20
-156.2622455230004
 10
170.4629282631306
 20
-159.484098820806
 10
170.4629282631306
 20
-159.484098820806
 10
170.4629282631306
 20
-159.484098820806
 10
173.3835079607511
 20
-159.484098820806
 10
173.3835079607511
 20
-159.484098820806
 10
173.3835079607511
 20
-159.484098820806
 10
173.3835079607511
 20
-161.0369756107824
 10
173.3835079607511
 20
-161.0369756107824
 10
173.3835079607511
 20
-161.0369756107824
 10
170.4629282631306
 20
-161.0369756107824
 10
170.4629282631306
 20
-161.0369756107824
 10
170.4629282631306
 20
-161.0369756107824
 10
170.4629282631306
 20
-167.0867355376554
 10
170.4629282631306
 20
-167.0867355376554
 10
170.4629282631306
 20
-168.4775205850507
 10
170.8568749318689
 20
-169.2655861773016
 10
171.9927229133558
 20
-169.2655861773016
 10
172.5258514396982
 20
-169.2655861773016
 10
172.9197981084365
 20
-169.1959952484996
 10
173.1749074291193
 20
-169.1265765744718
 10
173.1749074291193
 20
-169.1265765744718
 10
173.2675804976725
 20
-170.656371224697
 10
173.2675804976725
 20
-170.656371224697
 10
172.8734615741599
 20
-170.8186352220522
 10
172.2476599792643
 20
-170.9345626851309
 10
171.4595943870134
 20
-170.9345626851309
 10
170.5092647974072
 20
-170.9345626851309
 10
169.7442813449075
 20
-170.6331168301716
 10
169.2574893528417
 20
-170.076906164078
 10
168.6780242922226
 20
-169.4741867089335
 10
168.4694237605908
 20
-168.4775205850507
 10
168.4694237605908
 20
-167.1563264664574
 10
168.4694237605908
 20
-167.1563264664574
 10
168.4694237605908
 20
-161.0369756107824
 10
168.4694237605908
 20
-161.0369756107824
 10
168.4694237605908
 20
-161.0369756107824
 10
166.7310285787337
 20
-161.0369756107824
 10
166.7310285787337
 20
-161.0369756107824
 10
166.7310285787337
 20
-161.0369756107824
 10
166.7310285787337
 20
-159.484098820806
 10
166.7310285787337
 20
-159.484098820806
 10
166.7310285787337
 20
-159.484098820806
 10
168.4694237605908
 20
-159.484098820806
 10
168.4694237605908
 20
-159.484098820806
 10
168.4694237605908
 20
-159.484098820806
 10
168.4694237605908
 20
-156.7953740493428
 10
168.4694237605908
 20
-156.7953740493428
 10
168.4694237605908
 20
-156.7953740493428
 10
170.4629282631306
 20
-156.2622455230004
 10
170.4629282631306
 20
-156.2622455230004
 97
        1
330
A9
 75
     2
 76
     1
 98
        1
 10
0.0
 20
0.0
450
        0
451
        0
460
0.0
461
0.0
452
        0
462
0.0
453
        0
470

  0
SPLINE
  5
AB
330
95
100
AcDbEntity
  8
Layer 1
100
AcDbSpline
210
0.0
220
0.0
230
1.0
 70
    11
 71
     3
 72
    56
 73
    52
 74
     0
 42
0.0000000001
 43
0.0000000001
 40
0.0
 40
0.0
 40
0.0
 40
0.0
 40
1.0
 40
1.0
 40
1.0
 40
2.0
 40
2.0
 40
2.0
 40
3.0
 40
3.0
 40
3.0
 40
4.0
 40
4.0
 40
4.0
 40
5.0
 40
5.0
 40
5.0
 40
6.0
 40
6.0
 40
6.0
 40
7.0
 40
7.0
 40
7.0
 40
8.0
 40
8.0
 40
8.0
 40
9.0
 40
9.0
 40
9.0
 40
10.0
 40
10.0
 40
10.0
 40
11.0
 40
11.0
 40
11.0
 40
12.0
 40
12.0
 40
12.0
 40
13.0
 40
13.0
 40
13.0
 40
14.0
 40
14.0
 40
14.0
 40
15.0
 40
15.0
 40
15.0
 40
16.0
 40
16.0
 40
16.0
 40
17.0
 40
17.0
 40
17.0
 40
17.0
 10
178.1349836540077
 20
-156.2622455230004
 30
0.0
 10
178.1349836540077
 20
-156.2622455230004
 30
0.0
 10
178.1349836540077
 20
-159.484098820806
 30
0.0
 10
178.1349836540077
 20
-159.484098820806
 30
0.0
 10
178.1349836540077
 20
-159.484098820806
 30
0.0
 10
181.0555633516283
 20
-159.484098820806
 30
0.0
 10
181.0555633516283
 20
-159.484098820806
 30
0.0
 10
181.0555633516283
 20
-159.484098820806
 30
0.0
 10
181.0555633516283
 20
-161.0369756107824
 30
0.0
 10
181.0555633516283
 20
-161.0369756107824
 30
0.0
 10
181.0555633516283
 20
-161.0369756107824
 30
0.0
 10
178.1349836540077
 20
-161.0369756107824
 30
0.0
 10
178.1349836540077
 20
-161.0369756107824
 30
0.0
 10
178.1349836540077
 20
-161.0369756107824
 30
0.0
 10
178.1349836540077
 20
-167.0867355376554
 30
0.0
 10
178.1349836540077
 20
-167.0867355376554
 30
0.0
 10
178.1349836540077
 20
-168.4775205850507
 30
0.0
 10
178.528930322746
 20
-169.2655861773016
 30
0.0
 10
179.6647783042329
 20
-169.2655861773016
 30
0.0
 10
180.1979068305753
 20
-169.2655861773016
 30
0.0
 10
180.5918534993136
 20
-169.1959952484996
 30
0.0
 10
180.8467905652221
 20
-169.1265765744718
 30
0.0
 10
180.8467905652221
 20
-169.1265765744718
 30
0.0
 10
180.9396358885496
 20
-170.656371224697
 30
0.0
 10
180.9396358885496
 20
-170.656371224697
 30
0.0
 10
180.545516965037
 20
-170.8186352220522
 30
0.0
 10
179.9197153701414
 20
-170.9345626851309
 30
0.0
 10
179.1316497778905
 20
-170.9345626851309
 30
0.0
 10
178.1813201882843
 20
-170.9345626851309
 30
0.0
 10
177.4163367357846
 20
-170.6331168301716
 30
0.0
 10
176.9295447437188
 20
-170.076906164078
 30
0.0
 10
176.3500796830998
 20
-169.4741867089335
 30
0.0
 10
176.1414791514679
 20
-168.4775205850507
 30
0.0
 10
176.1414791514679
 20
-167.1563264664574
 30
0.0
 10
176.1414791514679
 20
-167.1563264664574
 30
0.0
 10
176.1414791514679
 20
-161.0369756107824
 30
0.0
 10
176.1414791514679
 20
-161.0369756107824
 30
0.0
 10
176.1414791514679
 20
-161.0369756107824
 30
0.0
 10
174.4030839696108
 20
-161.0369756107824
 30
0.0
 10
174.4030839696108
 20
-161.0369756107824
 30
0.0
 10
174.4030839696108
 20
-161.0369756107824
 30
0.0
 10
174.4030839696108
 20
-159.484098820806
 30
0.0
 10
174.4030839696108
 20
-159.484098820806
 30
0.0
 10
174.4030839696108
 20
-159.484098820806
 30
0.0
 10
176.1414791514679
 20
-159.484098820806
 30
0.0
 10
176.1414791514679
 20
-159.484098820806
 30
0.0
 10
176.1414791514679
 20
-159.484098820806
 30
0.0
 10
176.1414791514679
 20
-156.7953740493428
 30
0.0
 10
176.1414791514679
 20
-156.7953740493428
 30
0.0
 10
176.1414791514679
 20
-156.7953740493428
 30
0.0
 10
178.1349836540077
 20
-156.2622455230004
 30
0.0
 10
178.1349836540077
 20
-156.2622455230004
 30
0.0
  0
HATCH
  5
AC
330
95
100
AcDbEntity
  8
Layer 1
 62
     7
440
 33554687
100
AcDbHatch
 10
0.0
 20
0.0
 30
0.0
210
0.0
220
0.0
230
1.0
  2
SOLID
 70
     1
 71
     1
 91
        1
 92
        1
 93
        1
 72
     4
 94
        3
 73
     0
 74
     0
 95
       56
 96
       52
 40
0.0
 40
0.0
 40
0.0
 40
0.0
 40
1.0
 40
1.0
 40
1.0
 40
2.0
 40
2.0
 40
2.0
 40
3.0
 40
3.0
 40
3.0
 40
4.0
 40
4.0
 40
4.0
 40
5.0
 40
5.0
 40
5.0
 40
6.0
 40
6.0
 40
6.0
 40
7.0
 40
7.0
 40
7.0
 40
8.0
 40
8.0
 40
8.0
 40
9.0
 40
9.0
 40
9.0
 40
10.0
 40
10.0
 40
10.0
 40
11.0
 40
11.0
 40
11.0
 40
12.0
 40
12.0
 40
12.0
 40
13.0
 40
13.0
 40
13.0
 40
14.0
 40
14.0
 40
14.0
 40
15.0
 40
15.0
 40
15.0
 40
16.0
 40
16.0
 40
16.0
 40
17.0
 40
17.0
 40
17.0
 40
17.0
 10
178.1349836540077
 20
-156.2622455230004
 10
178.1349836540077
 20
-156.2622455230004
 10
178.1349836540077
 20
-159.484098820806
 10
178.1349836540077
 20
-159.484098820806
 10
178.1349836540077
 20
-159.484098820806
 10
181.0555633516283
 20
-159.484098820806
 10
181.0555633516283
 20
-159.484098820806
 10
181.0555633516283
 20
-159.484098820806
 10
181.0555633516283
 20
-161.0369756107824
 10
181.0555633516283
 20
-161.0369756107824
 10
181.0555633516283
 20
-161.0369756107824
 10
178.1349836540077
 20
-161.0369756107824
 10
178.1349836540077
 20
-161.0369756107824
 10
178.1349836540077
 20
-161.0369756107824
 10
178.1349836540077
 20
-167.0867355376554
 10
178.1349836540077
 20
-167.0867355376554
 10
178.1349836540077
 20
-168.4775205850507
 10
178.528930322746
 20
-169.2655861773016
 10
179.6647783042329
 20
-169.2655861773016
 10
180.1979068305753
 20
-169.2655861773016
 10
180.5918534993136
 20
-169.1959952484996
 10
180.8467905652221
 20
-169.1265765744718
 10
180.8467905652221
 20
-169.1265765744718
 10
180.9396358885496
 20
-170.656371224697
 10
180.9396358885496
 20
-170.656371224697
 10
180.545516965037
 20
-170.8186352220522
 10
179.9197153701414
 20
-170.9345626851309
 10
179.1316497778905
 20
-170.9345626851309
 10
178.1813201882843
 20
-170.9345626851309
 10
177.4163367357846
 20
-170.6331168301716
 10
176.9295447437188
 20
-170.076906164078
 10
176.3500796830998
 20
-169.4741867089335
 10
176.1414791514679
 20
-168.4775205850507
 10
176.1414791514679
 20
-167.1563264664574
 10
176.1414791514679
 20
-167.1563264664574
 10
176.1414791514679
 20
-161.0369756107824
 10
176.1414791514679
 20
-161.0369756107824
 10
176.1414791514679
 20
-161.0369756107824
 10
174.4030839696108
 20
-161.0369756107824
 10
174.4030839696108
 20
-161.0369756107824
 10
174.4030839696108
 20
-161.0369756107824
 10
174.4030839696108
 20
-159.484098820806
 10
174.4030839696108
 20
-159.484098820806
 10
174.4030839696108
 20
-159.484098820806
 10
176.1414791514679
 20
-159.484098820806
 10
176.1414791514679
 20
-159.484098820806
 10
176.1414791514679
 20
-159.484098820806
 10
176.1414791514679
 20
-156.7953740493428
 10
176.1414791514679
 20
-156.7953740493428
 10
176.1414791514679
 20
-156.7953740493428
 10
178.1349836540077
 20
-156.2622455230004
 10
178.1349836540077
 20
-156.2622455230004
 97
        1
330
AB
 75
     2
 76
     1
 98
        1
 10
0.0
 20
0.0
450
        0
451
        0
460
0.0
461
0.0
452
        0
462
0.0
453
        0
470

  0
SPLINE
  5
AD
330
95
100
AcDbEntity
  8
Layer 1
100
AcDbSpline
210
0.0
220
0.0
230
1.0
 70
    11
 71
     3
 72
    17
 73
    13
 74
     0
 42
0.0000000001
 43
0.0000000001
 40
0.0
 40
0.0
 40
0.0
 40
0.0
 40
1.0
 40
1.0
 40
1.0
 40
2.0
 40
2.0
 40
2.0
 40
3.0
 40
3.0
 40
3.0
 40
4.0
 40
4.0
 40
4.0
 40
4.0
 10
183.3501691995789
 20
-170.7027077589736
 30
0.0
 10
183.3501691995789
 20
-170.7027077589736
 30
0.0
 10
183.3501691995789
 20
-159.484098820806
 30
0.0
 10
183.3501691995789
 20
-159.484098820806
 30
0.0
 10
183.3501691995789
 20
-159.484098820806
 30
0.0
 10
185.3900102363953
 20
-159.484098820806
 30
0.0
 10
185.3900102363953
 20
-159.484098820806
 30
0.0
 10
185.3900102363953
 20
-159.484098820806
 30
0.0
 10
185.3900102363953
 20
-170.7027077589736
 30
0.0
 10
185.3900102363953
 20
-170.7027077589736
 30
0.0
 10
185.3900102363953
 20
-170.7027077589736
 30
0.0
 10
183.3501691995789
 20
-170.7027077589736
 30
0.0
 10
183.3501691995789
 20
-170.7027077589736
 30
0.0
  0
SPLINE
  5
AE
330
95
100
AcDbEntity
  8
Layer 1
100
AcDbSpline
210
0.0
220
0.0
230
1.0
 70
     9
 71
     3
 72
    17
 73
    13
 74
     0
 42
0.0000000001
 43
0.0000000001
 40
0.0
 40
0.0
 40
0.0
 40
0.0
 40
1.0
 40
1.0
 40
1.0
 40
2.0
 40
2.0
 40
2.0
 40
3.0
 40
3.0
 40
3.0
 40
4.0
 40
4.0
 40
4.0
 40
4.0
 10
185.6216929077784
 20
-156.3316641970281
 30
0.0
 10
185.6449473023038
 20
-157.0270567207258
 30
0.0
 10
185.1349009157126
 20
-157.5834396415937
 30
0.0
 10
184.3237531837105
 20
-157.5834396415937
 30
0.0
 10
183.6051062654874
 20
-157.5834396415937
 30
0.0
 10
183.0952321336704
 20
-157.0270567207258
 30
0.0
 10
183.0952321336704
 20
-156.3316641970281
 30
0.0
 10
183.0952321336704
 20
-155.6131895335793
 30
0.0
 10
183.6283606600128
 20
-155.0568066127115
 30
0.0
 10
184.3700897179871
 20
-155.0568066127115
 30
0.0
 10
185.1349009157126
 20
-155.0568066127115
 30
0.0
 10
185.6216929077784
 20
-155.6131895335793
 30
0.0
 10
185.6216929077784
 20
-156.3316641970281
 30
0.0
  0
HATCH
  5
AF
330
95
100
AcDbEntity
  8
Layer 1
 62
     7
440
 33554687
100
AcDbHatch
 10
0.0
 20
0.0
 30
0.0
210
0.0
220
0.0
230
1.0
  2
SOLID
 70
     1
 71
     1
 91
        2
 92
        1
 93
        1
 72
     4
 94
        3
 73
     0
 74
     0
 95
       17
 96
       13
 40
0.0
 40
0.0
 40
0.0
 40
0.0
 40
1.0
 40
1.0
 40
1.0
 40
2.0
 40
2.0
 40
2.0
 40
3.0
 40
3.0
 40
3.0
 40
4.0
 40
4.0
 40
4.0
 40
4.0
 10
183.3501691995789
 20
-170.7027077589736
 10
183.3501691995789
 20
-170.7027077589736
 10
183.3501691995789
 20
-159.484098820806
 10
183.3501691995789
 20
-159.484098820806
 10
183.3501691995789
 20
-159.484098820806
 10
185.3900102363953
 20
-159.484098820806
 10
185.3900102363953
 20
-159.484098820806
 10
185.3900102363953
 20
-159.484098820806
 10
185.3900102363953
 20
-170.7027077589736
 10
185.3900102363953
 20
-170.7027077589736
 10
185.3900102363953
 20
-170.7027077589736
 10
183.3501691995789
 20
-170.7027077589736
 10
183.3501691995789
 20
-170.7027077589736
 97
        1
330
AD
 92
        1
 93
        1
 72
     4
 94
        3
 73
     0
 74
     0
 95
       17
 96
       13
 40
0.0
 40
0.0
 40
0.0
 40
0.0
 40
1.0
 40
1.0
 40
1.0
 40
2.0
 40
2.0
 40
2.0
 40
3.0
 40
3.0
 40
3.0
 40
4.0
 40
4.0
 40
4.0
 40
4.0
 10
185.6216929077784
 20
-156.3316641970281
 10
185.6449473023038
 20
-157.0270567207258
 10
185.1349009157126
 20
-157.5834396415937
 10
184.3237531837105
 20
-157.5834396415937
 10
183.6051062654874
 20
-157.5834396415937
 10
183.0952321336704
 20
-157.0270567207258
 10
183.0952321336704
 20
-156.3316641970281
 10
183.0952321336704
 20
-155.6131895335793
 10
183.6283606600128
 20
-155.0568066127115
 10
184.3700897179871
 20
-155.0568066127115
 10
185.1349009157126
 20
-155.0568066127115
 10
185.6216929077784
 20
-155.6131895335793
 10
185.6216929077784
 20
-156.3316641970281
 97
        1
330
AE
 75
     2
 76
     1
 98
        1
 10
0.0
 20
0.0
450
        0
451
        0
460
0.0
461
0.0
452
        0
462
0.0
453
        0
470

  0
SPLINE
  5
B0
330
95
100
AcDbEntity
  8
Layer 1
100
AcDbSpline
210
0.0
220
0.0
230
1.0
 70
     9
 71
     3
 72
    50
 73
    46
 74
     0
 42
0.0000000001
 43
0.0000000001
 40
0.0
 40
0.0
 40
0.0
 40
0.0
 40
1.0
 40
1.0
 40
1.0
 40
2.0
 40
2.0
 40
2.0
 40
3.0
 40
3.0
 40
3.0
 40
4.0
 40
4.0
 40
4.0
 40
5.0
 40
5.0
 40
5.0
 40
6.0
 40
6.0
 40
6.0
 40
7.0
 40
7.0
 40
7.0
 40
8.0
 40
8.0
 40
8.0
 40
9.0
 40
9.0
 40
9.0
 40
10.0
 40
10.0
 40
10.0
 40
11.0
 40
11.0
 40
11.0
 40
12.0
 40
12.0
 40
12.0
 40
13.0
 40
13.0
 40
13.0
 40
14.0
 40
14.0
 40
14.0
 40
15.0
 40
15.0
 40
15.0
 40
15.0
 10
188.773955276782
 20
-162.520433726731
 30
0.0
 10
188.773955276782
 20
-161.3615036054929
 30
0.0
 10
188.7508731370308
 20
-160.4111740158868
 30
0.0
 10
188.6812822082288
 20
-159.484098820806
 30
0.0
 10
188.6812822082288
 20
-159.484098820806
 30
0.0
 10
190.4892683188879
 20
-159.484098820806
 30
0.0
 10
190.4892683188879
 20
-159.484098820806
 30
0.0
 10
190.4892683188879
 20
-159.484098820806
 30
0.0
 10
190.6050235271923
 20
-161.3384214657418
 30
0.0
 10
190.6050235271923
 20
-161.3384214657418
 30
0.0
 10
190.6050235271923
 20
-161.3384214657418
 30
0.0
 10
190.6515323162432
 20
-161.3384214657418
 30
0.0
 10
190.6515323162432
 20
-161.3384214657418
 30
0.0
 10
191.2077429823367
 20
-160.2721644130569
 30
0.0
 10
192.5058549611789
 20
-159.2291617548976
 30
0.0
 10
194.3601776061146
 20
-159.2291617548976
 30
0.0
 10
195.913054396091
 20
-159.2291617548976
 30
0.0
 10
198.3237599618945
 20
-160.1562369499783
 30
0.0
 10
198.3237599618945
 20
-164.0038918426795
 30
0.0
 10
198.3237599618945
 20
-164.0038918426795
 30
0.0
 10
198.3237599618945
 20
-170.7027077589736
 30
0.0
 10
198.3237599618945
 20
-170.7027077589736
 30
0.0
 10
198.3237599618945
 20
-170.7027077589736
 30
0.0
 10
196.2839189250781
 20
-170.7027077589736
 30
0.0
 10
196.2839189250781
 20
-170.7027077589736
 30
0.0
 10
196.2839189250781
 20
-170.7027077589736
 30
0.0
 10
196.2839189250781
 20
-164.2357467688369
 30
0.0
 10
196.2839189250781
 20
-164.2357467688369
 30
0.0
 10
196.2839189250781
 20
-162.4277606581777
 30
0.0
 10
195.6117807959059
 20
-160.921220402478
 30
0.0
 10
193.6878672221681
 20
-160.921220402478
 30
0.0
 10
192.3435909638236
 20
-160.921220402478
 30
0.0
 10
191.30041605089
 20
-161.8715499920842
 30
0.0
 10
190.9528059164282
 20
-163.0072257187968
 30
0.0
 10
190.860132847875
 20
-163.2621627847053
 30
0.0
 10
190.8137963135984
 20
-163.6099451739412
 30
0.0
 10
190.8137963135984
 20
-163.9575553084029
 30
0.0
 10
190.8137963135984
 20
-163.9575553084029
 30
0.0
 10
190.8137963135984
 20
-170.7027077589736
 30
0.0
 10
190.8137963135984
 20
-170.7027077589736
 30
0.0
 10
190.8137963135984
 20
-170.7027077589736
 30
0.0
 10
188.773955276782
 20
-170.7027077589736
 30
0.0
 10
188.773955276782
 20
-170.7027077589736
 30
0.0
 10
188.773955276782
 20
-170.7027077589736
 30
0.0
 10
188.773955276782
 20
-162.520433726731
 30
0.0
 10
188.773955276782
 20
-162.520433726731
 30
0.0
  0
HATCH
  5
B1
330
95
100
AcDbEntity
  8
Layer 1
 62
     7
440
 33554687
100
AcDbHatch
 10
0.0
 20
0.0
 30
0.0
210
0.0
220
0.0
230
1.0
  2
SOLID
 70
     1
 71
     1
 91
        1
 92
        1
 93
        1
 72
     4
 94
        3
 73
     0
 74
     0
 95
       50
 96
       46
 40
0.0
 40
0.0
 40
0.0
 40
0.0
 40
1.0
 40
1.0
 40
1.0
 40
2.0
 40
2.0
 40
2.0
 40
3.0
 40
3.0
 40
3.0
 40
4.0
 40
4.0
 40
4.0
 40
5.0
 40
5.0
 40
5.0
 40
6.0
 40
6.0
 40
6.0
 40
7.0
 40
7.0
 40
7.0
 40
8.0
 40
8.0
 40
8.0
 40
9.0
 40
9.0
 40
9.0
 40
10.0
 40
10.0
 40
10.0
 40
11.0
 40
11.0
 40
11.0
 40
12.0
 40
12.0
 40
12.0
 40
13.0
 40
13.0
 40
13.0
 40
14.0
 40
14.0
 40
14.0
 40
15.0
 40
15.0
 40
15.0
 40
15.0
 10
188.773955276782
 20
-162.520433726731
 10
188.773955276782
 20
-161.3615036054929
 10
188.7508731370308
 20
-160.4111740158868
 10
188.6812822082288
 20
-159.484098820806
 10
188.6812822082288
 20
-159.484098820806
 10
190.4892683188879
 20
-159.484098820806
 10
190.4892683188879
 20
-159.484098820806
 10
190.4892683188879
 20
-159.484098820806
 10
190.6050235271923
 20
-161.3384214657418
 10
190.6050235271923
 20
-161.3384214657418
 10
190.6050235271923
 20
-161.3384214657418
 10
190.6515323162432
 20
-161.3384214657418
 10
190.6515323162432
 20
-161.3384214657418
 10
191.2077429823367
 20
-160.2721644130569
 10
192.5058549611789
 20
-159.2291617548976
 10
194.3601776061146
 20
-159.2291617548976
 10
195.913054396091
 20
-159.2291617548976
 10
198.3237599618945
 20
-160.1562369499783
 10
198.3237599618945
 20
-164.0038918426795
 10
198.3237599618945
 20
-164.0038918426795
 10
198.3237599618945
 20
-170.7027077589736
 10
198.3237599618945
 20
-170.7027077589736
 10
198.3237599618945
 20
-170.7027077589736
 10
196.2839189250781
 20
-170.7027077589736
 10
196.2839189250781
 20
-170.7027077589736
 10
196.2839189250781
 20
-170.7027077589736
 10
196.2839189250781
 20
-164.2357467688369
 10
196.2839189250781
 20
-164.2357467688369
 10
196.2839189250781
 20
-162.4277606581777
 10
195.6117807959059
 20
-160.921220402478
 10
193.6878672221681
 20
-160.921220402478
 10
192.3435909638236
 20
-160.921220402478
 10
191.30041605089
 20
-161.8715499920842
 10
190.9528059164282
 20
-163.0072257187968
 10
190.860132847875
 20
-163.2621627847053
 10
190.8137963135984
 20
-163.6099451739412
 10
190.8137963135984
 20
-163.9575553084029
 10
190.8137963135984
 20
-163.9575553084029
 10
190.8137963135984
 20
-170.7027077589736
 10
190.8137963135984
 20
-170.7027077589736
 10
190.8137963135984
 20
-170.7027077589736
 10
188.773955276782
 20
-170.7027077589736
 10
188.773955276782
 20
-170.7027077589736
 10
188.773955276782
 20
-170.7027077589736
 10
188.773955276782
 20
-162.520433726731
 10
188.773955276782
 20
-162.520433726731
 97
        1
330
B0
 75
     2
 76
     1
 98
        1
 10
0.0
 20
0.0
450
        0
451
        0
460
0.0
461
0.0
452
        0
462
0.0
453
        0
470

  0
SPLINE
  5
B2
330
95
100
AcDbEntity
  8
Layer 1
100
AcDbSpline
210
0.0
220
0.0
230
1.0
 70
     9
 71
     3
 72
    26
 73
    22
 74
     0
 42
0.0000000001
 43
0.0000000001
 40
0.0
 40
0.0
 40
0.0
 40
0.0
 40
1.0
 40
1.0
 40
1.0
 40
2.0
 40
2.0
 40
2.0
 40
3.0
 40
3.0
 40
3.0
 40
4.0
 40
4.0
 40
4.0
 40
5.0
 40
5.0
 40
5.0
 40
6.0
 40
6.0
 40
6.0
 40
7.0
 40
7.0
 40
7.0
 40
7.0
 10
209.1944142560519
 20
-163.9112187741263
 30
0.0
 10
209.1944142560519
 20
-163.5636086396646
 30
0.0
 10
209.1713321163007
 20
-163.2621627847053
 30
0.0
 10
209.0786590477475
 20
-162.9841435790456
 30
0.0
 10
208.7077945187604
 20
-161.8019590632821
 30
0.0
 10
207.7109561401033
 20
-160.8283750791505
 30
0.0
 10
206.2274980241547
 20
-160.8283750791505
 30
0.0
 10
204.2805023106658
 20
-160.8283750791505
 30
0.0
 10
202.8897172632704
 20
-162.4740971924544
 30
0.0
 10
202.8897172632704
 20
-165.0701488953644
 30
0.0
 10
202.8897172632704
 20
-167.2722539295361
 30
0.0
 10
204.0023108502319
 20
-169.1033221799464
 30
0.0
 10
206.2044158844036
 20
-169.1033221799464
 30
0.0
 10
207.4560190741948
 20
-169.1033221799464
 30
0.0
 10
208.5918670556817
 20
-168.3152565876955
 30
0.0
 10
209.0321502586967
 20
-167.0173168636276
 30
0.0
 10
209.1480777217753
 20
-166.6695344743916
 30
0.0
 10
209.1944142560519
 20
-166.2755878056533
 30
0.0
 10
209.1944142560519
 20
-165.9278054164173
 30
0.0
 10
209.1944142560519
 20
-165.9278054164173
 30
0.0
 10
209.1944142560519
 20
-163.9112187741263
 30
0.0
 10
209.1944142560519
 20
-163.9112187741263
 30
0.0
  0
SPLINE
  5
B3
330
95
100
AcDbEntity
  8
Layer 1
100
AcDbSpline
210
0.0
220
0.0
230
1.0
 70
     9
 71
     3
 72
    56
 73
    52
 74
     0
 42
0.0000000001
 43
0.0000000001
 40
0.0
 40
0.0
 40
0.0
 40
0.0
 40
1.0
 40
1.0
 40
1.0
 40
2.0
 40
2.0
 40
2.0
 40
3.0
 40
3.0
 40
3.0
 40
4.0
 40
4.0
 40
4.0
 40
5.0
 40
5.0
 40
5.0
 40
6.0
 40
6.0
 40
6.0
 40
7.0
 40
7.0
 40
7.0
 40
8.0
 40
8.0
 40
8.0
 40
9.0
 40
9.0
 40
9.0
 40
10.0
 40
10.0
 40
10.0
 40
11.0
 40
11.0
 40
11.0
 40
12.0
 40
12.0
 40
12.0
 40
13.0
 40
13.0
 40
13.0
 40
14.0
 40
14.0
 40
14.0
 40
15.0
 40
15.0
 40
15.0
 40
16.0
 40
16.0
 40
16.0
 40
17.0
 40
17.0
 40
17.0
 40
17.0
 10
211.3038462216703
 20
-159.484098820806
 30
0.0
 10
211.2573374326195
 20
-160.2952465528081
 30
0.0
 10
211.2110008983429
 20
-161.1992396081376
 30
0.0
 10
211.2110008983429
 20
-162.5669425157818
 30
0.0
 10
211.2110008983429
 20
-162.5669425157818
 30
0.0
 10
211.2110008983429
 20
-169.0802400401952
 30
0.0
 10
211.2110008983429
 20
-169.0802400401952
 30
0.0
 10
211.2110008983429
 20
-171.6530373485798
 30
0.0
 10
210.7011267665259
 20
-173.2291685330816
 30
0.0
 10
209.6117875740899
 20
-174.2027525172131
 30
0.0
 10
208.5222761268797
 20
-175.2226730356214
 30
0.0
 10
206.9461449423779
 20
-175.5472010303319
 30
0.0
 10
205.5322777552313
 20
-175.5472010303319
 30
0.0
 10
204.1878292421126
 20
-175.5472010303319
 30
0.0
 10
202.704371126164
 20
-175.2226730356214
 30
0.0
 10
201.8003780708344
 20
-174.6199535804769
 30
0.0
 10
201.8003780708344
 20
-174.6199535804769
 30
0.0
 10
202.3102522026514
 20
-173.0669045357263
 30
0.0
 10
202.3102522026514
 20
-173.0669045357263
 30
0.0
 10
203.0519812606257
 20
-173.5306143880409
 30
0.0
 10
204.211083636638
 20
-173.9478154513047
 30
0.0
 10
205.6016964292591
 20
-173.9478154513047
 30
0.0
 10
207.6878740003521
 20
-173.9478154513047
 30
0.0
 10
209.2176686505773
 20
-172.8583040040944
 30
0.0
 10
209.2176686505773
 20
-170.0305696298014
 30
0.0
 10
209.2176686505773
 20
-170.0305696298014
 30
0.0
 10
209.2176686505773
 20
-168.7787941852358
 30
0.0
 10
209.2176686505773
 20
-168.7787941852358
 30
0.0
 10
209.2176686505773
 20
-168.7787941852358
 30
0.0
 10
209.1713321163007
 20
-168.7787941852358
 30
0.0
 10
209.1713321163007
 20
-168.7787941852358
 30
0.0
 10
208.5455305214051
 20
-169.8219690981695
 30
0.0
 10
207.3400916111162
 20
-170.656371224697
 30
0.0
 10
205.6016964292591
 20
-170.656371224697
 30
0.0
 10
202.8202985892427
 20
-170.656371224697
 30
0.0
 10
200.8267940867028
 20
-168.29200219317
 30
0.0
 10
200.8267940867028
 20
-165.186076358443
 30
0.0
 10
200.8267940867028
 20
-161.3847580000184
 30
0.0
 10
203.3070905813084
 20
-159.2291617548976
 30
0.0
 10
205.879887889693
 20
-159.2291617548976
 30
0.0
 10
207.826883603182
 20
-159.2291617548976
 30
0.0
 10
208.8931406558668
 20
-160.2489100185315
 30
0.0
 10
209.3799326479326
 20
-161.1761574683865
 30
0.0
 10
209.3799326479326
 20
-161.1761574683865
 30
0.0
 10
209.4262691822092
 20
-161.1761574683865
 30
0.0
 10
209.4262691822092
 20
-161.1761574683865
 30
0.0
 10
209.4262691822092
 20
-161.1761574683865
 30
0.0
 10
209.5189422507624
 20
-159.484098820806
 30
0.0
 10
209.5189422507624
 20
-159.484098820806
 30
0.0
 10
209.5189422507624
 20
-159.484098820806
 30
0.0
 10
211.3038462216703
 20
-159.484098820806
 30
0.0
 10
211.3038462216703
 20
-159.484098820806
 30
0.0
  0
HATCH
  5
B4
330
95
100
AcDbEntity
  8
Layer 1
 62
     7
440
 33554687
100
AcDbHatch
 10
0.0
 20
0.0
 30
0.0
210
0.0
220
0.0
230
1.0
  2
SOLID
 70
     1
 71
     1
 91
        2
 92
        1
 93
        1
 72
     4
 94
        3
 73
     0
 74
     0
 95
       26
 96
       22
 40
0.0
 40
0.0
 40
0.0
 40
0.0
 40
1.0
 40
1.0
 40
1.0
 40
2.0
 40
2.0
 40
2.0
 40
3.0
 40
3.0
 40
3.0
 40
4.0
 40
4.0
 40
4.0
 40
5.0
 40
5.0
 40
5.0
 40
6.0
 40
6.0
 40
6.0
 40
7.0
 40
7.0
 40
7.0
 40
7.0
 10
209.1944142560519
 20
-163.9112187741263
 10
209.1944142560519
 20
-163.5636086396646
 10
209.1713321163007
 20
-163.2621627847053
 10
209.0786590477475
 20
-162.9841435790456
 10
208.7077945187604
 20
-161.8019590632821
 10
207.7109561401033
 20
-160.8283750791505
 10
206.2274980241547
 20
-160.8283750791505
 10
204.2805023106658
 20
-160.8283750791505
 10
202.8897172632704
 20
-162.4740971924544
 10
202.8897172632704
 20
-165.0701488953644
 10
202.8897172632704
 20
-167.2722539295361
 10
204.0023108502319
 20
-169.1033221799464
 10
206.2044158844036
 20
-169.1033221799464
 10
207.4560190741948
 20
-169.1033221799464
 10
208.5918670556817
 20
-168.3152565876955
 10
209.0321502586967
 20
-167.0173168636276
 10
209.1480777217753
 20
-166.6695344743916
 10
209.1944142560519
 20
-166.2755878056533
 10
209.1944142560519
 20
-165.9278054164173
 10
209.1944142560519
 20
-165.9278054164173
 10
209.1944142560519
 20
-163.9112187741263
 10
209.1944142560519
 20
-163.9112187741263
 97
        1
330
B2
 92
        1
 93
        1
 72
     4
 94
        3
 73
     0
 74
     0
 95
       56
 96
       52
 40
0.0
 40
0.0
 40
0.0
 40
0.0
 40
1.0
 40
1.0
 40
1.0
 40
2.0
 40
2.0
 40
2.0
 40
3.0
 40
3.0
 40
3.0
 40
4.0
 40
4.0
 40
4.0
 40
5.0
 40
5.0
 40
5.0
 40
6.0
 40
6.0
 40
6.0
 40
7.0
 40
7.0
 40
7.0
 40
8.0
 40
8.0
 40
8.0
 40
9.0
 40
9.0
 40
9.0
 40
10.0
 40
10.0
 40
10.0
 40
11.0
 40
11.0
 40
11.0
 40
12.0
 40
12.0
 40
12.0
 40
13.0
 40
13.0
 40
13.0
 40
14.0
 40
14.0
 40
14.0
 40
15.0
 40
15.0
 40
15.0
 40
16.0
 40
16.0
 40
16.0
 40
17.0
 40
17.0
 40
17.0
 40
17.0
 10
211.3038462216703
 20
-159.484098820806
 10
211.2573374326195
 20
-160.2952465528081
 10
211.2110008983429
 20
-161.1992396081376
 10
211.2110008983429
 20
-162.5669425157818
 10
211.2110008983429
 20
-162.5669425157818
 10
211.2110008983429
 20
-169.0802400401952
 10
211.2110008983429
 20
-169.0802400401952
 10
211.2110008983429
 20
-171.6530373485798
 10
210.7011267665259
 20
-173.2291685330816
 10
209.6117875740899
 20
-174.2027525172131
 10
208.5222761268797
 20
-175.2226730356214
 10
206.9461449423779
 20
-175.5472010303319
 10
205.5322777552313
 20
-175.5472010303319
 10
204.1878292421126
 20
-175.5472010303319
 10
202.704371126164
 20
-175.2226730356214
 10
201.8003780708344
 20
-174.6199535804769
 10
201.8003780708344
 20
-174.6199535804769
 10
202.3102522026514
 20
-173.0669045357263
 10
202.3102522026514
 20
-173.0669045357263
 10
203.0519812606257
 20
-173.5306143880409
 10
204.211083636638
 20
-173.9478154513047
 10
205.6016964292591
 20
-173.9478154513047
 10
207.6878740003521
 20
-173.9478154513047
 10
209.2176686505773
 20
-172.8583040040944
 10
209.2176686505773
 20
-170.0305696298014
 10
209.2176686505773
 20
-170.0305696298014
 10
209.2176686505773
 20
-168.7787941852358
 10
209.2176686505773
 20
-168.7787941852358
 10
209.2176686505773
 20
-168.7787941852358
 10
209.1713321163007
 20
-168.7787941852358
 10
209.1713321163007
 20
-168.7787941852358
 10
208.5455305214051
 20
-169.8219690981695
 10
207.3400916111162
 20
-170.656371224697
 10
205.6016964292591
 20
-170.656371224697
 10
202.8202985892427
 20
-170.656371224697
 10
200.8267940867028
 20
-168.29200219317
 10
200.8267940867028
 20
-165.186076358443
 10
200.8267940867028
 20
-161.3847580000184
 10
203.3070905813084
 20
-159.2291617548976
 10
205.879887889693
 20
-159.2291617548976
 10
207.826883603182
 20
-159.2291617548976
 10
208.8931406558668
 20
-160.2489100185315
 10
209.3799326479326
 20
-161.1761574683865
 10
209.3799326479326
 20
-161.1761574683865
 10
209.4262691822092
 20
-161.1761574683865
 10
209.4262691822092
 20
-161.1761574683865
 10
209.4262691822092
 20
-161.1761574683865
 10
209.5189422507624
 20
-159.484098820806
 10
209.5189422507624
 20
-159.484098820806
 10
209.5189422507624
 20
-159.484098820806
 10
211.3038462216703
 20
-159.484098820806
 10
211.3038462216703
 20
-159.484098820806
 97
        1
330
B3
 75
     2
 76
     1
 98
        1
 10
0.0
 20
0.0
450
        0
451
        0
460
0.0
461
0.0
452
        0
462
0.0
453
        0
470

  0
SPLINE
  5
B5
330
95
100
AcDbEntity
  8
Layer 1
100
AcDbSpline
210
0.0
220
0.0
230
1.0
 70
    11
 71
     3
 72
    17
 73
    13
 74
     0
 42
0.0000000001
 43
0.0000000001
 40
0.0
 40
0.0
 40
0.0
 40
0.0
 40
1.0
 40
1.0
 40
1.0
 40
2.0
 40
2.0
 40
2.0
 40
3.0
 40
3.0
 40
3.0
 40
4.0
 40
4.0
 40
4.0
 40
4.0
 10
228.710707925218
 20
-164.1198193057582
 30
0.0
 10
228.710707925218
 20
-164.1198193057582
 30
0.0
 10
228.710707925218
 20
-165.5106043531536
 30
0.0
 10
228.710707925218
 20
-165.5106043531536
 30
0.0
 10
228.710707925218
 20
-165.5106043531536
 30
0.0
 10
218.5120195054586
 20
-165.5106043531536
 30
0.0
 10
218.5120195054586
 20
-165.5106043531536
 30
0.0
 10
218.5120195054586
 20
-165.5106043531536
 30
0.0
 10
218.5120195054586
 20
-164.1198193057582
 30
0.0
 10
218.5120195054586
 20
-164.1198193057582
 30
0.0
 10
218.5120195054586
 20
-164.1198193057582
 30
0.0
 10
228.710707925218
 20
-164.1198193057582
 30
0.0
 10
228.710707925218
 20
-164.1198193057582
 30
0.0
  0
HATCH
  5
B6
330
95
100
AcDbEntity
  8
Layer 1
 62
     7
440
 33554687
100
AcDbHatch
 10
0.0
 20
0.0
 30
0.0
210
0.0
220
0.0
230
1.0
  2
SOLID
 70
     1
 71
     1
 91
        1
 92
        1
 93
        1
 72
     4
 94
        3
 73
     0
 74
     0
 95
       17
 96
       13
 40
0.0
 40
0.0
 40
0.0
 40
0.0
 40
1.0
 40
1.0
 40
1.0
 40
2.0
 40
2.0
 40
2.0
 40
3.0
 40
3.0
 40
3.0
 40
4.0
 40
4.0
 40
4.0
 40
4.0
 10
228.710707925218
 20
-164.1198193057582
 10
228.710707925218
 20
-164.1198193057582
 10
228.710707925218
 20
-165.5106043531536
 10
228.710707925218
 20
-165.5106043531536
 10
228.710707925218
 20
-165.5106043531536
 10
218.5120195054586
 20
-165.5106043531536
 10
218.5120195054586
 20
-165.5106043531536
 10
218.5120195054586
 20
-165.5106043531536
 10
218.5120195054586
 20
-164.1198193057582
 10
218.5120195054586
 20
-164.1198193057582
 10
218.5120195054586
 20
-164.1198193057582
 10
228.710707925218
 20
-164.1198193057582
 10
228.710707925218
 20
-164.1198193057582
 97
        1
330
B5
 75
     2
 76
     1
 98
        1
 10
0.0
 20
0.0
450
        0
451
        0
460
0.0
461
0.0
452
        0
462
0.0
453
        0
470

  0
SPLINE
  5
B7
330
95
100
AcDbEntity
  8
Layer 1
100
AcDbSpline
210
0.0
220
0.0
230
1.0
 70
     9
 71
     3
 72
    17
 73
    13
 74
     0
 42
0.0000000001
 43
0.0000000001
 40
0.0
 40
0.0
 40
0.0
 40
0.0
 40
1.0
 40
1.0
 40
1.0
 40
2.0
 40
2.0
 40
2.0
 40
3.0
 40
3.0
 40
3.0
 40
4.0
 40
4.0
 40
4.0
 40
4.0
 10
237.1940833028714
 20
-163.2390806449541
 30
0.0
 10
237.1940833028714
 20
-167.1563264664574
 30
0.0
 10
238.3993499583861
 20
-169.3815136403803
 30
0.0
 10
240.2536726033218
 20
-169.3815136403803
 30
0.0
 10
242.3398501744149
 20
-169.3815136403803
 30
0.0
 10
243.3365162982976
 20
-166.9477259348255
 30
0.0
 10
243.3365162982976
 20
-163.09989878735
 30
0.0
 10
243.3365162982976
 20
-159.3912534974785
 30
0.0
 10
242.3861867086915
 20
-156.9574657919238
 30
0.0
 10
240.2769269978473
 20
-156.9574657919238
 30
0.0
 10
238.4920230269393
 20
-156.9574657919238
 30
0.0
 10
237.1940833028714
 20
-159.13631643157
 30
0.0
 10
237.1940833028714
 20
-163.2390806449541
 30
0.0
  0
SPLINE
  5
B8
330
95
100
AcDbEntity
  8
Layer 1
100
AcDbSpline
210
0.0
220
0.0
230
1.0
 70
     9
 71
     3
 72
    17
 73
    13
 74
     0
 42
0.0000000001
 43
0.0000000001
 40
0.0
 40
0.0
 40
0.0
 40
0.0
 40
1.0
 40
1.0
 40
1.0
 40
2.0
 40
2.0
 40
2.0
 40
3.0
 40
3.0
 40
3.0
 40
4.0
 40
4.0
 40
4.0
 40
4.0
 10
245.3761850803398
 20
-163.0072257187968
 30
0.0
 10
245.3761850803398
 20
-168.129910450589
 30
0.0
 10
243.4755259011275
 20
-170.9576448248821
 30
0.0
 10
240.1377451402431
 20
-170.9576448248821
 30
0.0
 10
237.1940833028714
 20
-170.9576448248821
 30
0.0
 10
235.2005788003316
 20
-168.1993291246168
 30
0.0
 10
235.154242266055
 20
-163.2158262504287
 30
0.0
 10
235.154242266055
 20
-158.1629047022127
 30
0.0
 10
237.3330929057012
 20
-155.381334607422
 30
0.0
 10
240.3926822061516
 20
-155.381334607422
 30
0.0
 10
243.5681989696807
 20
-155.381334607422
 30
0.0
 10
245.3761850803398
 20
-158.2092412364893
 30
0.0
 10
245.3761850803398
 20
-163.0072257187968
 30
0.0
  0
HATCH
  5
B9
330
95
100
AcDbEntity
  8
Layer 1
 62
     7
440
 33554687
100
AcDbHatch
 10
0.0
 20
0.0
 30
0.0
210
0.0
220
0.0
230
1.0
  2
SOLID
 70
     1
 71
     1
 91
        2
 92
        1
 93
        1
 72
     4
 94
        3
 73
     0
 74
     0
 95
       17
 96
       13
 40
0.0
 40
0.0
 40
0.0
 40
0.0
 40
1.0
 40
1.0
 40
1.0
 40
2.0
 40
2.0
 40
2.0
 40
3.0
 40
3.0
 40
3.0
 40
4.0
 40
4.0
 40
4.0
 40
4.0
 10
237.1940833028714
 20
-163.2390806449541
 10
237.1940833028714
 20
-167.1563264664574
 10
238.3993499583861
 20
-169.3815136403803
 10
240.2536726033218
 20
-169.3815136403803
 10
242.3398501744149
 20
-169.3815136403803
 10
243.3365162982976
 20
-166.9477259348255
 10
243.3365162982976
 20
-163.09989878735
 10
243.3365162982976
 20
-159.3912534974785
 10
242.3861867086915
 20
-156.9574657919238
 10
240.2769269978473
 20
-156.9574657919238
 10
238.4920230269393
 20
-156.9574657919238
 10
237.1940833028714
 20
-159.13631643157
 10
237.1940833028714
 20
-163.2390806449541
 97
        1
330
B7
 92
        1
 93
        1
 72
     4
 94
        3
 73
     0
 74
     0
 95
       17
 96
       13
 40
0.0
 40
0.0
 40
0.0
 40
0.0
 40
1.0
 40
1.0
 40
1.0
 40
2.0
 40
2.0
 40
2.0
 40
3.0
 40
3.0
 40
3.0
 40
4.0
 40
4.0
 40
4.0
 40
4.0
 10
245.3761850803398
 20
-163.0072257187968
 10
245.3761850803398
 20
-168.129910450589
 10
243.4755259011275
 20
-170.9576448248821
 10
240.1377451402431
 20
-170.9576448248821
 10
237.1940833028714
 20
-170.9576448248821
 10
235.2005788003316
 20
-168.1993291246168
 10
235.154242266055
 20
-163.2158262504287
 10
235.154242266055
 20
-158.1629047022127
 10
237.3330929057012
 20
-155.381334607422
 10
240.3926822061516
 20
-155.381334607422
 10
243.5681989696807
 20
-155.381334607422
 10
245.3761850803398
 20
-158.2092412364893
 10
245.3761850803398
 20
-163.0072257187968
 97
        1
330
B8
 75
     2
 76
     1
 98
        1
 10
0.0
 20
0.0
450
        0
451
        0
460
0.0
461
0.0
452
        0
462
0.0
453
        0
470

  0
SPLINE
  5
BA
330
95
100
AcDbEntity
  8
Layer 1
100
AcDbSpline
210
0.0
220
0.0
230
1.0
 70
     9
 71
     3
 72
    17
 73
    13
 74
     0
 42
0.0000000001
 43
0.0000000001
 40
0.0
 40
0.0
 40
0.0
 40
0.0
 40
1.0
 40
1.0
 40
1.0
 40
2.0
 40
2.0
 40
2.0
 40
3.0
 40
3.0
 40
3.0
 40
4.0
 40
4.0
 40
4.0
 40
4.0
 10
247.4156816076077
 20
-169.4974411034589
 30
0.0
 10
247.4156816076077
 20
-168.639784582406
 30
0.0
 10
247.9951466682267
 20
-168.0370651272616
 30
0.0
 10
248.806466655003
 20
-168.0370651272616
 30
0.0
 10
249.6177866417794
 20
-168.0370651272616
 30
0.0
 10
250.173997307873
 20
-168.639784582406
 30
0.0
 10
250.173997307873
 20
-169.4974411034589
 30
0.0
 10
250.173997307873
 20
-170.3318432299864
 30
0.0
 10
249.6408687815306
 20
-170.9576448248821
 30
0.0
 10
248.7832122604776
 20
-170.9576448248821
 30
0.0
 10
247.9720645284756
 20
-170.9576448248821
 30
0.0
 10
247.4156816076077
 20
-170.3318432299864
 30
0.0
 10
247.4156816076077
 20
-169.4974411034589
 30
0.0
  0
HATCH
  5
BB
330
95
100
AcDbEntity
  8
Layer 1
 62
     7
440
 33554687
100
AcDbHatch
 10
0.0
 20
0.0
 30
0.0
210
0.0
220
0.0
230
1.0
  2
SOLID
 70
     1
 71
     1
 91
        1
 92
        1
 93
        1
 72
     4
 94
        3
 73
     0
 74
     0
 95
       17
 96
       13
 40
0.0
 40
0.0
 40
0.0
 40
0.0
 40
1.0
 40
1.0
 40
1.0
 40
2.0
 40
2.0
 40
2.0
 40
3.0
 40
3.0
 40
3.0
 40
4.0
 40
4.0
 40
4.0
 40
4.0
 10
247.4156816076077
 20
-169.4974411034589
 10
247.4156816076077
 20
-168.639784582406
 10
247.9951466682267
 20
-168.0370651272616
 10
248.806466655003
 20
-168.0370651272616
 10
249.6177866417794
 20
-168.0370651272616
 10
250.173997307873
 20
-168.639784582406
 10
250.173997307873
 20
-169.4974411034589
 10
250.173997307873
 20
-170.3318432299864
 10
249.6408687815306
 20
-170.9576448248821
 10
248.7832122604776
 20
-170.9576448248821
 10
247.9720645284756
 20
-170.9576448248821
 10
247.4156816076077
 20
-170.3318432299864
 10
247.4156816076077
 20
-169.4974411034589
 97
        1
330
BA
 75
     2
 76
     1
 98
        1
 10
0.0
 20
0.0
450
        0
451
        0
460
0.0
461
0.0
452
        0
462
0.0
453
        0
470

  0
SPLINE
  5
BC
330
95
100
AcDbEntity
  8
Layer 1
100
AcDbSpline
210
0.0
220
0.0
230
1.0
 70
    11
 71
     3
 72
    26
 73
    22
 74
     0
 42
0.0000000001
 43
0.0000000001
 40
0.0
 40
0.0
 40
0.0
 40
0.0
 40
1.0
 40
1.0
 40
1.0
 40
2.0
 40
2.0
 40
2.0
 40
3.0
 40
3.0
 40
3.0
 40
4.0
 40
4.0
 40
4.0
 40
5.0
 40
5.0
 40
5.0
 40
6.0
 40
6.0
 40
6.0
 40
7.0
 40
7.0
 40
7.0
 40
7.0
 10
258.3557545757928
 20
-165.0007302213366
 30
0.0
 10
258.3557545757928
 20
-165.0007302213366
 30
0.0
 10
258.3557545757928
 20
-159.9708908128718
 30
0.0
 10
258.3557545757928
 20
-159.9708908128718
 30
0.0
 10
258.3557545757928
 20
-159.1826529658467
 30
0.0
 10
258.3790089703182
 20
-158.3945873735958
 30
0.0
 10
258.4253455045949
 20
-157.6065217813449
 30
0.0
 10
258.4253455045949
 20
-157.6065217813449
 30
0.0
 10
258.3557545757928
 20
-157.6065217813449
 30
0.0
 10
258.3557545757928
 20
-157.6065217813449
 30
0.0
 10
257.8922169782525
 20
-158.4874326969232
 30
0.0
 10
257.5213524492653
 20
-159.13631643157
 30
0.0
 10
257.1041513860016
 20
-159.8317089552677
 30
0.0
 10
257.1041513860016
 20
-159.8317089552677
 30
0.0
 10
253.4187604906555
 20
-164.95439368706
 30
0.0
 10
253.4187604906555
 20
-164.95439368706
 30
0.0
 10
253.4187604906555
 20
-164.95439368706
 30
0.0
 10
253.4187604906555
 20
-165.0007302213366
 30
0.0
 10
253.4187604906555
 20
-165.0007302213366
 30
0.0
 10
253.4187604906555
 20
-165.0007302213366
 30
0.0
 10
258.3557545757928
 20
-165.0007302213366
 30
0.0
 10
258.3557545757928
 20
-165.0007302213366
 30
0.0
  0
SPLINE
  5
BD
330
95
100
AcDbEntity
  8
Layer 1
100
AcDbSpline
210
0.0
220
0.0
230
1.0
 70
    11
 71
     3
 72
    38
 73
    34
 74
     0
 42
0.0000000001
 43
0.0000000001
 40
0.0
 40
0.0
 40
0.0
 40
0.0
 40
1.0
 40
1.0
 40
1.0
 40
2.0
 40
2.0
 40
2.0
 40
3.0
 40
3.0
 40
3.0
 40
4.0
 40
4.0
 40
4.0
 40
5.0
 40
5.0
 40
5.0
 40
6.0
 40
6.0
 40
6.0
 40
7.0
 40
7.0
 40
7.0
 40
8.0
 40
8.0
 40
8.0
 40
9.0
 40
9.0
 40
9.0
 40
10.0
 40
10.0
 40
10.0
 40
11.0
 40
11.0
 40
11.0
 40
11.0
 10
258.3557545757928
 20
-170.7027077589736
 30
0.0
 10
258.3557545757928
 20
-170.7027077589736
 30
0.0
 10
258.3557545757928
 20
-166.5999435455896
 30
0.0
 10
258.3557545757928
 20
-166.5999435455896
 30
0.0
 10
258.3557545757928
 20
-166.5999435455896
 30
0.0
 10
251.3556650593137
 20
-166.5999435455896
 30
0.0
 10
251.3556650593137
 20
-166.5999435455896
 30
0.0
 10
251.3556650593137
 20
-166.5999435455896
 30
0.0
 10
251.3556650593137
 20
-165.2556672872451
 30
0.0
 10
251.3556650593137
 20
-165.2556672872451
 30
0.0
 10
251.3556650593137
 20
-165.2556672872451
 30
0.0
 10
258.0777353701332
 20
-155.6362716733305
 30
0.0
 10
258.0777353701332
 20
-155.6362716733305
 30
0.0
 10
258.0777353701332
 20
-155.6362716733305
 30
0.0
 10
260.2796681495306
 20
-155.6362716733305
 30
0.0
 10
260.2796681495306
 20
-155.6362716733305
 30
0.0
 10
260.2796681495306
 20
-155.6362716733305
 30
0.0
 10
260.2796681495306
 20
-165.0007302213366
 30
0.0
 10
260.2796681495306
 20
-165.0007302213366
 30
0.0
 10
260.2796681495306
 20
-165.0007302213366
 30
0.0
 10
262.3889278603748
 20
-165.0007302213366
 30
0.0
 10
262.3889278603748
 20
-165.0007302213366
 30
0.0
 10
262.3889278603748
 20
-165.0007302213366
 30
0.0
 10
262.3889278603748
 20
-166.5999435455896
 30
0.0
 10
262.3889278603748
 20
-166.5999435455896
 30
0.0
 10
262.3889278603748
 20
-166.5999435455896
 30
0.0
 10
260.2796681495306
 20
-166.5999435455896
 30
0.0
 10
260.2796681495306
 20
-166.5999435455896
 30
0.0
 10
260.2796681495306
 20
-166.5999435455896
 30
0.0
 10
260.2796681495306
 20
-170.7027077589736
 30
0.0
 10
260.2796681495306
 20
-170.7027077589736
 30
0.0
 10
260.2796681495306
 20
-170.7027077589736
 30
0.0
 10
258.3557545757928
 20
-170.7027077589736
 30
0.0
 10
258.3557545757928
 20
-170.7027077589736
 30
0.0
  0
HATCH
  5
BE
330
95
100
AcDbEntity
  8
Layer 1
 62
     7
440
 33554687
100
AcDbHatch
 10
0.0
 20
0.0
 30
0.0
210
0.0
220
0.0
230
1.0
  2
SOLID
 70
     1
 71
     1
 91
        2
 92
        1
 93
        1
 72
     4
 94
        3
 73
     0
 74
     0
 95
       26
 96
       22
 40
0.0
 40
0.0
 40
0.0
 40
0.0
 40
1.0
 40
1.0
 40
1.0
 40
2.0
 40
2.0
 40
2.0
 40
3.0
 40
3.0
 40
3.0
 40
4.0
 40
4.0
 40
4.0
 40
5.0
 40
5.0
 40
5.0
 40
6.0
 40
6.0
 40
6.0
 40
7.0
 40
7.0
 40
7.0
 40
7.0
 10
258.3557545757928
 20
-165.0007302213366
 10
258.3557545757928
 20
-165.0007302213366
 10
258.3557545757928
 20
-159.9708908128718
 10
258.3557545757928
 20
-159.9708908128718
 10
258.3557545757928
 20
-159.1826529658467
 10
258.3790089703182
 20
-158.3945873735958
 10
258.4253455045949
 20
-157.6065217813449
 10
258.4253455045949
 20
-157.6065217813449
 10
258.3557545757928
 20
-157.6065217813449
 10
258.3557545757928
 20
-157.6065217813449
 10
257.8922169782525
 20
-158.4874326969232
 10
257.5213524492653
 20
-159.13631643157
 10
257.1041513860016
 20
-159.8317089552677
 10
257.1041513860016
 20
-159.8317089552677
 10
253.4187604906555
 20
-164.95439368706
 10
253.4187604906555
 20
-164.95439368706
 10
253.4187604906555
 20
-164.95439368706
 10
253.4187604906555
 20
-165.0007302213366
 10
253.4187604906555
 20
-165.0007302213366
 10
253.4187604906555
 20
-165.0007302213366
 10
258.3557545757928
 20
-165.0007302213366
 10
258.3557545757928
 20
-165.0007302213366
 97
        1
330
BC
 92
        1
 93
        1
 72
     4
 94
        3
 73
     0
 74
     0
 95
       38
 96
       34
 40
0.0
 40
0.0
 40
0.0
 40
0.0
 40
1.0
 40
1.0
 40
1.0
 40
2.0
 40
2.0
 40
2.0
 40
3.0
 40
3.0
 40
3.0
 40
4.0
 40
4.0
 40
4.0
 40
5.0
 40
5.0
 40
5.0
 40
6.0
 40
6.0
 40
6.0
 40
7.0
 40
7.0
 40
7.0
 40
8.0
 40
8.0
 40
8.0
 40
9.0
 40
9.0
 40
9.0
 40
10.0
 40
10.0
 40
10.0
 40
11.0
 40
11.0
 40
11.0
 40
11.0
 10
258.3557545757928
 20
-170.7027077589736
 10
258.3557545757928
 20
-170.7027077589736
 10
258.3557545757928
 20
-166.5999435455896
 10
258.3557545757928
 20
-166.5999435455896
 10
258.3557545757928
 20
-166.5999435455896
 10
251.3556650593137
 20
-166.5999435455896
 10
251.3556650593137
 20
-166.5999435455896
 10
251.3556650593137
 20
-166.5999435455896
 10
251.3556650593137
 20
-165.2556672872451
 10
251.3556650593137
 20
-165.2556672872451
 10
251.3556650593137
 20
-165.2556672872451
 10
258.0777353701332
 20
-155.6362716733305
 10
258.0777353701332
 20
-155.6362716733305
 10
258.0777353701332
 20
-155.6362716733305
 10
260.2796681495306
 20
-155.6362716733305
 10
260.2796681495306
 20
-155.6362716733305
 10
260.2796681495306
 20
-155.6362716733305
 10
260.2796681495306
 20
-165.0007302213366
 10
260.2796681495306
 20
-165.0007302213366
 10
260.2796681495306
 20
-165.0007302213366
 10
262.3889278603748
 20
-165.0007302213366
 10
262.3889278603748
 20
-165.0007302213366
 10
262.3889278603748
 20
-165.0007302213366
 10
262.3889278603748
 20
-166.5999435455896
 10
262.3889278603748
 20
-166.5999435455896
 10
262.3889278603748
 20
-166.5999435455896
 10
260.2796681495306
 20
-166.5999435455896
 10
260.2796681495306
 20
-166.5999435455896
 10
260.2796681495306
 20
-166.5999435455896
 10
260.2796681495306
 20
-170.7027077589736
 10
260.2796681495306
 20
-170.7027077589736
 10
260.2796681495306
 20
-170.7027077589736
 10
258.3557545757928
 20
-170.7027077589736
 10
258.3557545757928
 20
-170.7027077589736
 97
        1
330
BD
 75
     2
 76
     1
 98
        1
 10
0.0
 20
0.0
450
        0
451
        0
460
0.0
461
0.0
452
        0
462
0.0
453
        0
470

  0
SPLINE
  5
BF
330
95
100
AcDbEntity
  8
Layer 1
100
AcDbSpline
210
0.0
220
0.0
230
1.0
 70
     9
 71
     3
 72
    80
 73
    76
 74
     0
 42
0.0000000001
 43
0.0000000001
 40
0.0
 40
0.0
 40
0.0
 40
0.0
 40
1.0
 40
1.0
 40
1.0
 40
2.0
 40
2.0
 40
2.0
 40
3.0
 40
3.0
 40
3.0
 40
4.0
 40
4.0
 40
4.0
 40
5.0
 40
5.0
 40
5.0
 40
6.0
 40
6.0
 40
6.0
 40
7.0
 40
7.0
 40
7.0
 40
8.0
 40
8.0
 40
8.0
 40
9.0
 40
9.0
 40
9.0
 40
10.0
 40
10.0
 40
10.0
 40
11.0
 40
11.0
 40
11.0
 40
12.0
 40
12.0
 40
12.0
 40
13.0
 40
13.0
 40
13.0
 40
14.0
 40
14.0
 40
14.0
 40
15.0
 40
15.0
 40
15.0
 40
16.0
 40
16.0
 40
16.0
 40
17.0
 40
17.0
 40
17.0
 40
18.0
 40
18.0
 40
18.0
 40
19.0
 40
19.0
 40
19.0
 40
20.0
 40
20.0
 40
20.0
 40
21.0
 40
21.0
 40
21.0
 40
22.0
 40
22.0
 40
22.0
 40
23.0
 40
23.0
 40
23.0
 40
24.0
 40
24.0
 40
24.0
 40
25.0
 40
25.0
 40
25.0
 40
25.0
 10
269.5044280756099
 20
-162.520433726731
 30
0.0
 10
269.5044280756099
 20
-161.3615036054929
 30
0.0
 10
269.4811736810844
 20
-160.4111740158868
 30
0.0
 10
269.4117550070566
 20
-159.484098820806
 30
0.0
 10
269.4117550070566
 20
-159.484098820806
 30
0.0
 10
271.1964867231903
 20
-159.484098820806
 30
0.0
 10
271.1964867231903
 20
-159.484098820806
 30
0.0
 10
271.1964867231903
 20
-159.484098820806
 30
0.0
 10
271.2891597917435
 20
-161.2920849314651
 30
0.0
 10
271.2891597917435
 20
-161.2920849314651
 30
0.0
 10
271.2891597917435
 20
-161.2920849314651
 30
0.0
 10
271.3587507205456
 20
-161.2920849314651
 30
0.0
 10
271.3587507205456
 20
-161.2920849314651
 30
0.0
 10
271.9845523154412
 20
-160.2258278787803
 30
0.0
 10
273.0277272283748
 20
-159.2291617548976
 30
0.0
 10
274.8820498733106
 20
-159.2291617548976
 30
0.0
 10
276.4118445235358
 20
-159.2291617548976
 30
0.0
 10
277.5707746447738
 20
-160.1562369499783
 30
0.0
 10
278.0575666368396
 20
-161.4774310685716
 30
0.0
 10
278.0575666368396
 20
-161.4774310685716
 30
0.0
 10
278.1039031711162
 20
-161.4774310685716
 30
0.0
 10
278.1039031711162
 20
-161.4774310685716
 30
0.0
 10
278.4515133055779
 20
-160.851629473676
 30
0.0
 10
278.8919687633671
 20
-160.3648374816102
 30
0.0
 10
279.3555063609074
 20
-160.0172273471484
 30
0.0
 10
280.0276444900797
 20
-159.5071809605572
 30
0.0
 10
280.769373548054
 20
-159.2291617548976
 30
0.0
 10
281.8356306007388
 20
-159.2291617548976
 30
0.0
 10
283.3190887166874
 20
-159.2291617548976
 30
0.0
 10
285.5211937508591
 20
-160.2025734842549
 30
0.0
 10
285.5211937508591
 20
-164.096737166007
 30
0.0
 10
285.5211937508591
 20
-164.096737166007
 30
0.0
 10
285.5211937508591
 20
-170.7027077589736
 30
0.0
 10
285.5211937508591
 20
-170.7027077589736
 30
0.0
 10
285.5211937508591
 20
-170.7027077589736
 30
0.0
 10
283.5276892483193
 20
-170.7027077589736
 30
0.0
 10
283.5276892483193
 20
-170.7027077589736
 30
0.0
 10
283.5276892483193
 20
-170.7027077589736
 30
0.0
 10
283.5276892483193
 20
-164.3516742319155
 30
0.0
 10
283.5276892483193
 20
-164.3516742319155
 30
0.0
 10
283.5276892483193
 20
-162.1960779867947
 30
0.0
 10
282.7396236560684
 20
-160.8979660079526
 30
0.0
 10
281.0939015427645
 20
-160.8979660079526
 30
0.0
 10
279.9349714215265
 20
-160.8979660079526
 30
0.0
 10
279.0309783661969
 20
-161.7556225290055
 30
0.0
 10
278.6833682317352
 20
-162.7522886528883
 30
0.0
 10
278.590695163182
 20
-163.0304801133222
 30
0.0
 10
278.5211042343799
 20
-163.4013446423093
 30
0.0
 10
278.5211042343799
 20
-163.7722091712965
 30
0.0
 10
278.5211042343799
 20
-163.7722091712965
 30
0.0
 10
278.5211042343799
 20
-170.7027077589736
 30
0.0
 10
278.5211042343799
 20
-170.7027077589736
 30
0.0
 10
278.5211042343799
 20
-170.7027077589736
 30
0.0
 10
276.5277719866144
 20
-170.7027077589736
 30
0.0
 10
276.5277719866144
 20
-170.7027077589736
 30
0.0
 10
276.5277719866144
 20
-170.7027077589736
 30
0.0
 10
276.5277719866144
 20
-163.9808097029284
 30
0.0
 10
276.5277719866144
 20
-163.9808097029284
 30
0.0
 10
276.5277719866144
 20
-162.1960779867947
 30
0.0
 10
275.7395341395892
 20
-160.8979660079526
 30
0.0
 10
274.1866573496129
 20
-160.8979660079526
 30
0.0
 10
272.9117997652962
 20
-160.8979660079526
 30
0.0
 10
271.9845523154412
 20
-161.9178865263608
 30
0.0
 10
271.6600243207306
 20
-162.937807044769
 30
0.0
 10
271.5442691124263
 20
-163.2390806449541
 30
0.0
 10
271.4977603233754
 20
-163.5866907794158
 30
0.0
 10
271.4977603233754
 20
-163.9344731686517
 30
0.0
 10
271.4977603233754
 20
-163.9344731686517
 30
0.0
 10
271.4977603233754
 20
-170.7027077589736
 30
0.0
 10
271.4977603233754
 20
-170.7027077589736
 30
0.0
 10
271.4977603233754
 20
-170.7027077589736
 30
0.0
 10
269.5044280756099
 20
-170.7027077589736
 30
0.0
 10
269.5044280756099
 20
-170.7027077589736
 30
0.0
 10
269.5044280756099
 20
-170.7027077589736
 30
0.0
 10
269.5044280756099
 20
-162.520433726731
 30
0.0
 10
269.5044280756099
 20
-162.520433726731
 30
0.0
  0
HATCH
  5
C0
330
95
100
AcDbEntity
  8
Layer 1
 62
     7
440
 33554687
100
AcDbHatch
 10
0.0
 20
0.0
 30
0.0
210
0.0
220
0.0
230
1.0
  2
SOLID
 70
     1
 71
     1
 91
        1
 92
        1
 93
        1
 72
     4
 94
        3
 73
     0
 74
     0
 95
       80
 96
       76
 40
0.0
 40
0.0
 40
0.0
 40
0.0
 40
1.0
 40
1.0
 40
1.0
 40
2.0
 40
2.0
 40
2.0
 40
3.0
 40
3.0
 40
3.0
 40
4.0
 40
4.0
 40
4.0
 40
5.0
 40
5.0
 40
5.0
 40
6.0
 40
6.0
 40
6.0
 40
7.0
 40
7.0
 40
7.0
 40
8.0
 40
8.0
 40
8.0
 40
9.0
 40
9.0
 40
9.0
 40
10.0
 40
10.0
 40
10.0
 40
11.0
 40
11.0
 40
11.0
 40
12.0
 40
12.0
 40
12.0
 40
13.0
 40
13.0
 40
13.0
 40
14.0
 40
14.0
 40
14.0
 40
15.0
 40
15.0
 40
15.0
 40
16.0
 40
16.0
 40
16.0
 40
17.0
 40
17.0
 40
17.0
 40
18.0
 40
18.0
 40
18.0
 40
19.0
 40
19.0
 40
19.0
 40
20.0
 40
20.0
 40
20.0
 40
21.0
 40
21.0
 40
21.0
 40
22.0
 40
22.0
 40
22.0
 40
23.0
 40
23.0
 40
23.0
 40
24.0
 40
24.0
 40
24.0
 40
25.0
 40
25.0
 40
25.0
 40
25.0
 10
269.5044280756099
 20
-162.520433726731
 10
269.5044280756099
 20
-161.3615036054929
 10
269.4811736810844
 20
-160.4111740158868
 10
269.4117550070566
 20
-159.484098820806
 10
269.4117550070566
 20
-159.484098820806
 10
271.1964867231903
 20
-159.484098820806
 10
271.1964867231903
 20
-159.484098820806
 10
271.1964867231903
 20
-159.484098820806
 10
271.2891597917435
 20
-161.2920849314651
 10
271.2891597917435
 20
-161.2920849314651
 10
271.2891597917435
 20
-161.2920849314651
 10
271.3587507205456
 20
-161.2920849314651
 10
271.3587507205456
 20
-161.2920849314651
 10
271.9845523154412
 20
-160.2258278787803
 10
273.0277272283748
 20
-159.2291617548976
 10
274.8820498733106
 20
-159.2291617548976
 10
276.4118445235358
 20
-159.2291617548976
 10
277.5707746447738
 20
-160.1562369499783
 10
278.0575666368396
 20
-161.4774310685716
 10
278.0575666368396
 20
-161.4774310685716
 10
278.1039031711162
 20
-161.4774310685716
 10
278.1039031711162
 20
-161.4774310685716
 10
278.4515133055779
 20
-160.851629473676
 10
278.8919687633671
 20
-160.3648374816102
 10
279.3555063609074
 20
-160.0172273471484
 10
280.0276444900797
 20
-159.5071809605572
 10
280.769373548054
 20
-159.2291617548976
 10
281.8356306007388
 20
-159.2291617548976
 10
283.3190887166874
 20
-159.2291617548976
 10
285.5211937508591
 20
-160.2025734842549
 10
285.5211937508591
 20
-164.096737166007
 10
285.5211937508591
 20
-164.096737166007
 10
285.5211937508591
 20
-170.7027077589736
 10
285.5211937508591
 20
-170.7027077589736
 10
285.5211937508591
 20
-170.7027077589736
 10
283.5276892483193
 20
-170.7027077589736
 10
283.5276892483193
 20
-170.7027077589736
 10
283.5276892483193
 20
-170.7027077589736
 10
283.5276892483193
 20
-164.3516742319155
 10
283.5276892483193
 20
-164.3516742319155
 10
283.5276892483193
 20
-162.1960779867947
 10
282.7396236560684
 20
-160.8979660079526
 10
281.0939015427645
 20
-160.8979660079526
 10
279.9349714215265
 20
-160.8979660079526
 10
279.0309783661969
 20
-161.7556225290055
 10
278.6833682317352
 20
-162.7522886528883
 10
278.590695163182
 20
-163.0304801133222
 10
278.5211042343799
 20
-163.4013446423093
 10
278.5211042343799
 20
-163.7722091712965
 10
278.5211042343799
 20
-163.7722091712965
 10
278.5211042343799
 20
-170.7027077589736
 10
278.5211042343799
 20
-170.7027077589736
 10
278.5211042343799
 20
-170.7027077589736
 10
276.5277719866144
 20
-170.7027077589736
 10
276.5277719866144
 20
-170.7027077589736
 10
276.5277719866144
 20
-170.7027077589736
 10
276.5277719866144
 20
-163.9808097029284
 10
276.5277719866144
 20
-163.9808097029284
 10
276.5277719866144
 20
-162.1960779867947
 10
275.7395341395892
 20
-160.8979660079526
 10
274.1866573496129
 20
-160.8979660079526
 10
272.9117997652962
 20
-160.8979660079526
 10
271.9845523154412
 20
-161.9178865263608
 10
271.6600243207306
 20
-162.937807044769
 10
271.5442691124263
 20
-163.2390806449541
 10
271.4977603233754
 20
-163.5866907794158
 10
271.4977603233754
 20
-163.9344731686517
 10
271.4977603233754
 20
-163.9344731686517
 10
271.4977603233754
 20
-170.7027077589736
 10
271.4977603233754
 20
-170.7027077589736
 10
271.4977603233754
 20
-170.7027077589736
 10
269.5044280756099
 20
-170.7027077589736
 10
269.5044280756099
 20
-170.7027077589736
 10
269.5044280756099
 20
-170.7027077589736
 10
269.5044280756099
 20
-162.520433726731
 10
269.5044280756099
 20
-162.520433726731
 97
        1
330
BF
 75
     2
 76
     1
 98
        1
 10
0.0
 20
0.0
450
        0
451
        0
460
0.0
461
0.0
452
        0
462
0.0
453
        0
470

  0
SPLINE
  5
C1
330
95
100
AcDbEntity
  8
Layer 1
100
AcDbSpline
210
0.0
220
0.0
230
1.0
 70
     9
 71
     3
 72
    80
 73
    76
 74
     0
 42
0.0000000001
 43
0.0000000001
 40
0.0
 40
0.0
 40
0.0
 40
0.0
 40
1.0
 40
1.0
 40
1.0
 40
2.0
 40
2.0
 40
2.0
 40
3.0
 40
3.0
 40
3.0
 40
4.0
 40
4.0
 40
4.0
 40
5.0
 40
5.0
 40
5.0
 40
6.0
 40
6.0
 40
6.0
 40
7.0
 40
7.0
 40
7.0
 40
8.0
 40
8.0
 40
8.0
 40
9.0
 40
9.0
 40
9.0
 40
10.0
 40
10.0
 40
10.0
 40
11.0
 40
11.0
 40
11.0
 40
12.0
 40
12.0
 40
12.0
 40
13.0
 40
13.0
 40
13.0
 40
14.0
 40
14.0
 40
14.0
 40
15.0
 40
15.0
 40
15.0
 40
16.0
 40
16.0
 40
16.0
 40
17.0
 40
17.0
 40
17.0
 40
18.0
 40
18.0
 40
18.0
 40
19.0
 40
19.0
 40
19.0
 40
20.0
 40
20.0
 40
20.0
 40
21.0
 40
21.0
 40
21.0
 40
22.0
 40
22.0
 40
22.0
 40
23.0
 40
23.0
 40
23.0
 40
24.0
 40
24.0
 40
24.0
 40
25.0
 40
25.0
 40
25.0
 40
25.0
 10
288.835720117218
 20
-162.520433726731
 30
0.0
 10
288.835720117218
 20
-161.3615036054929
 30
0.0
 10
288.8126379774668
 20
-160.4111740158868
 30
0.0
 10
288.7430470486647
 20
-159.484098820806
 30
0.0
 10
288.7430470486647
 20
-159.484098820806
 30
0.0
 10
290.5277787647984
 20
-159.484098820806
 30
0.0
 10
290.5277787647984
 20
-159.484098820806
 30
0.0
 10
290.5277787647984
 20
-159.484098820806
 30
0.0
 10
290.6204518333516
 20
-161.2920849314651
 30
0.0
 10
290.6204518333516
 20
-161.2920849314651
 30
0.0
 10
290.6204518333516
 20
-161.2920849314651
 30
0.0
 10
290.6900427621537
 20
-161.2920849314651
 30
0.0
 10
290.6900427621537
 20
-161.2920849314651
 30
0.0
 10
291.3158443570493
 20
-160.2258278787803
 30
0.0
 10
292.359019269983
 20
-159.2291617548976
 30
0.0
 10
294.2133419149187
 20
-159.2291617548976
 30
0.0
 10
295.7431365651439
 20
-159.2291617548976
 30
0.0
 10
296.9020666863819
 20
-160.1562369499783
 30
0.0
 10
297.3888586784477
 20
-161.4774310685716
 30
0.0
 10
297.3888586784477
 20
-161.4774310685716
 30
0.0
 10
297.4351952127244
 20
-161.4774310685716
 30
0.0
 10
297.4351952127244
 20
-161.4774310685716
 30
0.0
 10
297.7828053471861
 20
-160.851629473676
 30
0.0
 10
298.2232608049752
 20
-160.3648374816102
 30
0.0
 10
298.6867984025156
 20
-160.0172273471484
 30
0.0
 10
299.3589365316879
 20
-159.5071809605572
 30
0.0
 10
300.1006655896621
 20
-159.2291617548976
 30
0.0
 10
301.166922642347
 20
-159.2291617548976
 30
0.0
 10
302.6503807582956
 20
-159.2291617548976
 30
0.0
 10
304.8524857924672
 20
-160.2025734842549
 30
0.0
 10
304.8524857924672
 20
-164.096737166007
 30
0.0
 10
304.8524857924672
 20
-164.096737166007
 30
0.0
 10
304.8524857924672
 20
-170.7027077589736
 30
0.0
 10
304.8524857924672
 20
-170.7027077589736
 30
0.0
 10
304.8524857924672
 20
-170.7027077589736
 30
0.0
 10
302.8589812899274
 20
-170.7027077589736
 30
0.0
 10
302.8589812899274
 20
-170.7027077589736
 30
0.0
 10
302.8589812899274
 20
-170.7027077589736
 30
0.0
 10
302.8589812899274
 20
-164.3516742319155
 30
0.0
 10
302.8589812899274
 20
-164.3516742319155
 30
0.0
 10
302.8589812899274
 20
-162.1960779867947
 30
0.0
 10
302.0709156976765
 20
-160.8979660079526
 30
0.0
 10
300.4251935843726
 20
-160.8979660079526
 30
0.0
 10
299.2662634631346
 20
-160.8979660079526
 30
0.0
 10
298.3622704078051
 20
-161.7556225290055
 30
0.0
 10
298.0146602733434
 20
-162.7522886528883
 30
0.0
 10
297.9219872047901
 20
-163.0304801133222
 30
0.0
 10
297.8523962759881
 20
-163.4013446423093
 30
0.0
 10
297.8523962759881
 20
-163.7722091712965
 30
0.0
 10
297.8523962759881
 20
-163.7722091712965
 30
0.0
 10
297.8523962759881
 20
-170.7027077589736
 30
0.0
 10
297.8523962759881
 20
-170.7027077589736
 30
0.0
 10
297.8523962759881
 20
-170.7027077589736
 30
0.0
 10
295.8588917734483
 20
-170.7027077589736
 30
0.0
 10
295.8588917734483
 20
-170.7027077589736
 30
0.0
 10
295.8588917734483
 20
-170.7027077589736
 30
0.0
 10
295.8588917734483
 20
-163.9808097029284
 30
0.0
 10
295.8588917734483
 20
-163.9808097029284
 30
0.0
 10
295.8588917734483
 20
-162.1960779867947
 30
0.0
 10
295.0708261811974
 20
-160.8979660079526
 30
0.0
 10
293.517949391221
 20
-160.8979660079526
 30
0.0
 10
292.2430918069043
 20
-160.8979660079526
 30
0.0
 10
291.3158443570493
 20
-161.9178865263608
 30
0.0
 10
290.9913163623388
 20
-162.937807044769
 30
0.0
 10
290.8755611540344
 20
-163.2390806449541
 30
0.0
 10
290.8290523649835
 20
-163.5866907794158
 30
0.0
 10
290.8290523649835
 20
-163.9344731686517
 30
0.0
 10
290.8290523649835
 20
-163.9344731686517
 30
0.0
 10
290.8290523649835
 20
-170.7027077589736
 30
0.0
 10
290.8290523649835
 20
-170.7027077589736
 30
0.0
 10
290.8290523649835
 20
-170.7027077589736
 30
0.0
 10
288.835720117218
 20
-170.7027077589736
 30
0.0
 10
288.835720117218
 20
-170.7027077589736
 30
0.0
 10
288.835720117218
 20
-170.7027077589736
 30
0.0
 10
288.835720117218
 20
-162.520433726731
 30
0.0
 10
288.835720117218
 20
-162.520433726731
 30
0.0
  0
HATCH
  5
C2
330
95
100
AcDbEntity
  8
Layer 1
 62
     7
440
 33554687
100
AcDbHatch
 10
0.0
 20
0.0
 30
0.0
210
0.0
220
0.0
230
1.0
  2
SOLID
 70
     1
 71
     1
 91
        1
 92
        1
 93
        1
 72
     4
 94
        3
 73
     0
 74
     0
 95
       80
 96
       76
 40
0.0
 40
0.0
 40
0.0
 40
0.0
 40
1.0
 40
1.0
 40
1.0
 40
2.0
 40
2.0
 40
2.0
 40
3.0
 40
3.0
 40
3.0
 40
4.0
 40
4.0
 40
4.0
 40
5.0
 40
5.0
 40
5.0
 40
6.0
 40
6.0
 40
6.0
 40
7.0
 40
7.0
 40
7.0
 40
8.0
 40
8.0
 40
8.0
 40
9.0
 40
9.0
 40
9.0
 40
10.0
 40
10.0
 40
10.0
 40
11.0
 40
11.0
 40
11.0
 40
12.0
 40
12.0
 40
12.0
 40
13.0
 40
13.0
 40
13.0
 40
14.0
 40
14.0
 40
14.0
 40
15.0
 40
15.0
 40
15.0
 40
16.0
 40
16.0
 40
16.0
 40
17.0
 40
17.0
 40
17.0
 40
18.0
 40
18.0
 40
18.0
 40
19.0
 40
19.0
 40
19.0
 40
20.0
 40
20.0
 40
20.0
 40
21.0
 40
21.0
 40
21.0
 40
22.0
 40
22.0
 40
22.0
 40
23.0
 40
23.0
 40
23.0
 40
24.0
 40
24.0
 40
24.0
 40
25.0
 40
25.0
 40
25.0
 40
25.0
 10
288.835720117218
 20
-162.520433726731
 10
288.835720117218
 20
-161.3615036054929
 10
288.8126379774668
 20
-160.4111740158868
 10
288.7430470486647
 20
-159.484098820806
 10
288.7430470486647
 20
-159.484098820806
 10
290.5277787647984
 20
-159.484098820806
 10
290.5277787647984
 20
-159.484098820806
 10
290.5277787647984
 20
-159.484098820806
 10
290.6204518333516
 20
-161.2920849314651
 10
290.6204518333516
 20
-161.2920849314651
 10
290.6204518333516
 20
-161.2920849314651
 10
290.6900427621537
 20
-161.2920849314651
 10
290.6900427621537
 20
-161.2920849314651
 10
291.3158443570493
 20
-160.2258278787803
 10
292.359019269983
 20
-159.2291617548976
 10
294.2133419149187
 20
-159.2291617548976
 10
295.7431365651439
 20
-159.2291617548976
 10
296.9020666863819
 20
-160.1562369499783
 10
297.3888586784477
 20
-161.4774310685716
 10
297.3888586784477
 20
-161.4774310685716
 10
297.4351952127244
 20
-161.4774310685716
 10
297.4351952127244
 20
-161.4774310685716
 10
297.7828053471861
 20
-160.851629473676
 10
298.2232608049752
 20
-160.3648374816102
 10
298.6867984025156
 20
-160.0172273471484
 10
299.3589365316879
 20
-159.5071809605572
 10
300.1006655896621
 20
-159.2291617548976
 10
301.166922642347
 20
-159.2291617548976
 10
302.6503807582956
 20
-159.2291617548976
 10
304.8524857924672
 20
-160.2025734842549
 10
304.8524857924672
 20
-164.096737166007
 10
304.8524857924672
 20
-164.096737166007
 10
304.8524857924672
 20
-170.7027077589736
 10
304.8524857924672
 20
-170.7027077589736
 10
304.8524857924672
 20
-170.7027077589736
 10
302.8589812899274
 20
-170.7027077589736
 10
302.8589812899274
 20
-170.7027077589736
 10
302.8589812899274
 20
-170.7027077589736
 10
302.8589812899274
 20
-164.3516742319155
 10
302.8589812899274
 20
-164.3516742319155
 10
302.8589812899274
 20
-162.1960779867947
 10
302.0709156976765
 20
-160.8979660079526
 10
300.4251935843726
 20
-160.8979660079526
 10
299.2662634631346
 20
-160.8979660079526
 10
298.3622704078051
 20
-161.7556225290055
 10
298.0146602733434
 20
-162.7522886528883
 10
297.9219872047901
 20
-163.0304801133222
 10
297.8523962759881
 20
-163.4013446423093
 10
297.8523962759881
 20
-163.7722091712965
 10
297.8523962759881
 20
-163.7722091712965
 10
297.8523962759881
 20
-170.7027077589736
 10
297.8523962759881
 20
-170.7027077589736
 10
297.8523962759881
 20
-170.7027077589736
 10
295.8588917734483
 20
-170.7027077589736
 10
295.8588917734483
 20
-170.7027077589736
 10
295.8588917734483
 20
-170.7027077589736
 10
295.8588917734483
 20
-163.9808097029284
 10
295.8588917734483
 20
-163.9808097029284
 10
295.8588917734483
 20
-162.1960779867947
 10
295.0708261811974
 20
-160.8979660079526
 10
293.517949391221
 20
-160.8979660079526
 10
292.2430918069043
 20
-160.8979660079526
 10
291.3158443570493
 20
-161.9178865263608
 10
290.9913163623388
 20
-162.937807044769
 10
290.8755611540344
 20
-163.2390806449541
 10
290.8290523649835
 20
-163.5866907794158
 10
290.8290523649835
 20
-163.9344731686517
 10
290.8290523649835
 20
-163.9344731686517
 10
290.8290523649835
 20
-170.7027077589736
 10
290.8290523649835
 20
-170.7027077589736
 10
290.8290523649835
 20
-170.7027077589736
 10
288.835720117218
 20
-170.7027077589736
 10
288.835720117218
 20
-170.7027077589736
 10
288.835720117218
 20
-170.7027077589736
 10
288.835720117218
 20
-162.520433726731
 10
288.835720117218
 20
-162.520433726731
 97
        1
330
C1
 75
     2
 76
     1
 98
        1
 10
0.0
 20
0.0
450
        0
451
        0
460
0.0
461
0.0
452
        0
462
0.0
453
        0
470

  0
SPLINE
  5
C3
330
95
100
AcDbEntity
  8
Layer 1
100
AcDbSpline
210
0.0
220
0.0
230
1.0
 70
     9
 71
     3
 72
    71
 73
    67
 74
     0
 42
0.0000000001
 43
0.0000000001
 40
0.0
 40
0.0
 40
0.0
 40
0.0
 40
1.0
 40
1.0
 40
1.0
 40
2.0
 40
2.0
 40
2.0
 40
3.0
 40
3.0
 40
3.0
 40
4.0
 40
4.0
 40
4.0
 40
5.0
 40
5.0
 40
5.0
 40
6.0
 40
6.0
 40
6.0
 40
7.0
 40
7.0
 40
7.0
 40
8.0
 40
8.0
 40
8.0
 40
9.0
 40
9.0
 40
9.0
 40
10.0
 40
10.0
 40
10.0
 40
11.0
 40
11.0
 40
11.0
 40
12.0
 40
12.0
 40
12.0
 40
13.0
 40
13.0
 40
13.0
 40
14.0
 40
14.0
 40
14.0
 40
15.0
 40
15.0
 40
15.0
 40
16.0
 40
16.0
 40
16.0
 40
17.0
 40
17.0
 40
17.0
 40
18.0
 40
18.0
 40
18.0
 40
19.0
 40
19.0
 40
19.0
 40
20.0
 40
20.0
 40
20.0
 40
21.0
 40
21.0
 40
21.0
 40
22.0
 40
22.0
 40
22.0
 40
22.0
 10
326.3159474298965
 20
-163.8416278453243
 30
0.0
 10
326.2000199668179
 20
-161.6629494604523
 30
0.0
 10
326.061010363988
 20
-159.0436433630168
 30
0.0
 10
326.0842647585135
 20
-157.0966476495279
 30
0.0
 10
326.0842647585135
 20
-157.0966476495279
 30
0.0
 10
326.0146738297114
 20
-157.0966476495279
 30
0.0
 10
326.0146738297114
 20
-157.0966476495279
 30
0.0
 10
325.481545303369
 20
-158.9277158999382
 30
0.0
 10
324.8324893139479
 20
-160.8747116134271
 30
0.0
 10
324.0444237216971
 20
-163.0304801133222
 30
0.0
 10
324.0444237216971
 20
-163.0304801133222
 30
0.0
 10
321.2861080214318
 20
-170.6100346904204
 30
0.0
 10
321.2861080214318
 20
-170.6100346904204
 30
0.0
 10
321.2861080214318
 20
-170.6100346904204
 30
0.0
 10
319.7563133712066
 20
-170.6100346904204
 30
0.0
 10
319.7563133712066
 20
-170.6100346904204
 30
0.0
 10
319.7563133712066
 20
-170.6100346904204
 30
0.0
 10
317.2298525970986
 20
-163.1694897161521
 30
0.0
 10
317.2298525970986
 20
-163.1694897161521
 30
0.0
 10
316.4881235391243
 20
-160.9675569367546
 30
0.0
 10
315.8623219442286
 20
-158.9509702944636
 30
0.0
 10
315.4218664864395
 20
-157.0966476495279
 30
0.0
 10
315.4218664864395
 20
-157.0966476495279
 30
0.0
 10
315.3755299521629
 20
-157.0966476495279
 30
0.0
 10
315.3755299521629
 20
-157.0966476495279
 30
0.0
 10
315.3291934178862
 20
-159.0436433630168
 30
0.0
 10
315.2132659548076
 20
-161.6629494604523
 30
0.0
 10
315.0740840972035
 20
-164.0038918426795
 30
0.0
 10
315.0740840972035
 20
-164.0038918426795
 30
0.0
 10
314.6568830339398
 20
-170.7027077589736
 30
0.0
 10
314.6568830339398
 20
-170.7027077589736
 30
0.0
 10
314.6568830339398
 20
-170.7027077589736
 30
0.0
 10
312.7331417149762
 20
-170.7027077589736
 30
0.0
 10
312.7331417149762
 20
-170.7027077589736
 30
0.0
 10
312.7331417149762
 20
-170.7027077589736
 30
0.0
 10
313.8224809074122
 20
-155.0800610072369
 30
0.0
 10
313.8224809074122
 20
-155.0800610072369
 30
0.0
 10
313.8224809074122
 20
-155.0800610072369
 30
0.0
 10
316.3954504705711
 20
-155.0800610072369
 30
0.0
 10
316.3954504705711
 20
-155.0800610072369
 30
0.0
 10
316.3954504705711
 20
-155.0800610072369
 30
0.0
 10
319.0609208475089
 20
-162.6363611898096
 30
0.0
 10
319.0609208475089
 20
-162.6363611898096
 30
0.0
 10
319.70997683693
 20
-164.5602747635474
 30
0.0
 10
320.2431053632724
 20
-166.2755878056533
 30
0.0
 10
320.6370520320107
 20
-167.8980555244317
 30
0.0
 10
320.6370520320107
 20
-167.8980555244317
 30
0.0
 10
320.7066429608127
 20
-167.8980555244317
 30
0.0
 10
320.7066429608127
 20
-167.8980555244317
 30
0.0
 10
321.1007618843253
 20
-166.3219243399299
 30
0.0
 10
321.6569725504189
 20
-164.606611297824
 30
0.0
 10
322.3523650741165
 20
-162.6363611898096
 30
0.0
 10
322.3523650741165
 20
-162.6363611898096
 30
0.0
 10
325.1339351689073
 20
-155.0800610072369
 30
0.0
 10
325.1339351689073
 20
-155.0800610072369
 30
0.0
 10
325.1339351689073
 20
-155.0800610072369
 30
0.0
 10
327.7067324772919
 20
-155.0800610072369
 30
0.0
 10
327.7067324772919
 20
-155.0800610072369
 30
0.0
 10
327.7067324772919
 20
-155.0800610072369
 30
0.0
 10
328.6803164614235
 20
-170.7027077589736
 30
0.0
 10
328.6803164614235
 20
-170.7027077589736
 30
0.0
 10
328.6803164614235
 20
-170.7027077589736
 30
0.0
 10
326.7100663534091
 20
-170.7027077589736
 30
0.0
 10
326.7100663534091
 20
-170.7027077589736
 30
0.0
 10
326.7100663534091
 20
-170.7027077589736
 30
0.0
 10
326.3159474298965
 20
-163.8416278453243
 30
0.0
 10
326.3159474298965
 20
-163.8416278453243
 30
0.0
  0
HATCH
  5
C4
330
95
100
AcDbEntity
  8
Layer 1
 62
     7
440
 33554687
100
AcDbHatch
 10
0.0
 20
0.0
 30
0.0
210
0.0
220
0.0
230
1.0
  2
SOLID
 70
     1
 71
     1
 91
        1
 92
        1
 93
        1
 72
     4
 94
        3
 73
     0
 74
     0
 95
       71
 96
       67
 40
0.0
 40
0.0
 40
0.0
 40
0.0
 40
1.0
 40
1.0
 40
1.0
 40
2.0
 40
2.0
 40
2.0
 40
3.0
 40
3.0
 40
3.0
 40
4.0
 40
4.0
 40
4.0
 40
5.0
 40
5.0
 40
5.0
 40
6.0
 40
6.0
 40
6.0
 40
7.0
 40
7.0
 40
7.0
 40
8.0
 40
8.0
 40
8.0
 40
9.0
 40
9.0
 40
9.0
 40
10.0
 40
10.0
 40
10.0
 40
11.0
 40
11.0
 40
11.0
 40
12.0
 40
12.0
 40
12.0
 40
13.0
 40
13.0
 40
13.0
 40
14.0
 40
14.0
 40
14.0
 40
15.0
 40
15.0
 40
15.0
 40
16.0
 40
16.0
 40
16.0
 40
17.0
 40
17.0
 40
17.0
 40
18.0
 40
18.0
 40
18.0
 40
19.0
 40
19.0
 40
19.0
 40
20.0
 40
20.0
 40
20.0
 40
21.0
 40
21.0
 40
21.0
 40
22.0
 40
22.0
 40
22.0
 40
22.0
 10
326.3159474298965
 20
-163.8416278453243
 10
326.2000199668179
 20
-161.6629494604523
 10
326.061010363988
 20
-159.0436433630168
 10
326.0842647585135
 20
-157.0966476495279
 10
326.0842647585135
 20
-157.0966476495279
 10
326.0146738297114
 20
-157.0966476495279
 10
326.0146738297114
 20
-157.0966476495279
 10
325.481545303369
 20
-158.9277158999382
 10
324.8324893139479
 20
-160.8747116134271
 10
324.0444237216971
 20
-163.0304801133222
 10
324.0444237216971
 20
-163.0304801133222
 10
321.2861080214318
 20
-170.6100346904204
 10
321.2861080214318
 20
-170.6100346904204
 10
321.2861080214318
 20
-170.6100346904204
 10
319.7563133712066
 20
-170.6100346904204
 10
319.7563133712066
 20
-170.6100346904204
 10
319.7563133712066
 20
-170.6100346904204
 10
317.2298525970986
 20
-163.1694897161521
 10
317.2298525970986
 20
-163.1694897161521
 10
316.4881235391243
 20
-160.9675569367546
 10
315.8623219442286
 20
-158.9509702944636
 10
315.4218664864395
 20
-157.0966476495279
 10
315.4218664864395
 20
-157.0966476495279
 10
315.3755299521629
 20
-157.0966476495279
 10
315.3755299521629
 20
-157.0966476495279
 10
315.3291934178862
 20
-159.0436433630168
 10
315.2132659548076
 20
-161.6629494604523
 10
315.0740840972035
 20
-164.0038918426795
 10
315.0740840972035
 20
-164.0038918426795
 10
314.6568830339398
 20
-170.7027077589736
 10
314.6568830339398
 20
-170.7027077589736
 10
314.6568830339398
 20
-170.7027077589736
 10
312.7331417149762
 20
-170.7027077589736
 10
312.7331417149762
 20
-170.7027077589736
 10
312.7331417149762
 20
-170.7027077589736
 10
313.8224809074122
 20
-155.0800610072369
 10
313.8224809074122
 20
-155.0800610072369
 10
313.8224809074122
 20
-155.0800610072369
 10
316.3954504705711
 20
-155.0800610072369
 10
316.3954504705711
 20
-155.0800610072369
 10
316.3954504705711
 20
-155.0800610072369
 10
319.0609208475089
 20
-162.6363611898096
 10
319.0609208475089
 20
-162.6363611898096
 10
319.70997683693
 20
-164.5602747635474
 10
320.2431053632724
 20
-166.2755878056533
 10
320.6370520320107
 20
-167.8980555244317
 10
320.6370520320107
 20
-167.8980555244317
 10
320.7066429608127
 20
-167.8980555244317
 10
320.7066429608127
 20
-167.8980555244317
 10
321.1007618843253
 20
-166.3219243399299
 10
321.6569725504189
 20
-164.606611297824
 10
322.3523650741165
 20
-162.6363611898096
 10
322.3523650741165
 20
-162.6363611898096
 10
325.1339351689073
 20
-155.0800610072369
 10
325.1339351689073
 20
-155.0800610072369
 10
325.1339351689073
 20
-155.0800610072369
 10
327.7067324772919
 20
-155.0800610072369
 10
327.7067324772919
 20
-155.0800610072369
 10
327.7067324772919
 20
-155.0800610072369
 10
328.6803164614235
 20
-170.7027077589736
 10
328.6803164614235
 20
-170.7027077589736
 10
328.6803164614235
 20
-170.7027077589736
 10
326.7100663534091
 20
-170.7027077589736
 10
326.7100663534091
 20
-170.7027077589736
 10
326.7100663534091
 20
-170.7027077589736
 10
326.3159474298965
 20
-163.8416278453243
 10
326.3159474298965
 20
-163.8416278453243
 97
        1
330
C3
 75
     2
 76
     1
 98
        1
 10
0.0
 20
0.0
450
        0
451
        0
460
0.0
461
0.0
452
        0
462
0.0
453
        0
470

  0
SPLINE
  5
C5
330
95
100
AcDbEntity
  8
Layer 1
100
AcDbSpline
210
0.0
220
0.0
230
1.0
 70
     9
 71
     3
 72
    20
 73
    16
 74
     0
 42
0.0000000001
 43
0.0000000001
 40
0.0
 40
0.0
 40
0.0
 40
0.0
 40
1.0
 40
1.0
 40
1.0
 40
2.0
 40
2.0
 40
2.0
 40
3.0
 40
3.0
 40
3.0
 40
4.0
 40
4.0
 40
4.0
 40
5.0
 40
5.0
 40
5.0
 40
5.0
 10
333.802484428893
 20
-169.1033221799464
 30
0.0
 10
334.3123585607099
 20
-169.1959952484996
 30
0.0
 10
335.0540876186842
 20
-169.219249643025
 30
0.0
 10
335.8421532109351
 20
-169.219249643025
 30
0.0
 10
340.153517955951
 20
-169.219249643025
 30
0.0
 10
342.4946325929525
 20
-166.8085440772214
 30
0.0
 10
342.4946325929525
 20
-162.590024655533
 30
0.0
 10
342.5177147327037
 20
-158.904633760187
 30
0.0
 10
340.4317094163849
 20
-156.5635191231855
 30
0.0
 10
336.1666812056457
 20
-156.5635191231855
 30
0.0
 10
335.1236785474863
 20
-156.5635191231855
 30
0.0
 10
334.3356129552354
 20
-156.6561921917387
 30
0.0
 10
333.802484428893
 20
-156.7721196548174
 30
0.0
 10
333.802484428893
 20
-156.7721196548174
 30
0.0
 10
333.802484428893
 20
-169.1033221799464
 30
0.0
 10
333.802484428893
 20
-169.1033221799464
 30
0.0
  0
SPLINE
  5
C6
330
95
100
AcDbEntity
  8
Layer 1
100
AcDbSpline
210
0.0
220
0.0
230
1.0
 70
     9
 71
     3
 72
    26
 73
    22
 74
     0
 42
0.0000000001
 43
0.0000000001
 40
0.0
 40
0.0
 40
0.0
 40
0.0
 40
1.0
 40
1.0
 40
1.0
 40
2.0
 40
2.0
 40
2.0
 40
3.0
 40
3.0
 40
3.0
 40
4.0
 40
4.0
 40
4.0
 40
5.0
 40
5.0
 40
5.0
 40
6.0
 40
6.0
 40
6.0
 40
7.0
 40
7.0
 40
7.0
 40
7.0
 10
331.7858977866019
 20
-155.2886615388688
 30
0.0
 10
333.014418836642
 20
-155.1031431469881
 30
0.0
 10
334.4746225580652
 20
-154.9641335441583
 30
0.0
 10
336.0740081370924
 20
-154.9641335441583
 30
0.0
 10
338.9713334401875
 20
-154.9641335441583
 30
0.0
 10
341.0342566167551
 20
-155.6362716733305
 30
0.0
 10
342.401787269625
 20
-156.9111292576472
 30
0.0
 10
343.7925723170204
 20
-158.1859868419639
 30
0.0
 10
344.6038923037968
 20
-159.993972952623
 30
0.0
 10
344.6038923037968
 20
-162.520433726731
 30
0.0
 10
344.6038923037968
 20
-165.0701488953644
 30
0.0
 10
343.8158267115459
 20
-167.1563264664574
 30
0.0
 10
342.3554507353485
 20
-168.5934480481294
 30
0.0
 10
340.8952470139253
 20
-170.0536517695525
 30
0.0
 10
338.4845414481217
 20
-170.8417173618034
 30
0.0
 10
335.4482065421968
 20
-170.8417173618034
 30
0.0
 10
334.0110849605248
 20
-170.8417173618034
 30
0.0
 10
332.8058183050102
 20
-170.7722986877756
 30
0.0
 10
331.7858977866019
 20
-170.656371224697
 30
0.0
 10
331.7858977866019
 20
-170.656371224697
 30
0.0
 10
331.7858977866019
 20
-155.2886615388688
 30
0.0
 10
331.7858977866019
 20
-155.2886615388688
 30
0.0
  0
HATCH
  5
C7
330
95
100
AcDbEntity
  8
Layer 1
 62
     7
440
 33554687
100
AcDbHatch
 10
0.0
 20
0.0
 30
0.0
210
0.0
220
0.0
230
1.0
  2
SOLID
 70
     1
 71
     1
 91
        2
 92
        1
 93
        1
 72
     4
 94
        3
 73
     0
 74
     0
 95
       20
 96
       16
 40
0.0
 40
0.0
 40
0.0
 40
0.0
 40
1.0
 40
1.0
 40
1.0
 40
2.0
 40
2.0
 40
2.0
 40
3.0
 40
3.0
 40
3.0
 40
4.0
 40
4.0
 40
4.0
 40
5.0
 40
5.0
 40
5.0
 40
5.0
 10
333.802484428893
 20
-169.1033221799464
 10
334.3123585607099
 20
-169.1959952484996
 10
335.0540876186842
 20
-169.219249643025
 10
335.8421532109351
 20
-169.219249643025
 10
340.153517955951
 20
-169.219249643025
 10
342.4946325929525
 20
-166.8085440772214
 10
342.4946325929525
 20
-162.590024655533
 10
342.5177147327037
 20
-158.904633760187
 10
340.4317094163849
 20
-156.5635191231855
 10
336.1666812056457
 20
-156.5635191231855
 10
335.1236785474863
 20
-156.5635191231855
 10
334.3356129552354
 20
-156.6561921917387
 10
333.802484428893
 20
-156.7721196548174
 10
333.802484428893
 20
-156.7721196548174
 10
333.802484428893
 20
-169.1033221799464
 10
333.802484428893
 20
-169.1033221799464
 97
        1
330
C5
 92
        1
 93
        1
 72
     4
 94
        3
 73
     0
 74
     0
 95
       26
 96
       22
 40
0.0
 40
0.0
 40
0.0
 40
0.0
 40
1.0
 40
1.0
 40
1.0
 40
2.0
 40
2.0
 40
2.0
 40
3.0
 40
3.0
 40
3.0
 40
4.0
 40
4.0
 40
4.0
 40
5.0
 40
5.0
 40
5.0
 40
6.0
 40
6.0
 40
6.0
 40
7.0
 40
7.0
 40
7.0
 40
7.0
 10
331.7858977866019
 20
-155.2886615388688
 10
333.014418836642
 20
-155.1031431469881
 10
334.4746225580652
 20
-154.9641335441583
 10
336.0740081370924
 20
-154.9641335441583
 10
338.9713334401875
 20
-154.9641335441583
 10
341.0342566167551
 20
-155.6362716733305
 10
342.401787269625
 20
-156.9111292576472
 10
343.7925723170204
 20
-158.1859868419639
 10
344.6038923037968
 20
-159.993972952623
 10
344.6038923037968
 20
-162.520433726731
 10
344.6038923037968
 20
-165.0701488953644
 10
343.8158267115459
 20
-167.1563264664574
 10
342.3554507353485
 20
-168.5934480481294
 10
340.8952470139253
 20
-170.0536517695525
 10
338.4845414481217
 20
-170.8417173618034
 10
335.4482065421968
 20
-170.8417173618034
 10
334.0110849605248
 20
-170.8417173618034
 10
332.8058183050102
 20
-170.7722986877756
 10
331.7858977866019
 20
-170.656371224697
 10
331.7858977866019
 20
-170.656371224697
 10
331.7858977866019
 20
-155.2886615388688
 10
331.7858977866019
 20
-155.2886615388688
 97
        1
330
C6
 75
     2
 76
     1
 98
        1
 10
0.0
 20
0.0
450
        0
451
        0
460
0.0
461
0.0
452
        0
462
0.0
453
        0
470

  0
SPLINE
  5
C8
330
95
100
AcDbEntity
  8
Layer 1
100
AcDbSpline
210
0.0
220
0.0
230
1.0
 70
    11
 71
     3
 72
    35
 73
    31
 74
     0
 42
0.0000000001
 43
0.0000000001
 40
0.0
 40
0.0
 40
0.0
 40
0.0
 40
1.0
 40
1.0
 40
1.0
 40
2.0
 40
2.0
 40
2.0
 40
3.0
 40
3.0
 40
3.0
 40
4.0
 40
4.0
 40
4.0
 40
5.0
 40
5.0
 40
5.0
 40
6.0
 40
6.0
 40
6.0
 40
7.0
 40
7.0
 40
7.0
 40
8.0
 40
8.0
 40
8.0
 40
9.0
 40
9.0
 40
9.0
 40
10.0
 40
10.0
 40
10.0
 40
10.0
 10
347.2228538916837
 20
-155.0800610072369
 30
0.0
 10
347.2228538916837
 20
-155.0800610072369
 30
0.0
 10
355.6368105953094
 20
-155.0800610072369
 30
0.0
 10
355.6368105953094
 20
-155.0800610072369
 30
0.0
 10
355.6368105953094
 20
-155.0800610072369
 30
0.0
 10
355.6368105953094
 20
-156.7721196548174
 30
0.0
 10
355.6368105953094
 20
-156.7721196548174
 30
0.0
 10
355.6368105953094
 20
-156.7721196548174
 30
0.0
 10
349.2394405339747
 20
-156.7721196548174
 30
0.0
 10
349.2394405339747
 20
-156.7721196548174
 30
0.0
 10
349.2394405339747
 20
-156.7721196548174
 30
0.0
 10
349.2394405339747
 20
-161.9642230606374
 30
0.0
 10
349.2394405339747
 20
-161.9642230606374
 30
0.0
 10
349.2394405339747
 20
-161.9642230606374
 30
0.0
 10
355.1500186032436
 20
-161.9642230606374
 30
0.0
 10
355.1500186032436
 20
-161.9642230606374
 30
0.0
 10
355.1500186032436
 20
-161.9642230606374
 30
0.0
 10
355.1500186032436
 20
-163.6330273136924
 30
0.0
 10
355.1500186032436
 20
-163.6330273136924
 30
0.0
 10
355.1500186032436
 20
-163.6330273136924
 30
0.0
 10
349.2394405339747
 20
-163.6330273136924
 30
0.0
 10
349.2394405339747
 20
-163.6330273136924
 30
0.0
 10
349.2394405339747
 20
-163.6330273136924
 30
0.0
 10
349.2394405339747
 20
-170.7027077589736
 30
0.0
 10
349.2394405339747
 20
-170.7027077589736
 30
0.0
 10
349.2394405339747
 20
-170.7027077589736
 30
0.0
 10
347.2228538916837
 20
-170.7027077589736
 30
0.0
 10
347.2228538916837
 20
-170.7027077589736
 30
0.0
 10
347.2228538916837
 20
-170.7027077589736
 30
0.0
 10
347.2228538916837
 20
-155.0800610072369
 30
0.0
 10
347.2228538916837
 20
-155.0800610072369
 30
0.0
  0
HATCH
  5
C9
330
95
100
AcDbEntity
  8
Layer 1
 62
     7
440
 33554687
100
AcDbHatch
 10
0.0
 20
0.0
 30
0.0
210
0.0
220
0.0
230
1.0
  2
SOLID
 70
     1
 71
     1
 91
        1
 92
        1
 93
        1
 72
     4
 94
        3
 73
     0
 74
     0
 95
       35
 96
       31
 40
0.0
 40
0.0
 40
0.0
 40
0.0
 40
1.0
 40
1.0
 40
1.0
 40
2.0
 40
2.0
 40
2.0
 40
3.0
 40
3.0
 40
3.0
 40
4.0
 40
4.0
 40
4.0
 40
5.0
 40
5.0
 40
5.0
 40
6.0
 40
6.0
 40
6.0
 40
7.0
 40
7.0
 40
7.0
 40
8.0
 40
8.0
 40
8.0
 40
9.0
 40
9.0
 40
9.0
 40
10.0
 40
10.0
 40
10.0
 40
10.0
 10
347.2228538916837
 20
-155.0800610072369
 10
347.2228538916837
 20
-155.0800610072369
 10
355.6368105953094
 20
-155.0800610072369
 10
355.6368105953094
 20
-155.0800610072369
 10
355.6368105953094
 20
-155.0800610072369
 10
355.6368105953094
 20
-156.7721196548174
 10
355.6368105953094
 20
-156.7721196548174
 10
355.6368105953094
 20
-156.7721196548174
 10
349.2394405339747
 20
-156.7721196548174
 10
349.2394405339747
 20
-156.7721196548174
 10
349.2394405339747
 20
-156.7721196548174
 10
349.2394405339747
 20
-161.9642230606374
 10
349.2394405339747
 20
-161.9642230606374
 10
349.2394405339747
 20
-161.9642230606374
 10
355.1500186032436
 20
-161.9642230606374
 10
355.1500186032436
 20
-161.9642230606374
 10
355.1500186032436
 20
-161.9642230606374
 10
355.1500186032436
 20
-163.6330273136924
 10
355.1500186032436
 20
-163.6330273136924
 10
355.1500186032436
 20
-163.6330273136924
 10
349.2394405339747
 20
-163.6330273136924
 10
349.2394405339747
 20
-163.6330273136924
 10
349.2394405339747
 20
-163.6330273136924
 10
349.2394405339747
 20
-170.7027077589736
 10
349.2394405339747
 20
-170.7027077589736
 10
349.2394405339747
 20
-170.7027077589736
 10
347.2228538916837
 20
-170.7027077589736
 10
347.2228538916837
 20
-170.7027077589736
 10
347.2228538916837
 20
-170.7027077589736
 10
347.2228538916837
 20
-155.0800610072369
 10
347.2228538916837
 20
-155.0800610072369
 97
        1
330
C8
 75
     2
 76
     1
 98
        1
 10
0.0
 20
0.0
450
        0
451
        0
460
0.0
461
0.0
452
        0
462
0.0
453
        0
470

  0
ENDBLK
  5
98
330
95
100
AcDbEntity
  8
0
100
AcDbBlockEnd
  0
ENDSEC
  0
SECTION
  2
ENTITIES
  0
SPLINE
  5
79
330
70
100
AcDbEntity
  8
Layer 1
 62
     7
370
    25
100
AcDbSpline
210
0.0
220
0.0
230
1.0
 70
     8
 71
     3
 72
   116
 73
   112
 74
     0
 42
0.0000000001
 43
0.0000000001
 40
0.0
 40
0.0
 40
0.0
 40
0.0
 40
1.0
 40
1.0
 40
1.0
 40
2.0
 40
2.0
 40
2.0
 40
3.0
 40
3.0
 40
3.0
 40
4.0
 40
4.0
 40
4.0
 40
5.0
 40
5.0
 40
5.0
 40
6.0
 40
6.0
 40
6.0
 40
7.0
 40
7.0
 40
7.0
 40
8.0
 40
8.0
 40
8.0
 40
9.0
 40
9.0
 40
9.0
 40
10.0
 40
10.0
 40
10.0
 40
11.0
 40
11.0
 40
11.0
 40
12.0
 40
12.0
 40
12.0
 40
13.0
 40
13.0
 40
13.0
 40
14.0
 40
14.0
 40
14.0
 40
15.0
 40
15.0
 40
15.0
 40
16.0
 40
16.0
 40
16.0
 40
17.0
 40
17.0
 40
17.0
 40
18.0
 40
18.0
 40
18.0
 40
19.0
 40
19.0
 40
19.0
 40
20.0
 40
20.0
 40
20.0
 40
21.0
 40
21.0
 40
21.0
 40
22.0
 40
22.0
 40
22.0
 40
23.0
 40
23.0
 40
23.0
 40
24.0
 40
24.0
 40
24.0
 40
25.0
 40
25.0
 40
25.0
 40
26.0
 40
26.0
 40
26.0
 40
27.0
 40
27.0
 40
27.0
 40
28.0
 40
28.0
 40
28.0
 40
29.0
 40
29.0
 40
29.0
 40
30.0
 40
30.0
 40
30.0
 40
31.0
 40
31.0
 40
31.0
 40
32.0
 40
32.0
 40
32.0
 40
33.0
 40
33.0
 40
33.0
 40
34.0
 40
34.0
 40
34.0
 40
35.0
 40
35.0
 40
35.0
 40
36.0
 40
36.0
 40
36.0
 40
37.0
 40
37.0
 40
37.0
 40
37.0
 10
91.95780487618348
 20
-582.0439984655997
 30
0.0
 10
91.84593904570377
 20
-582.2789131877633
 30
0.0
 10
91.73407321522438
 20
-582.5138631877049
 30
0.0
 10
91.62428877358076
 20
-582.749765687646
 30
0.0
 10
91.51633877633479
 20
-582.9818229098099
 30
0.0
 10
91.41039961237087
 20
-583.2148326319738
 30
0.0
 10
91.3060832261433
 20
-583.4485479096933
 30
0.0
 10
91.20349545098276
 20
-583.6784179096362
 30
0.0
 10
91.10245989800484
 20
-583.9089581873558
 30
0.0
 10
91.00322351164768
 20
-584.1403098539648
 30
0.0
 10
90.90560990302689
 20
-584.367780965019
 30
0.0
 10
90.80976018325001
 20
-584.5960281871845
 30
0.0
 10
90.71567435231701
 20
-584.8250162426824
 30
0.0
 10
90.62314074356661
 20
-585.0501942981818
 30
0.0
 10
90.53237102366013
 20
-585.2761131870144
 30
0.0
 10
90.44343574815128
 20
-585.5027376314024
 30
0.0
 10
90.35598213927128
 20
-585.7255873535688
 30
0.0
 10
90.2702924192352
 20
-585.9491426312902
 30
0.0
 10
90.18650769915049
 20
-586.1734034645677
 30
0.0
 10
90.10409881236403
 20
-586.3939601311793
 30
0.0
 10
90.0235596477521
 20
-586.6151517977908
 30
0.0
 10
89.94489020531467
 20
-586.8370490199573
 30
0.0
 10
89.86756131839861
 20
-587.0552773532359
 30
0.0
 10
89.79210215365707
 20
-587.2741759642926
 30
0.0
 10
89.71861854442067
 20
-587.4937095753486
 30
0.0
 10
89.64636965737502
 20
-587.7096095752949
 30
0.0
 10
89.57602577028074
 20
-587.9261445752405
 30
0.0
 10
89.50765743869164
 20
-588.1433145751866
 30
0.0
 10
89.34354522065595
 20
-588.6647201306114
 30
0.0
 10
89.19096883565993
 20
-589.1897945749247
 30
0.0
 10
89.05042217257891
 20
-589.7180792970146
 30
0.0
 10
88.91128886666113
 20
-590.241037074662
 30
0.0
 10
88.78393608891522
 20
-590.7670992967529
 30
0.0
 10
88.66882246009209
 20
-591.2958073521763
 30
0.0
 10
88.55374635191683
 20
-591.8244801298215
 30
0.0
 10
88.45094691009501
 20
-592.3558340185775
 30
0.0
 10
88.35989720013227
 20
-592.8891634628887
 30
0.0
 10
88.26711664459994
 20
-593.4325470738641
 30
0.0
 10
88.18657525017304
 20
-593.9779767959499
 30
0.0
 10
88.11753886685956
 20
-594.5248529069242
 30
0.0
 10
87.97928303323926
 20
-595.6201573510951
 30
0.0
 10
87.88720803558829
 20
-596.7213531841529
 30
0.0
 10
87.83139859256769
 20
-597.8240306838775
 30
0.0
 10
87.77555387177017
 20
-598.9270256836014
 30
0.0
 10
87.75597470560301
 20
-600.0315023499923
 30
0.0
 10
87.76257164987915
 20
-601.1356967941605
 30
0.0
 10
87.76913331637841
 20
-602.2344231827746
 30
0.0
 10
87.80158887110596
 20
-603.3329379047223
 30
0.0
 10
87.85327081423188
 20
-604.4304295711149
 30
0.0
 10
87.90481386691272
 20
-605.5255929041744
 30
0.0
 10
87.97550831111335
 20
-606.6198037372339
 30
0.0
 10
88.05911664231365
 20
-607.7129562369608
 30
0.0
 10
88.22619442238794
 20
-609.8973562364144
 30
0.0
 10
88.44491664455544
 20
-612.0776640136475
 30
0.0
 10
88.68921301512745
 20
-614.2548673464363
 30
0.0
 10
88.93354689778286
 20
-616.432211790336
 30
0.0
 10
89.20349244645153
 20
-618.6064517897928
 30
0.0
 10
89.48419997762893
 20
-620.7792806781385
 30
0.0
 10
89.76497354323807
 20
-622.9526387331509
 30
0.0
 10
90.0565443691328
 20
-625.1245856770522
 30
0.0
 10
90.35188991715347
 20
-627.2960034542875
 30
0.0
 10
90.499597968941
 20
-628.3818181762377
 30
0.0
 10
90.64825852070359
 20
-629.4674917870779
 30
0.0
 10
90.79706018357402
 20
-630.5531301201398
 30
0.0
 10
90.94589712422131
 20
-631.6388037309792
 30
0.0
 10
91.094910453753
 20
-632.7244773418187
 30
0.0
 10
91.24328878330087
 20
-633.8101862304364
 30
0.0
 10
91.56650377505497
 20
-636.1751731742897
 30
0.0
 10
91.88686126688198
 20
-638.5405481736984
 30
0.0
 10
92.2024209810536
 20
-640.9065581731068
 30
0.0
 10
92.46629875209931
 20
-642.88493595039
 30
0.0
 10
92.72678985656472
 20
-644.8637723387843
 30
0.0
 10
92.98188346116786
 20
-646.8432790049559
 30
0.0
 10
93.54188289132553
 20
-651.1886192816477
 30
0.0
 10
94.07581204437052
 20
-655.5373109472269
 30
0.0
 10
94.57862619820934
 20
-659.8897420572495
 30
0.0
 10
95.58312561702686
 20
-668.5846559439649
 30
0.0
 10
96.4633767056809
 20
-677.294351219565
 30
0.0
 10
97.21867390863389
 20
-686.0144887173853
 30
0.0
 10
97.59184223244691
 20
-690.3229989940856
 30
0.0
 10
97.93453055703754
 20
-694.6340845485634
 30
0.0
 10
98.24903193790282
 20
-698.9472514919297
 30
0.0
 10
98.5705183185899
 20
-703.3560564908277
 30
0.0
 10
98.86254775558406
 20
-707.7670487119471
 30
0.0
 10
99.12688413772917
 20
-712.1796989886215
 30
0.0
 10
99.38494107559003
 20
-716.4878917653222
 30
0.0
 10
99.61661023634633
 20
-720.7976720420228
 30
0.0
 10
99.82379661994945
 20
-725.1086517631675
 30
0.0
 10
100.0363805034148
 20
-729.5315678731726
 30
0.0
 10
100.2232116097595
 20
-733.955753983178
 30
0.0
 10
100.3861949389348
 20
-738.3807867598491
 30
0.0
 10
100.4743541033523
 20
-740.7739959259175
 30
0.0
 10
100.5554929901712
 20
-743.1674520364306
 30
0.0
 10
100.6299643771601
 20
-745.5611550913876
 30
0.0
 10
100.7055293752323
 20
-747.9897478685584
 30
0.0
 10
100.7741799290365
 20
-750.4185875901732
 30
0.0
 10
100.836236085902
 20
-752.8476037006774
 30
0.0
 10
100.8991690925144
 20
-755.3116506445054
 30
0.0
 10
100.9553313133038
 20
-757.7758386994449
 30
0.0
 10
101.0050024231477
 20
-760.2401678654957
 30
0.0
 10
101.0553438107522
 20
-762.7395984204261
 30
0.0
 10
101.0990555302807
 20
-765.2391700864678
 30
0.0
 10
101.136235753133
 20
-767.7388475858434
 30
0.0
 10
101.1739476966153
 20
-770.2736617518761
 30
0.0
 10
101.204921584714
 20
-772.8086170290201
 30
0.0
 10
101.2300040840741
 20
-775.3436075839418
 30
0.0
 10
101.2554040834261
 20
-777.9138406388548
 30
0.0
 10
101.274771582932
 20
-780.4841442493236
 30
0.0
 10
101.2862368604172
 20
-783.0544831375699
 30
0.0
 10
101.2978785267869
 20
-785.6600998035853
 30
0.0
 10
101.3014415822516
 20
-788.2657517473782
 30
0.0
 10
101.3050046377162
 20
-790.8714389689488
 30
0.0
  0
SPLINE
  5
7A
330
70
100
AcDbEntity
  8
Layer 1
 62
     7
370
    25
100
AcDbSpline
210
0.0
220
0.0
230
1.0
 70
     8
 71
     3
 72
   101
 73
    97
 74
     0
 42
0.0000000001
 43
0.0000000001
 40
0.0
 40
0.0
 40
0.0
 40
0.0
 40
1.0
 40
1.0
 40
1.0
 40
2.0
 40
2.0
 40
2.0
 40
3.0
 40
3.0
 40
3.0
 40
4.0
 40
4.0
 40
4.0
 40
5.0
 40
5.0
 40
5.0
 40
6.0
 40
6.0
 40
6.0
 40
7.0
 40
7.0
 40
7.0
 40
8.0
 40
8.0
 40
8.0
 40
9.0
 40
9.0
 40
9.0
 40
10.0
 40
10.0
 40
10.0
 40
11.0
 40
11.0
 40
11.0
 40
12.0
 40
12.0
 40
12.0
 40
13.0
 40
13.0
 40
13.0
 40
14.0
 40
14.0
 40
14.0
 40
15.0
 40
15.0
 40
15.0
 40
16.0
 40
16.0
 40
16.0
 40
17.0
 40
17.0
 40
17.0
 40
18.0
 40
18.0
 40
18.0
 40
19.0
 40
19.0
 40
19.0
 40
20.0
 40
20.0
 40
20.0
 40
21.0
 40
21.0
 40
21.0
 40
22.0
 40
22.0
 40
22.0
 40
23.0
 40
23.0
 40
23.0
 40
24.0
 40
24.0
 40
24.0
 40
25.0
 40
25.0
 40
25.0
 40
26.0
 40
26.0
 40
26.0
 40
27.0
 40
27.0
 40
27.0
 40
28.0
 40
28.0
 40
28.0
 40
29.0
 40
29.0
 40
29.0
 40
30.0
 40
30.0
 40
30.0
 40
31.0
 40
31.0
 40
31.0
 40
32.0
 40
32.0
 40
32.0
 40
32.0
 10
161.2458281084984
 20
-519.5084929256783
 30
0.0
 10
160.9510470049078
 20
-519.9163040366877
 30
0.0
 10
160.6562306235403
 20
-520.324079869919
 30
0.0
 10
160.3596503533289
 20
-520.7305857031506
 30
0.0
 10
160.0651867497302
 20
-521.1341282030501
 30
0.0
 10
159.7689239795107
 20
-521.5364007029491
 30
0.0
 10
159.4713559315467
 20
-521.9376854250713
 30
0.0
 10
159.1759045501954
 20
-522.3360773694158
 30
0.0
 10
158.8791478910997
 20
-522.7335168137613
 30
0.0
 10
158.580909565375
 20
-523.1298273692173
 30
0.0
 10
158.2848584618168
 20
-523.5233157024524
 30
0.0
 10
157.9873256916297
 20
-523.9157104245768
 30
0.0
 10
157.6883818103675
 20
-524.3070468133679
 30
0.0
 10
157.3915898734949
 20
-524.6955257021594
 30
0.0
 10
157.0933868255471
 20
-525.0829462576182
 30
0.0
 10
156.7937373887474
 20
-525.4692732019663
 30
0.0
 10
156.4962398963372
 20
-525.8528132018703
 30
0.0
 10
156.1973312928518
 20
-526.2352243128855
 30
0.0
 10
155.8969763005145
 20
-526.6165418127904
 30
0.0
 10
155.5987732525668
 20
-526.995107646029
 30
0.0
 10
155.2991590935439
 20
-527.3725445903791
 30
0.0
 10
154.9980985456691
 20
-527.7488526458405
 30
0.0
 10
154.6992252199606
 20
-528.1224443124135
 30
0.0
 10
154.3989055054002
 20
-528.4949070900989
 30
0.0
 10
154.0971041242109
 20
-528.8662057011171
 30
0.0
 10
152.849999433805
 20
-530.4006126451773
 30
0.0
 10
151.5781650218077
 20
-531.9151229225767
 30
0.0
 10
150.2806131104666
 20
-533.4072670888704
 30
0.0
 10
149.0133648094634
 20
-534.8645920885058
 30
0.0
 10
147.7215631757534
 20
-536.3005740325918
 30
0.0
 10
146.40414987603
 20
-537.7127434766828
 30
0.0
 10
145.0587612992427
 20
-539.1548637541002
 30
0.0
 10
143.6866674453588
 20
-540.5721131981905
 30
0.0
 10
142.2872721866503
 20
-541.9619165311764
 30
0.0
 10
140.9135166827744
 20
-543.3262140308352
 30
0.0
 10
139.5134475518265
 20
-544.6640179193896
 30
0.0
 10
138.0866378660053
 20
-545.9727176412845
 30
0.0
 10
136.634428180832
 20
-547.3047712520627
 30
0.0
 10
135.1545254408097
 20
-548.6066270850707
 30
0.0
 10
133.6477763125833
 20
-549.8766623625308
 30
0.0
 10
132.1476241286332
 20
-551.1411590288814
 30
0.0
 10
130.6208725009172
 20
-552.3741173619066
 30
0.0
 10
129.0684033738573
 20
-553.5737734727176
 30
0.0
 10
127.535125357419
 20
-554.7585776390881
 30
0.0
 10
125.9767648416205
 20
-555.9108556943554
 30
0.0
 10
124.3966026597116
 20
-557.0324068051863
 30
0.0
 10
122.7618657569727
 20
-558.1926929160075
 30
0.0
 10
121.1038102437177
 20
-559.320029582392
 30
0.0
 10
119.4262461198493
 20
-560.4174506932289
 30
0.0
 10
117.7771511619212
 20
-561.4962451374039
 30
0.0
 10
116.1092531489172
 20
-562.5460765260302
 30
0.0
 10
114.429607636213
 20
-563.5766109702166
 30
0.0
 10
113.5892909909846
 20
-564.0921956923103
 30
0.0
 10
112.7460138607025
 20
-564.6029473588494
 30
0.0
 10
111.9012140896066
 20
-565.1111943031664
 30
0.0
 10
111.0562083055694
 20
-565.6195470808174
 30
0.0
 10
110.2096446883177
 20
-566.1253951362465
 30
0.0
 10
109.3629780432513
 20
-566.6310315250092
 30
0.0
 10
108.5163113981852
 20
-567.1366326359937
 30
0.0
 10
107.669503642011
 20
-567.6420220803119
 30
0.0
 10
106.825306441326
 20
-568.1517506912956
 30
0.0
 10
105.9814267406333
 20
-568.6613029133899
 30
0.0
 10
105.1401575954289
 20
-569.1752295799281
 30
0.0
 10
104.3047798389634
 20
-569.6985754131307
 30
0.0
 10
103.4697901380435
 20
-570.2217095796669
 30
0.0
 10
102.6406565480853
 20
-570.7542629128669
 30
0.0
 10
101.8231999022737
 20
-571.3045962460625
 30
0.0
 10
101.0051435342552
 20
-571.8552823570364
 30
0.0
 10
100.198766641617
 20
-572.4237837457828
 30
0.0
 10
99.41457440816735
 20
-573.0215656900777
 30
0.0
 10
99.00711608522914
 20
-573.3321512455557
 30
0.0
 10
98.60565498436017
 20
-573.6506390232538
 30
0.0
 10
98.21216666106556
 20
-573.9787576342833
 30
0.0
 10
97.84598333707434
 20
-574.2841573564286
 30
0.0
 10
97.48667917957428
 20
-574.5979179119058
 30
0.0
 10
97.13654724406245
 20
-574.9216620784921
 30
0.0
 10
96.77075197561688
 20
-575.2599054117403
 30
0.0
 10
96.41494031802773
 20
-575.6090495783198
 30
0.0
 10
96.07112310457701
 20
-575.9696237448963
 30
0.0
 10
95.73845366861966
 20
-576.3184856892537
 30
0.0
 10
95.41703784348634
 20
-576.6780720780526
 30
0.0
 10
95.10863951802091
 20
-577.0485240224046
 30
0.0
 10
94.79798341483528
 20
-577.4217629111999
 30
0.0
 10
94.50055647797883
 20
-577.8060084666594
 30
0.0
 10
94.21636108755691
 20
-578.1997790221168
 30
0.0
 10
93.92623427040879
 20
-578.6017692997937
 30
0.0
 10
93.64986816634838
 20
-579.0136373552469
 30
0.0
 10
93.38708400638589
 20
-579.4339367995861
 30
0.0
 10
93.21718623294257
 20
-579.705716799518
 30
0.0
 10
93.05296818157655
 20
-579.9809892994493
 30
0.0
 10
92.89361846341968
 20
-580.2590487438238
 30
0.0
 10
92.72922402316929
 20
-580.5459629104188
 30
0.0
 10
92.56998013834305
 20
-580.8358756881245
 30
0.0
 10
92.41719442134025
 20
-581.1290692991621
 30
0.0
 10
92.25950275471296
 20
-581.4317173546418
 30
0.0
 10
92.1086526501125
 20
-581.7378579101208
 30
0.0
 10
91.95780487618348
 20
-582.0439984655997
 30
0.0
  0
SPLINE
  5
7B
330
70
100
AcDbEntity
  8
Layer 1
 62
     7
370
    25
100
AcDbSpline
210
0.0
220
0.0
230
1.0
 70
     8
 71
     3
 72
   104
 73
   100
 74
     0
 42
0.0000000001
 43
0.0000000001
 40
0.0
 40
0.0
 40
0.0
 40
0.0
 40
1.0
 40
1.0
 40
1.0
 40
2.0
 40
2.0
 40
2.0
 40
3.0
 40
3.0
 40
3.0
 40
4.0
 40
4.0
 40
4.0
 40
5.0
 40
5.0
 40
5.0
 40
6.0
 40
6.0
 40
6.0
 40
7.0
 40
7.0
 40
7.0
 40
8.0
 40
8.0
 40
8.0
 40
9.0
 40
9.0
 40
9.0
 40
10.0
 40
10.0
 40
10.0
 40
11.0
 40
11.0
 40
11.0
 40
12.0
 40
12.0
 40
12.0
 40
13.0
 40
13.0
 40
13.0
 40
14.0
 40
14.0
 40
14.0
 40
15.0
 40
15.0
 40
15.0
 40
16.0
 40
16.0
 40
16.0
 40
17.0
 40
17.0
 40
17.0
 40
18.0
 40
18.0
 40
18.0
 40
19.0
 40
19.0
 40
19.0
 40
20.0
 40
20.0
 40
20.0
 40
21.0
 40
21.0
 40
21.0
 40
22.0
 40
22.0
 40
22.0
 40
23.0
 40
23.0
 40
23.0
 40
24.0
 40
24.0
 40
24.0
 40
25.0
 40
25.0
 40
25.0
 40
26.0
 40
26.0
 40
26.0
 40
27.0
 40
27.0
 40
27.0
 40
28.0
 40
28.0
 40
28.0
 40
29.0
 40
29.0
 40
29.0
 40
30.0
 40
30.0
 40
30.0
 40
31.0
 40
31.0
 40
31.0
 40
32.0
 40
32.0
 40
32.0
 40
33.0
 40
33.0
 40
33.0
 40
33.0
 10
450.6521973873369
 20
-582.0439984655997
 30
0.0
 10
450.5777259984665
 20
-581.8910340211941
 30
0.0
 10
450.5032546095967
 20
-581.7381048545653
 30
0.0
 10
450.4271604429488
 20
-581.5859517990477
 30
0.0
 10
450.3522304429674
 20
-581.4361976324188
 30
0.0
 10
450.2756776652086
 20
-581.2871842991222
 30
0.0
 10
450.1979254430064
 20
-581.1388765213819
 30
0.0
 10
450.1213726652476
 20
-580.9928265214182
 30
0.0
 10
450.0436204430448
 20
-580.8473762436769
 30
0.0
 10
449.9644923875091
 20
-580.7027020770466
 30
0.0
 10
449.886634331973
 20
-580.5602504104155
 30
0.0
 10
449.8074357208816
 20
-580.4184690215618
 30
0.0
 10
449.7268965542349
 20
-580.2774990215974
 30
0.0
 10
449.6475921098102
 20
-580.1386456882984
 30
0.0
 10
449.5670176653859
 20
-580.0005331883331
 30
0.0
 10
449.4851026654063
 20
-579.8631967994789
 30
0.0
 10
449.4044223876488
 20
-579.7279417995124
 30
0.0
 10
449.3224368321141
 20
-579.5934981884348
 30
0.0
 10
449.2391107210234
 20
-579.4598659662465
 30
0.0
 10
448.9787959988662
 20
-579.0424240219062
 30
0.0
 10
448.7051815544905
 20
-578.6331312442306
 30
0.0
 10
448.4180204434511
 20
-578.2336104109972
 30
0.0
 10
448.136644887966
 20
-577.8421329110948
 30
0.0
 10
447.8422165547061
 20
-577.4600040223019
 30
0.0
 10
447.5347354436718
 20
-577.0887054112836
 30
0.0
 10
447.2266898881932
 20
-576.7167718002655
 30
0.0
 10
446.9054857216069
 20
-576.3557390225781
 30
0.0
 10
446.5729926661348
 20
-576.0054659671096
 30
0.0
 10
446.2293518328869
 20
-575.6434454116445
 30
0.0
 10
445.8736107218651
 20
-575.2929606895103
 30
0.0
 10
445.507780166401
 20
-574.9534473562618
 30
0.0
 10
445.1587771109323
 20
-574.6295620785647
 30
0.0
 10
444.8006018332443
 20
-574.3156956897544
 30
0.0
 10
444.4354415555575
 20
-574.0101901342752
 30
0.0
 10
444.0430115556562
 20
-573.6818598565799
 30
0.0
 10
443.6425029446446
 20
-573.3631956899922
 30
0.0
 10
443.235997111413
 20
-573.0525043011811
 30
0.0
 10
442.4549118338307
 20
-572.4554984679975
 30
0.0
 10
441.6514957229202
 20
-571.8878084681391
 30
0.0
 10
440.8364026675686
 20
-571.3380043016102
 30
0.0
 10
440.0211685011056
 20
-570.7881295795249
 30
0.0
 10
439.1942221124233
 20
-570.2561759685472
 30
0.0
 10
438.3613137792986
 20
-569.7337473575665
 30
0.0
 10
437.5276646128402
 20
-569.2108601354749
 30
0.0
 10
436.6880535019393
 20
-568.6974979133809
 30
0.0
 10
435.8457612799276
 20
-568.1886512468415
 30
0.0
 10
435.0029398912493
 20
-567.6794518025243
 30
0.0
 10
434.1574726692384
 20
-567.1747326359842
 30
0.0
 10
433.3120760027832
 20
-566.6698723583327
 30
0.0
 10
432.466679336328
 20
-566.1650120806813
 30
0.0
 10
431.6213532254279
 20
-565.6599754141409
 30
0.0
 10
430.7775087811945
 20
-565.1525045809344
 30
0.0
 10
429.9342993369609
 20
-564.6454218032832
 30
0.0
 10
429.0926068371716
 20
-564.1359048589656
 30
0.0
 10
428.2537718373812
 20
-563.6216254146504
 30
0.0
 10
426.5798412822438
 20
-562.5953595815733
 30
0.0
 10
424.917481838215
 20
-561.5502201373899
 30
0.0
 10
423.2735021164041
 20
-560.4761176376589
 30
0.0
 10
420.0005357283332
 20
-558.3376493048598
 30
0.0
 10
416.8003473957997
 20
-556.0842459720897
 30
0.0
 10
413.703170174352
 20
-553.698445139353
 30
0.0
 10
412.1597321191826
 20
-552.5095487507614
 30
0.0
 10
410.6419057306732
 20
-551.2877381955116
 30
0.0
 10
409.1501496199349
 20
-550.0348126402691
 30
0.0
 10
407.6522904536427
 20
-548.7767012516946
 30
0.0
 10
406.1807485095661
 20
-547.4871926409057
 30
0.0
 10
404.7365115654821
 20
-546.1678743079025
 30
0.0
 10
403.3012351769523
 20
-544.8567051415639
 30
0.0
 10
401.8929110106379
 20
-543.5160790307874
 30
0.0
 10
400.5111157332055
 20
-542.1486418089075
 30
0.0
 10
399.103426566891
 20
-540.7555929203669
 30
0.0
 10
397.723254067236
 20
-539.3347098651664
 30
0.0
 10
396.3702101786855
 20
-537.8886384766391
 30
0.0
 10
395.7970168454949
 20
-537.2760398656809
 30
0.0
 10
395.2286918456374
 20
-536.6589256991686
 30
0.0
 10
394.6651293457783
 20
-536.0374723659908
 30
0.0
 10
394.0950757348095
 20
-535.4088576439257
 30
0.0
 10
393.5299257349511
 20
-534.7757979218617
 30
0.0
 10
392.9695029573131
 20
-534.1385401442435
 30
0.0
 10
392.402589068566
 20
-533.4938387555153
 30
0.0
 10
391.8405787909287
 20
-532.8448687556778
 30
0.0
 10
391.2833310132906
 20
-532.1918065336185
 30
0.0
 10
390.7195215689869
 20
-531.5311243115616
 30
0.0
 10
390.1606510135707
 20
-530.8662087561724
 30
0.0
 10
389.6065429581542
 20
-530.1973420896728
 30
0.0
 10
389.0459085138498
 20
-529.5205732009535
 30
0.0
 10
388.4901776806552
 20
-528.8397826455677
 30
0.0
 10
387.9392093474598
 20
-528.1551115346275
 30
0.0
 10
387.3817146253765
 20
-527.4623265348009
 30
0.0
 10
386.8290882366261
 20
-526.7656257016421
 30
0.0
 10
386.2812949034299
 20
-526.0651148684834
 30
0.0
 10
385.7270104591239
 20
-525.3562432019942
 30
0.0
 10
385.1777001814834
 20
-524.6434909799504
 30
0.0
 10
384.6328349038419
 20
-523.9273520912404
 30
0.0
 10
384.0814432373131
 20
-523.2026054247547
 30
0.0
 10
383.5346024041163
 20
-522.4744015360482
 30
0.0
 10
382.9937940709184
 20
-521.7417879251203
 30
0.0
 10
382.4464593488331
 20
-521.0003901475279
 30
0.0
 10
381.905333515635
 20
-520.2544415366028
 30
0.0
 10
381.3641724046592
 20
-519.5084929256783
 30
0.0
  0
SPLINE
  5
7C
330
70
100
AcDbEntity
  8
Layer 1
 62
     7
370
    25
100
AcDbSpline
210
0.0
220
0.0
230
1.0
 70
     8
 71
     3
 72
   122
 73
   118
 74
     0
 42
0.0000000001
 43
0.0000000001
 40
0.0
 40
0.0
 40
0.0
 40
0.0
 40
1.0
 40
1.0
 40
1.0
 40
2.0
 40
2.0
 40
2.0
 40
3.0
 40
3.0
 40
3.0
 40
4.0
 40
4.0
 40
4.0
 40
5.0
 40
5.0
 40
5.0
 40
6.0
 40
6.0
 40
6.0
 40
7.0
 40
7.0
 40
7.0
 40
8.0
 40
8.0
 40
8.0
 40
9.0
 40
9.0
 40
9.0
 40
10.0
 40
10.0
 40
10.0
 40
11.0
 40
11.0
 40
11.0
 40
12.0
 40
12.0
 40
12.0
 40
13.0
 40
13.0
 40
13.0
 40
14.0
 40
14.0
 40
14.0
 40
15.0
 40
15.0
 40
15.0
 40
16.0
 40
16.0
 40
16.0
 40
17.0
 40
17.0
 40
17.0
 40
18.0
 40
18.0
 40
18.0
 40
19.0
 40
19.0
 40
19.0
 40
20.0
 40
20.0
 40
20.0
 40
21.0
 40
21.0
 40
21.0
 40
22.0
 40
22.0
 40
22.0
 40
23.0
 40
23.0
 40
23.0
 40
24.0
 40
24.0
 40
24.0
 40
25.0
 40
25.0
 40
25.0
 40
26.0
 40
26.0
 40
26.0
 40
27.0
 40
27.0
 40
27.0
 40
28.0
 40
28.0
 40
28.0
 40
29.0
 40
29.0
 40
29.0
 40
30.0
 40
30.0
 40
30.0
 40
31.0
 40
31.0
 40
31.0
 40
32.0
 40
32.0
 40
32.0
 40
33.0
 40
33.0
 40
33.0
 40
34.0
 40
34.0
 40
34.0
 40
35.0
 40
35.0
 40
35.0
 40
36.0
 40
36.0
 40
36.0
 40
37.0
 40
37.0
 40
37.0
 40
38.0
 40
38.0
 40
38.0
 40
39.0
 40
39.0
 40
39.0
 40
39.0
 10
441.304997389674
 20
-790.8714389689488
 30
0.0
 10
441.3060557230067
 20
-789.4636439693011
 30
0.0
 10
441.3070787785618
 20
-788.0558842474307
 30
0.0
 10
441.3104301674499
 20
-786.6480892477824
 30
0.0
 10
441.313781556338
 20
-785.2505600814652
 30
0.0
 10
441.3194260007816
 20
-783.8530309151482
 30
0.0
 10
441.3267637785575
 20
-782.4555017488304
 30
0.0
 10
441.3340662785554
 20
-781.068238415844
 30
0.0
 10
441.3430621118863
 20
-779.6809398050795
 30
0.0
 10
441.3539629452169
 20
-778.2937117498712
 30
0.0
 10
441.3647932229924
 20
-776.9166789724374
 30
0.0
 10
441.3774579452111
 20
-775.5396461950041
 30
0.0
 10
441.3920276674299
 20
-774.1626486953483
 30
0.0
 10
441.4064915563149
 20
-772.7958464734677
 30
0.0
 10
441.4227898896444
 20
-771.4291148071425
 30
0.0
 10
441.4409932229728
 20
-770.06234786304
 30
0.0
 10
441.4590554451911
 20
-768.70581147449
 30
0.0
 10
441.4789873896302
 20
-767.349310363718
 30
0.0
 10
441.5008243340694
 20
-765.9928445307244
 30
0.0
 10
441.5225201673973
 20
-764.6465386977275
 30
0.0
 10
441.5460504451689
 20
-763.3003034202862
 30
0.0
 10
441.5715562784957
 20
-761.954068142845
 30
0.0
 10
441.5968151673787
 20
-760.6180634209569
 30
0.0
 10
441.6240143340387
 20
-759.2820586990682
 30
0.0
 10
441.6531185006976
 20
-757.9460892549576
 30
0.0
 10
441.6820462784683
 20
-756.6203150886227
 30
0.0
 10
441.7128437784604
 20
-755.2945762000653
 30
0.0
 10
441.7456168340082
 20
-753.9688725892855
 30
0.0
 10
441.7781076673334
 20
-752.6533289785037
 30
0.0
 10
441.8125387784356
 20
-751.3378206454989
 30
0.0
 10
441.848945445093
 20
-750.0223828680503
 30
0.0
 10
441.885069889529
 20
-748.7171050905986
 30
0.0
 10
441.9231346117413
 20
-747.4118625909251
 30
0.0
 10
441.9631748895089
 20
-746.1066906468065
 30
0.0
 10
442.0029329450551
 20
-744.8116787026862
 30
0.0
 10
442.0445960006001
 20
-743.5166667585652
 30
0.0
 10
442.088305167256
 20
-742.2217606477779
 30
0.0
 10
442.1316615561336
 20
-740.93697925921
 30
0.0
 10
442.1769582227894
 20
-739.6522684261977
 30
0.0
 10
442.2243010005549
 20
-738.3675928709638
 30
0.0
 10
442.3874254449586
 20
-733.9392792609596
 30
0.0
 10
442.5745035004675
 20
-729.5118123176218
 30
0.0
 10
442.7873343337479
 20
-725.0855800965061
 30
0.0
 10
442.9947676670293
 20
-720.7712489864741
 30
0.0
 10
443.2266837780824
 20
-716.4580820431078
 30
0.0
 10
443.48509350024
 20
-712.1464673219633
 30
0.0
 10
443.7498532223961
 20
-707.7289487119566
 30
0.0
 10
444.0424118334339
 20
-703.3130881575047
 30
0.0
 10
444.3644626666864
 20
-698.8993795474977
 30
0.0
 10
444.679563777719
 20
-694.581062048577
 30
0.0
 10
445.0228871109667
 20
-690.2648259385447
 30
0.0
 10
445.3968315553174
 20
-685.9511298285125
 30
0.0
 10
446.1531165551282
 20
-677.2265826084708
 30
0.0
 10
447.0344965549081
 20
-668.51247761065
 30
0.0
 10
448.0402307213231
 20
-659.8131540017131
 30
0.0
 10
448.5430448878643
 20
-655.4636509472452
 30
0.0
 10
449.0769740543972
 20
-651.1178873372206
 30
0.0
 10
449.6368323875911
 20
-646.775475116084
 30
0.0
 10
449.8916084986379
 20
-644.7996373388003
 30
0.0
 10
450.1517115541287
 20
-642.8245403948494
 30
0.0
 10
450.4151307207293
 20
-640.849866784232
 30
0.0
 10
450.7307609984285
 20
-638.4839626181567
 30
0.0
 10
451.0511890539036
 20
-636.1186934520812
 30
0.0
 10
451.3744040538226
 20
-633.7538476193393
 30
0.0
 10
451.5226765537862
 20
-632.6690912307217
 30
0.0
 10
451.6715487759707
 20
-631.5844406754373
 30
0.0
 10
451.820244609267
 20
-630.4997548423748
 30
0.0
 10
451.9689404425633
 20
-629.415069009313
 30
0.0
 10
452.1174246091932
 20
-628.3303478984729
 30
0.0
 10
452.2649562758224
 20
-627.2455209542997
 30
0.0
 10
452.5600548868601
 20
-625.0759376215088
 30
0.0
 10
452.8512729423426
 20
-622.9057898442739
 30
0.0
 10
453.1316254422726
 20
-620.7342662337054
 30
0.0
 10
453.4119779422026
 20
-618.562777900915
 30
0.0
 10
453.6815001643573
 20
-616.3899137347912
 30
0.0
 10
453.9253754420742
 20
-614.2139098464463
 30
0.0
 10
454.1692859975687
 20
-612.0373062358797
 30
0.0
 10
454.3875496086255
 20
-609.8575629030914
 30
0.0
 10
454.553884330806
 20
-607.6737273480813
 30
0.0
 10
454.636928219674
 20
-606.583608737243
 30
0.0
 10
454.7070251641012
 20
-605.4925023486269
 30
0.0
 10
454.7580721085325
 20
-604.4004081822333
 30
0.0
 10
454.8089779418531
 20
-603.311100960283
 30
0.0
 10
454.8409748862898
 20
-602.2208059605558
 30
0.0
 10
454.8474659973989
 20
-601.1302640163839
 30
0.0
 10
454.8539923862868
 20
-600.0413801277677
 30
0.0
 10
454.8351187751798
 20
-598.9522140169289
 30
0.0
 10
454.7809321085268
 20
-597.8644942949784
 30
0.0
 10
454.7266396085406
 20
-596.7750106841392
 30
0.0
 10
454.636928219674
 20
-595.6870087399668
 30
0.0
 10
454.5024493308188
 20
-594.6046159624597
 30
0.0
 10
454.4340457197247
 20
-594.0538240181532
 30
0.0
 10
454.3540357197445
 20
-593.5044784627352
 30
0.0
 10
454.2616432197679
 20
-592.9571790184275
 30
0.0
 10
454.1709793309017
 20
-592.4200395741173
 30
0.0
 10
454.0684268309275
 20
-591.8848756853622
 30
0.0
 10
453.9534212754005
 20
-591.3523929077173
 30
0.0
 10
453.8378159976516
 20
-590.8170173522959
 30
0.0
 10
453.7096165532392
 20
-590.2843934635402
 30
0.0
 10
453.5693521088297
 20
-589.7549445747837
 30
0.0
 10
453.4276059977542
 20
-589.2198159638062
 30
0.0
 10
453.2735126644595
 20
-588.6879681861611
 30
0.0
 10
453.1075659978343
 20
-588.1598951307376
 30
0.0
 10
452.9835646089762
 20
-587.7653484641697
 30
0.0
 10
452.8529662756757
 20
-587.3728831864903
 30
0.0
 10
452.7163707201539
 20
-586.9825698532544
 30
0.0
 10
452.5755418313003
 20
-586.5802267977995
 30
0.0
 10
452.4283276646707
 20
-586.1801415201214
 30
0.0
 10
452.2752221091537
 20
-585.7823140202212
 30
0.0
 10
452.1174246091932
 20
-585.3722451314345
 30
0.0
 10
451.953418220345
 20
-584.9646104093145
 30
0.0
 10
451.7841554426099
 20
-584.559127631638
 30
0.0
 10
451.6097421093197
 20
-584.1412270761867
 30
0.0
 10
451.4297548871429
 20
-583.725619576291
 30
0.0
 10
451.2431354427449
 20
-583.313045965283
 30
0.0
 10
451.0508715539041
 20
-582.8878781876113
 30
0.0
 10
450.8515168317317
 20
-582.4659206877165
 30
0.0
 10
450.6521973873369
 20
-582.0439984655997
 30
0.0
  0
LINE
  5
7D
330
70
100
AcDbEntity
  8
Layer 1
 62
     7
370
    25
100
AcDbLine
 10
441.304997389674
 20
-1070.000011676945
 30
0.0
 11
441.304997389674
 21
-790.8714389689488
 31
0.0
  0
LINE
  5
7E
330
70
100
AcDbEntity
  8
Layer 1
 62
     7
370
    25
100
AcDbLine
 10
101.3050046377162
 20
-1070.000011676945
 30
0.0
 11
441.304997389674
 21
-1070.000011676945
 31
0.0
  0
LINE
  5
7F
330
70
100
AcDbEntity
  8
Layer 1
 62
     7
370
    25
100
AcDbLine
 10
101.3050046377162
 20
-790.8714389689488
 30
0.0
 11
101.3050046377162
 21
-1070.000011676945
 31
0.0
  0
SPLINE
  5
80
330
70
100
AcDbEntity
  8
Layer 1
 62
     7
370
    25
100
AcDbSpline
210
0.0
220
0.0
230
1.0
 70
     8
 71
     3
 72
    11
 73
     7
 74
     0
 42
0.0000000001
 43
0.0000000001
 40
0.0
 40
0.0
 40
0.0
 40
0.0
 40
1.0
 40
1.0
 40
1.0
 40
2.0
 40
2.0
 40
2.0
 40
2.0
 10
381.3641724046592
 20
-519.5084929256783
 30
0.0
 10
337.606984164706
 20
-458.7244937742076
 30
0.0
 10
252.85960410457
 20
-444.9215340554364
 30
0.0
 10
192.0756064886319
 20
-488.6787137667191
 30
0.0
 10
180.2034749549491
 20
-497.2252140423604
 30
0.0
 10
169.7923634460137
 20
-507.6363565397574
 30
0.0
 10
161.2458281084984
 20
-519.5084929256783
 30
0.0
  0
SPLINE
  5
81
330
70
100
AcDbEntity
  8
Layer 1
 62
     7
370
    25
100
AcDbSpline
210
0.0
220
0.0
230
1.0
 70
     8
 71
     3
 72
   128
 73
   124
 74
     0
 42
0.0000000001
 43
0.0000000001
 40
0.0
 40
0.0
 40
0.0
 40
0.0
 40
1.0
 40
1.0
 40
1.0
 40
2.0
 40
2.0
 40
2.0
 40
3.0
 40
3.0
 40
3.0
 40
4.0
 40
4.0
 40
4.0
 40
5.0
 40
5.0
 40
5.0
 40
6.0
 40
6.0
 40
6.0
 40
7.0
 40
7.0
 40
7.0
 40
8.0
 40
8.0
 40
8.0
 40
9.0
 40
9.0
 40
9.0
 40
10.0
 40
10.0
 40
10.0
 40
11.0
 40
11.0
 40
11.0
 40
12.0
 40
12.0
 40
12.0
 40
13.0
 40
13.0
 40
13.0
 40
14.0
 40
14.0
 40
14.0
 40
15.0
 40
15.0
 40
15.0
 40
16.0
 40
16.0
 40
16.0
 40
17.0
 40
17.0
 40
17.0
 40
18.0
 40
18.0
 40
18.0
 40
19.0
 40
19.0
 40
19.0
 40
20.0
 40
20.0
 40
20.0
 40
21.0
 40
21.0
 40
21.0
 40
22.0
 40
22.0
 40
22.0
 40
23.0
 40
23.0
 40
23.0
 40
24.0
 40
24.0
 40
24.0
 40
25.0
 40
25.0
 40
25.0
 40
26.0
 40
26.0
 40
26.0
 40
27.0
 40
27.0
 40
27.0
 40
28.0
 40
28.0
 40
28.0
 40
29.0
 40
29.0
 40
29.0
 40
30.0
 40
30.0
 40
30.0
 40
31.0
 40
31.0
 40
31.0
 40
32.0
 40
32.0
 40
32.0
 40
33.0
 40
33.0
 40
33.0
 40
34.0
 40
34.0
 40
34.0
 40
35.0
 40
35.0
 40
35.0
 40
36.0
 40
36.0
 40
36.0
 40
37.0
 40
37.0
 40
37.0
 40
38.0
 40
38.0
 40
38.0
 40
39.0
 40
39.0
 40
39.0
 40
40.0
 40
40.0
 40
40.0
 40
41.0
 40
41.0
 40
41.0
 40
41.0
 10
349.8277566606907
 20
-344.1127932270057
 30
0.0
 10
349.8286852796711
 20
-344.3652661412623
 30
0.0
 10
349.8296138986508
 20
-344.6177390555227
 30
0.0
 10
349.8325097580984
 20
-344.8701924637754
 30
0.0
 10
349.8354468034837
 20
-345.1262363537298
 30
0.0
 10
349.8404074448411
 20
-345.3822601788912
 30
0.0
 10
349.8467690503209
 20
-345.6382464727056
 30
0.0
 10
349.8532207979585
 20
-345.897860020211
 30
0.0
 10
349.8611134935398
 20
-346.1574349652166
 30
0.0
 10
349.8705345373588
 20
-346.4169552537997
 30
0.0
 10
349.8800885169304
 20
-346.6801375065608
 30
0.0
 10
349.8912142805969
 20
-346.9432635495562
 30
0.0
 10
349.9038062192118
 20
-347.2063188070582
 30
0.0
 10
349.9165750164102
 20
-347.4730687760516
 30
0.0
 10
349.9308514637682
 20
-347.7397459571685
 30
0.0
 10
349.9465840958799
 20
-348.0063371324809
 30
0.0
 10
349.9625365903829
 20
-348.2766539001106
 30
0.0
 10
349.9799862541836
 20
-348.546882241288
 30
0.0
 10
349.9988681673634
 20
-348.8170102300677
 30
0.0
 10
350.018012533582
 20
-349.0908929184356
 30
0.0
 10
350.0386292415837
 20
-349.364672445282
 30
0.0
 10
350.0606584336617
 20
-349.6383380998188
 30
0.0
 10
350.0829920742879
 20
-349.9157858772302
 30
0.0
 10
350.1067775104883
 20
-350.1931166130993
 30
0.0
 10
350.131954894775
 20
-350.4703207417304
 30
0.0
 10
350.1574781403429
 20
-350.751332818559
 30
0.0
 10
350.1844318389968
 20
-351.0322147858526
 30
0.0
 10
350.2127575507035
 20
-351.3129581558097
 30
0.0
 10
350.2414699195762
 20
-351.5975337837788
 30
0.0
 10
350.2715920141945
 20
-351.8819670047713
 30
0.0
 10
350.3030664014474
 20
-352.1662503420499
 30
0.0
 10
350.3349676089768
 20
-352.4543888105415
 30
0.0
 10
350.3682580343701
 20
-352.7423733026523
 30
0.0
 10
350.4028814470061
 20
-353.030197300455
 30
0.0
 10
350.437971195388
 20
-353.3218979415019
 30
0.0
 10
350.474430080299
 20
-353.6134337357939
 30
0.0
 10
350.5122026873801
 20
-353.9047990310232
 30
0.0
 10
350.5504804842737
 20
-354.2000611920042
 30
0.0
 10
350.5901073790913
 20
-354.4951482627493
 30
0.0
 10
350.631030122569
 20
-354.7900555337556
 30
0.0
 10
350.6724962506559
 20
-355.0888786730231
 30
0.0
 10
350.7152928692225
 20
-355.3875172059794
 30
0.0
 10
350.7593637525732
 20
-355.6859668086524
 30
0.0
 10
350.8040155117817
 20
-355.9883501234637
 30
0.0
 10
350.8499753480159
 20
-356.2905394947829
 30
0.0
 10
350.8972035773929
 20
-356.5925328557131
 30
0.0
 10
351.065528213794
 20
-357.6688578279769
 30
0.0
 10
351.2499647194045
 20
-358.7426929620377
 30
0.0
 10
351.4479444451144
 20
-359.8139923880398
 30
0.0
 10
351.6572847923415
 20
-360.9467659234037
 30
0.0
 10
351.8817672489987
 20
-362.0767043893708
 30
0.0
 10
352.1190334120391
 20
-363.2039409084804
 30
0.0
 10
352.3693207909997
 20
-364.3930404000476
 30
0.0
 10
352.633833523664
 20
-365.5791332401416
 30
0.0
 10
352.9104704781636
 20
-366.762378417035
 30
0.0
 10
353.2016360796129
 20
-368.0077662366422
 30
0.0
 10
353.5062328439447
 20
-369.2499994267186
 30
0.0
 10
353.8222556434963
 20
-370.4893049137039
 30
0.0
 10
354.1286401606551
 20
-371.690813202925
 30
0.0
 10
354.4457643829111
 20
-372.8895696480329
 30
0.0
 10
354.7717871805088
 20
-374.0858940829351
 30
0.0
 10
355.1170935607129
 20
-375.3529786647902
 30
0.0
 10
355.4723823128662
 20
-376.6173350312282
 30
0.0
 10
355.8360951259317
 20
-377.8792552860833
 30
0.0
 10
356.1921395371896
 20
-379.1145696276532
 30
0.0
 10
356.5562565337486
 20
-380.3475494990951
 30
0.0
 10
356.926936066094
 20
-381.5785485677474
 30
0.0
 10
357.3230608261598
 20
-382.8940493390625
 30
0.0
 10
357.7266800135094
 20
-384.2072880301437
 30
0.0
 10
358.1364032287113
 20
-385.518615555792
 30
0.0
 10
358.9568427180528
 20
-388.1444489125304
 30
0.0
 10
359.8017575327359
 20
-390.7626190676946
 30
0.0
 10
360.6609267405791
 20
-393.3760529670538
 30
0.0
 10
361.5438645779703
 20
-396.0617866434925
 30
0.0
 10
362.4418564039542
 20
-398.7425183854389
 30
0.0
 10
363.3472864573227
 20
-401.4207259512791
 30
0.0
 10
363.7005216842848
 20
-402.4655744780654
 30
0.0
 10
364.0548890187147
 20
-403.5100388221044
 30
0.0
 10
364.4095738867141
 20
-404.5543950454448
 30
0.0
 10
364.9834605897429
 20
-406.2441828088163
 30
0.0
 10
365.5581785906069
 20
-407.9336875139107
 30
0.0
 10
366.132725612006
 20
-409.6232528198807
 30
0.0
 10
367.0767101144493
 20
-412.3992196342622
 30
0.0
 10
368.0202330628826
 20
-415.1753500389168
 30
0.0
 10
368.9544597941797
 20
-417.9546139915363
 30
0.0
 10
369.4499124043783
 20
-419.428553382942
 30
0.0
 10
369.9427504105797
 20
-420.9033740991832
 30
0.0
 10
370.4320569632181
 20
-422.3793664931392
 30
0.0
 10
370.8744927306417
 20
-423.7139732422289
 30
0.0
 10
371.314041198172
 20
-425.0495379495279
 30
0.0
 10
371.7496577158299
 20
-426.386387232412
 30
0.0
 10
372.2252012787965
 20
-427.8457673187278
 30
0.0
 10
372.6960590831798
 20
-429.3066782513879
 30
0.0
 10
373.1613300124243
 20
-430.7693649502126
 30
0.0
 10
373.5978822762425
 20
-432.1417678868377
 30
0.0
 10
374.0295160746883
 20
-433.5157341382318
 30
0.0
 10
374.4550598108968
 20
-434.8916005539027
 30
0.0
 10
375.3706651498811
 20
-437.8519323100229
 30
0.0
 10
376.2580769261896
 20
-440.8210607579746
 30
0.0
 10
377.1087424332512
 20
-443.8007900030765
 30
0.0
 10
377.8877268378695
 20
-446.5294331567797
 30
0.0
 10
378.6358968838776
 20
-449.2669658323751
 30
0.0
 10
379.343250604186
 20
-452.0149649435867
 30
0.0
 10
379.5637877862634
 20
-452.8717300427606
 30
0.0
 10
379.7803574013784
 20
-453.7295125359178
 30
0.0
 10
379.9927202312909
 20
-454.5883373793242
 30
0.0
 10
380.2009835554159
 20
-455.4305832507174
 30
0.0
 10
380.4052009443458
 20
-456.2738316172122
 30
0.0
 10
380.6051053093737
 20
-457.1181013023578
 30
0.0
 10
380.8010943316066
 20
-457.9458350542981
 30
0.0
 10
380.9929376258515
 20
-458.7745505094256
 30
0.0
 10
381.1804058384409
 20
-459.6042567126881
 30
0.0
 10
381.3641488493095
 20
-460.4174757316388
 30
0.0
 10
381.5436889264367
 20
-461.2316465153966
 30
0.0
 10
381.7186218184867
 20
-462.0468036103115
 30
0.0
 10
381.8900282648518
 20
-462.8455280767772
 30
0.0
 10
382.0570114049706
 20
-463.6451994894162
 30
0.0
 10
382.2197532495161
 20
-464.4457419952313
 30
0.0
 10
382.3791672369935
 20
-465.2299144577847
 30
0.0
 10
382.534511613259
 20
-466.0149227523381
 30
0.0
 10
382.6838001315242
 20
-466.8010718674479
 30
0.0
 10
382.8299924205835
 20
-467.5709163271118
 30
0.0
 10
382.97037744255
 20
-468.3418547770346
 30
0.0
 10
383.1107624645166
 20
-469.1127932269575
 30
0.0
  0
LINE
  5
82
330
70
100
AcDbEntity
  8
Layer 1
 62
     7
370
    25
100
AcDbLine
 10
554.5647419700994
 20
-297.1127932270057
 30
0.0
 11
396.8277566606975
 21
-297.1127932270057
 31
0.0
  0
LINE
  5
83
330
70
100
AcDbEntity
  8
Layer 1
 62
     7
370
    25
100
AcDbLine
 10
524.2365012881979
 20
-469.1127932270069
 30
0.0
 11
554.5647419700994
 21
-297.1127932270057
 31
0.0
  0
LINE
  5
84
330
70
100
AcDbEntity
  8
Layer 1
 62
     7
370
    25
100
AcDbLine
 10
383.1107624644986
 20
-469.1127932269081
 30
0.0
 11
524.2365012881979
 21
-469.1127932270069
 31
0.0
  0
SPLINE
  5
85
330
70
100
AcDbEntity
  8
Layer 1
 62
     7
370
    25
100
AcDbSpline
210
0.0
220
0.0
230
1.0
 70
     8
 71
     3
 72
     8
 73
     4
 74
     0
 42
0.0000000001
 43
0.0000000001
 40
0.0
 40
0.0
 40
0.0
 40
0.0
 40
1.0
 40
1.0
 40
1.0
 40
1.0
 10
396.8277566606975
 20
-297.1127932270057
 30
0.0
 10
370.8703734186503
 20
-297.1127932270057
 30
0.0
 10
349.8277566606984
 20
-318.1554099849588
 30
0.0
 10
349.8277566606984
 20
-344.1127932270057
 30
0.0
  0
SPLINE
  5
86
330
70
100
AcDbEntity
  8
Layer 1
 62
     7
370
    25
100
AcDbSpline
210
0.0
220
0.0
230
1.0
 70
     8
 71
     3
 72
   116
 73
   112
 74
     0
 42
0.0000000001
 43
0.0000000001
 40
0.0
 40
0.0
 40
0.0
 40
0.0
 40
1.0
 40
1.0
 40
1.0
 40
2.0
 40
2.0
 40
2.0
 40
3.0
 40
3.0
 40
3.0
 40
4.0
 40
4.0
 40
4.0
 40
5.0
 40
5.0
 40
5.0
 40
6.0
 40
6.0
 40
6.0
 40
7.0
 40
7.0
 40
7.0
 40
8.0
 40
8.0
 40
8.0
 40
9.0
 40
9.0
 40
9.0
 40
10.0
 40
10.0
 40
10.0
 40
11.0
 40
11.0
 40
11.0
 40
12.0
 40
12.0
 40
12.0
 40
13.0
 40
13.0
 40
13.0
 40
14.0
 40
14.0
 40
14.0
 40
15.0
 40
15.0
 40
15.0
 40
16.0
 40
16.0
 40
16.0
 40
17.0
 40
17.0
 40
17.0
 40
18.0
 40
18.0
 40
18.0
 40
19.0
 40
19.0
 40
19.0
 40
20.0
 40
20.0
 40
20.0
 40
21.0
 40
21.0
 40
21.0
 40
22.0
 40
22.0
 40
22.0
 40
23.0
 40
23.0
 40
23.0
 40
24.0
 40
24.0
 40
24.0
 40
25.0
 40
25.0
 40
25.0
 40
26.0
 40
26.0
 40
26.0
 40
27.0
 40
27.0
 40
27.0
 40
28.0
 40
28.0
 40
28.0
 40
29.0
 40
29.0
 40
29.0
 40
30.0
 40
30.0
 40
30.0
 40
31.0
 40
31.0
 40
31.0
 40
32.0
 40
32.0
 40
32.0
 40
33.0
 40
33.0
 40
33.0
 40
34.0
 40
34.0
 40
34.0
 40
35.0
 40
35.0
 40
35.0
 40
36.0
 40
36.0
 40
36.0
 40
37.0
 40
37.0
 40
37.0
 40
37.0
 10
768.7752352867437
 20
-479.6175994048878
 30
0.0
 10
768.855974223671
 20
-479.1270659007691
 30
0.0
 10
768.9367131605974
 20
-478.6365323966469
 30
0.0
 10
769.019595201738
 20
-478.1463593227827
 30
0.0
 10
769.1034603181072
 20
-477.6503722390812
 30
0.0
 10
769.1895196795054
 20
-477.1547541865648
 30
0.0
 10
769.2771102176026
 20
-476.6594085600335
 30
0.0
 10
769.3657315667536
 20
-476.1582334482604
 30
0.0
 10
769.4559203440406
 20
-475.657337212305
 30
0.0
 10
769.5477803343233
 20
-475.1567471166405
 30
0.0
 10
769.6407128756452
 20
-474.6503121648498
 30
0.0
 10
769.7353558837391
 20
-474.1441905440303
 30
0.0
 10
769.8316055519098
 20
-473.6383749926002
 30
0.0
 10
769.928970124968
 20
-473.1267003432779
 30
0.0
 10
770.0279787950714
 20
-472.6153388951042
 30
0.0
 10
770.1285858703636
 20
-472.1042921879191
 30
0.0
 10
770.2303490428733
 20
-471.5873729347413
 30
0.0
 10
770.3337475668626
 20
-471.0707756976236
 30
0.0
 10
770.4387212896843
 20
-470.5544987025945
 30
0.0
 10
770.5448916336625
 20
-470.0323365397412
 30
0.0
 10
770.6526732933148
 20
-469.5105019616263
 30
0.0
 10
770.762011809864
 20
-468.9889945366222
 30
0.0
 10
770.8725866866672
 20
-468.4615900949872
 30
0.0
 10
770.9847538281741
 20
-467.9345202469484
 30
0.0
 10
771.0984574309106
 20
-467.4077796900098
 30
0.0
 10
771.5382029685001
 20
-465.3706251601104
 30
0.0
 10
772.0009298825413
 20
-463.3383959498225
 30
0.0
 10
772.4832602226541
 20
-461.3108641915799
 30
0.0
 10
772.9904591633209
 20
-459.1787943746387
 30
0.0
 10
773.5193351196945
 20
-457.0519188916545
 30
0.0
 10
774.0667850322368
 20
-454.9298508220217
 30
0.0
 10
774.600789532827
 20
-452.8599009073716
 30
0.0
 10
775.1524668377688
 20
-450.7945251650093
 30
0.0
 10
775.7190540209457
 20
-448.7332590252629
 30
0.0
 10
776.3164010650823
 20
-446.5600873187439
 30
0.0
 10
776.930320838749
 20
-444.391483545751
 30
0.0
 10
777.5584303604123
 20
-442.2270094369044
 30
0.0
 10
778.1647501761554
 20
-440.1376229563959
 30
0.0
 10
778.7842923054824
 20
-438.0520845861098
 30
0.0
 10
779.4148666461233
 20
-435.9698946477038
 30
0.0
 10
780.0843479162741
 20
-433.7592319631964
 30
0.0
 10
780.7662647893417
 20
-431.5523436597315
 30
0.0
 10
781.4584189012414
 20
-429.3486753552691
 30
0.0
 10
782.8229408233802
 20
-425.0043340317555
 30
0.0
 10
784.2272494770924
 20
-420.6725071408907
 30
0.0
 10
785.6565386470083
 20
-416.3490172903657
 30
0.0
 10
787.0983734563724
 20
-411.9875778450643
 30
0.0
 10
788.565629241414
 20
-407.6346224398021
 30
0.0
 10
790.0465385681981
 20
-403.2863359549343
 30
0.0
 10
791.5304756013085
 20
-398.9291594359058
 30
0.0
 10
793.0281220623245
 20
-394.5766709479215
 30
0.0
 10
794.5279228754791
 20
-390.2249327849926
 30
0.0
 10
795.2757794788197
 20
-388.054993888693
 30
0.0
 10
796.0241717384275
 20
-385.8852415525675
 30
0.0
 10
796.7719227209656
 20
-383.7152679417565
 30
0.0
 10
797.5165295471801
 20
-381.5544186736927
 30
0.0
 10
798.2605004778889
 20
-379.3933499878735
 30
0.0
 10
799.0026311671296
 20
-377.2316471722725
 30
0.0
 10
800.4720807066265
 20
-372.9513859555293
 30
0.0
 10
801.9343154612757
 20
-368.6686385922688
 30
0.0
 10
803.3789677562733
 20
-364.3799264433109
 30
0.0
 10
804.7953427807826
 20
-360.1751604964086
 30
0.0
 10
806.1948169187724
 20
-355.9646609850219
 30
0.0
 10
807.5673339283673
 20
-351.7453855696354
 30
0.0
 10
808.2547120750298
 20
-349.632305953861
 30
0.0
 10
808.9353289311571
 20
-347.5170251972294
 30
0.0
 10
809.6078194736522
 20
-345.3991602060787
 30
0.0
 10
810.2409691385206
 20
-343.4051908865799
 30
0.0
 10
810.8669154622875
 20
-341.4089308454124
 30
0.0
 10
811.4841500402871
 20
-339.4099755566089
 30
0.0
 10
812.1131990162352
 20
-337.3727585532046
 30
0.0
 10
812.7331995541332
 20
-335.3327421360099
 30
0.0
 10
813.3426136373829
 20
-333.2895632407513
 30
0.0
 10
813.9214369997223
 20
-331.3489456696742
 30
0.0
 10
814.4907100475874
 20
-329.4054751453598
 30
0.0
 10
815.0487720758381
 20
-327.4587828692526
 30
0.0
 10
815.6202520952966
 20
-325.4652845061645
 30
0.0
 10
816.1799755005324
 20
-323.468407601758
 30
0.0
 10
816.7260890001147
 20
-321.4678068493931
 30
0.0
 10
817.2462739316166
 20
-319.5621913205001
 30
0.0
 10
817.7541106298448
 20
-317.6531971536875
 30
0.0
 10
818.2475693455787
 20
-315.7404850021121
 30
0.0
 10
818.7165285102491
 20
-313.9227363956842
 30
0.0
 10
819.1725019452642
 20
-312.1016298254403
 30
0.0
 10
819.6132131122404
 20
-310.2768173274152
 30
0.0
 10
820.0310065364041
 20
-308.5468982349732
 30
0.0
 10
820.435083749275
 20
-306.8136486225586
 30
0.0
 10
820.8230203000997
 20
-305.0768038252933
 30
0.0
 10
821.0230270336293
 20
-304.1813464268735
 30
0.0
 10
821.2187434521755
 20
-303.2849334000277
 30
0.0
 10
821.4098552198409
 20
-302.387537723206
 30
0.0
 10
821.5959237779234
 20
-301.513823238457
 30
0.0
 10
821.7776275009812
 20
-300.6391772813486
 30
0.0
 10
821.9545778049541
 20
-299.7635693793004
 30
0.0
 10
822.1267513166717
 20
-298.9115986056125
 30
0.0
 10
822.2944245834293
 20
-298.0587171215926
 30
0.0
 10
822.4571880554373
 20
-297.2048987935796
 30
0.0
 10
822.6154555899748
 20
-296.3746650805696
 30
0.0
 10
822.7690808253926
 20
-295.5435455647397
 30
0.0
 10
822.917685971298
 20
-294.7115259660437
 30
0.0
 10
823.0620898644804
 20
-293.9030285985857
 30
0.0
 10
823.2017535041476
 20
-293.0936813217848
 30
0.0
 10
823.3360715525266
 20
-292.2834508966925
 30
0.0
 10
823.4665022647295
 20
-291.4966695767578
 30
0.0
 10
823.5918923246906
 20
-290.7090554876925
 30
0.0
 10
823.7123447991262
 20
-289.9206735855267
 30
0.0
 10
823.8292279845222
 20
-289.1556532863095
 30
0.0
 10
823.9414618732789
 20
-288.3899100039963
 30
0.0
 10
824.0465057110929
 20
-287.6231940325427
 30
0.0
 10
824.1483621196861
 20
-286.8797431373243
 30
0.0
 10
824.2434582040623
 20
-286.1353776875321
 30
0.0
 10
824.3385542884345
 20
-285.3910122377437
 30
0.0
  0
LINE
  5
87
330
70
100
AcDbEntity
  8
Layer 1
 62
     7
370
    25
100
AcDbLine
 10
755.3125619150945
 20
-208.6171945969876
 30
0.0
 11
580.5754543461936
 21
-211.4842361327891
 31
0.0
  0
LINE
  5
88
330
70
100
AcDbEntity
  8
Layer 1
 62
     7
370
    25
100
AcDbLine
 10
580.5754543461936
 20
-211.4842361327891
 30
0.0
 11
627.8546007191931
 21
-479.6175994048878
 31
0.0
  0
LINE
  5
89
330
70
100
AcDbEntity
  8
Layer 1
 62
     7
370
    25
100
AcDbLine
 10
627.8546007191931
 20
-479.6175994048878
 30
0.0
 11
768.775235286797
 21
-479.6175994048878
 31
0.0
  0
SPLINE
  5
8A
330
70
100
AcDbEntity
  8
Layer 1
 62
     7
370
    25
100
AcDbSpline
210
0.0
220
0.0
230
1.0
 70
     8
 71
     3
 72
    11
 73
     7
 74
     0
 42
0.0000000001
 43
0.0000000001
 40
0.0
 40
0.0
 40
0.0
 40
0.0
 40
1.0
 40
1.0
 40
1.0
 40
2.0
 40
2.0
 40
2.0
 40
2.0
 10
824.3385511060468
 20
-285.3910118456804
 30
0.0
 10
828.958980464507
 20
-247.8889044707225
 30
0.0
 10
802.3031137152496
 20
-213.7418416066008
 30
0.0
 10
764.8010063402917
 20
-209.1214122481373
 30
0.0
 10
761.653698679998
 20
-208.7336497000654
 30
0.0
 10
758.48323989339
 20
-208.5651709472976
 30
0.0
 10
755.3125619150843
 20
-208.6171945969841
 30
0.0
  0
LINE
  5
8B
330
70
100
AcDbEntity
  8
Layer 1
 62
     7
370
    25
100
AcDbLine
 10
805.6951321363984
 20
-635.4140896461107
 30
0.0
 11
529.4498986151981
 21
-635.4140896461107
 31
0.0
  0
LINE
  5
8C
330
70
100
AcDbEntity
  8
Layer 1
 62
     7
370
    25
100
AcDbLine
 10
839.5725153757965
 20
-1064.167263855912
 30
0.0
 11
839.5725153757965
 21
-669.2914728855122
 31
0.0
  0
LINE
  5
8D
330
70
100
AcDbEntity
  8
Layer 1
 62
     7
370
    25
100
AcDbLine
 10
495.5725153757998
 20
-1064.167263855912
 30
0.0
 11
839.5725153757965
 21
-1064.167263855912
 31
0.0
  0
LINE
  5
8E
330
70
100
AcDbEntity
  8
Layer 1
 62
     7
370
    25
100
AcDbLine
 10
495.5725153757998
 20
-669.2914728855122
 30
0.0
 11
495.5725153757998
 21
-1064.167263855912
 31
0.0
  0
SPLINE
  5
8F
330
70
100
AcDbEntity
  8
Layer 1
 62
     7
370
    25
100
AcDbSpline
210
0.0
220
0.0
230
1.0
 70
     8
 71
     3
 72
     8
 73
     4
 74
     0
 42
0.0000000001
 43
0.0000000001
 40
0.0
 40
0.0
 40
0.0
 40
0.0
 40
1.0
 40
1.0
 40
1.0
 40
1.0
 10
529.4498986151981
 20
-635.4140896461601
 30
0.0
 10
510.7399364879317
 20
-635.4140896461601
 30
0.0
 10
495.5725153758461
 20
-650.5815107582458
 30
0.0
 10
495.5725153758461
 20
-669.2914728855122
 30
0.0
  0
SPLINE
  5
90
330
70
100
AcDbEntity
  8
Layer 1
 62
     7
370
    25
100
AcDbSpline
210
0.0
220
0.0
230
1.0
 70
     8
 71
     3
 72
     8
 73
     4
 74
     0
 42
0.0000000001
 43
0.0000000001
 40
0.0
 40
0.0
 40
0.0
 40
0.0
 40
1.0
 40
1.0
 40
1.0
 40
1.0
 10
839.572515375751
 20
-669.2914728855122
 30
0.0
 10
839.572515375751
 20
-650.5815107582458
 30
0.0
 10
824.4050942636684
 20
-635.4140896461601
 30
0.0
 10
805.6951321363984
 20
-635.4140896461601
 30
0.0
  0
INSERT
  5
92
330
70
100
AcDbEntity
  8
Layer 1
100
AcDbBlockReference
  2
Block_0
 10
0.0
 20
0.0
 30
0.0
  0
ENDSEC
  0
SECTION
  2
OBJECTS
  0
DICTIONARY
  5
C
330
0
100
AcDbDictionary
281
     1
  3
ACAD_COLOR
350
63
  3
ACAD_DETAILVIEWSTYLE
350
6A
  3
ACAD_GROUP
350
D
  3
ACAD_LAYOUT
350
62
  3
ACAD_MATERIAL
350
10
  3
ACAD_MLEADERSTYLE
350
66
  3
ACAD_MLINESTYLE
350
5F
  3
ACAD_PLOTSETTINGS
350
61
  3
ACAD_PLOTSTYLENAME
350
E
  3
ACAD_SCALELIST
350
42
  3
ACAD_SECTIONVIEWSTYLE
350
68
  3
ACAD_TABLESTYLE
350
64
  3
ACAD_VISUALSTYLE
350
29
  3
ACDB_RECOMPOSE_DATA
350
D7
  3
AcDbVariableDictionary
350
CA
  0
DICTIONARY
  5
63
102
{ACAD_REACTORS
330
C
102
}
330
C
100
AcDbDictionary
281
     1
  0
DICTIONARY
  5
6A
102
{ACAD_REACTORS
330
C
102
}
330
C
100
AcDbDictionary
281
     1
  3
Imperial24
350
6B
  0
DICTIONARY
  5
D
102
{ACAD_REACTORS
330
C
102
}
330
C
100
AcDbDictionary
281
     1
  0
DICTIONARY
  5
62
102
{ACAD_REACTORS
330
C
102
}
330
C
100
AcDbDictionary
281
     1
  3
Layout1
350
6F
  3
Layout2
350
77
  3
Model
350
73
  0
DICTIONARY
  5
10
102
{ACAD_REACTORS
330
C
102
}
330
C
100
AcDbDictionary
281
     1
  3
ByBlock
350
19
  3
ByLayer
350
11
  3
Global
350
21
  0
DICTIONARY
  5
66
102
{ACAD_REACTORS
330
C
102
}
330
C
100
AcDbDictionary
281
     1
  3
Standard
350
67
  0
DICTIONARY
  5
5F
102
{ACAD_REACTORS
330
C
102
}
330
C
100
AcDbDictionary
281
     1
  3
Standard
350
60
  0
DICTIONARY
  5
61
102
{ACAD_REACTORS
330
C
102
}
330
C
100
AcDbDictionary
281
     1
  0
ACDBDICTIONARYWDFLT
  5
E
102
{ACAD_REACTORS
330
C
102
}
330
C
100
AcDbDictionary
281
     1
  3
Normal
350
F
100
AcDbDictionaryWithDefault
340
F
  0
DICTIONARY
  5
42
102
{ACAD_REACTORS
330
C
102
}
330
C
100
AcDbDictionary
281
     1
  3
A0
350
43
  3
A1
350
44
  3
A2
350
45
  3
A3
350
46
  3
A4
350
47
  3
A5
350
48
  3
A6
350
49
  3
A7
350
4A
  3
A8
350
4B
  3
A9
350
4C
  3
B0
350
4D
  3
B1
350
4E
  3
B2
350
4F
  3
B3
350
50
  3
B4
350
51
  3
B5
350
52
  3
B6
350
53
  0
DICTIONARY
  5
68
102
{ACAD_REACTORS
330
C
102
}
330
C
100
AcDbDictionary
281
     1
  3
Imperial24
350
69
  0
DICTIONARY
  5
64
102
{ACAD_REACTORS
330
C
102
}
330
C
100
AcDbDictionary
281
     1
  3
Standard
350
65
  0
DICTIONARY
  5
29
102
{ACAD_REACTORS
330
C
102
}
330
C
100
AcDbDictionary
281
     1
  3
2dWireframe
350
2F
  3
Basic
350
2E
  3
Brighten
350
35
  3
ColorChange
350
39
  3
Conceptual
350
32
  3
Dim
350
34
  3
EdgeColorOff
350
41
  3
Facepattern
350
38
  3
Flat
350
2A
  3
FlatWithEdges
350
2B
  3
Gouraud
350
2C
  3
GouraudWithEdges
350
2D
  3
Hidden
350
31
  3
JitterOff
350
3F
  3
Linepattern
350
37
  3
OverhangOff
350
40
  3
Realistic
350
33
  3
Shaded
350
3E
  3
Shaded with edges
350
3D
  3
Shades of Gray
350
3A
  3
Sketchy
350
3B
  3
Thicken
350
36
  3
Wireframe
350
30
  3
X-Ray
350
3C
  0
XRECORD
  5
D7
102
{ACAD_REACTORS
330
C
102
}
330
C
100
AcDbXrecord
280
     1
 90
        1
330
65
  0
DICTIONARY
  5
CA
102
{ACAD_REACTORS
330
C
102
}
330
C
100
AcDbDictionary
281
     1
  3
CANNOSCALE
350
D0
  3
CMLEADERSTYLE
350
CC
  3
CTABLESTYLE
350
CB
  3
CVIEWDETAILSTYLE
350
CD
  3
CVIEWSECTIONSTYLE
350
CE
  3
LAYEREVAL
350
D2
  3
LAYERNOTIFY
350
D3
  3
LIGHTINGUNITS
350
D1
  3
MSLTSCALE
350
CF
  3
XCLIPFRAME
350
D4
  0
ACDBDETAILVIEWSTYLE
  5
6B
102
{ACAD_XDICTIONARY
360
111
102
}
102
{ACAD_REACTORS
330
6A
102
}
330
6A
100
AcDbModelDocViewStyle
 70
     0
  3
Imperial24
290
     0
100
AcDbDetailViewStyle
 70
     0
 71
     0
 90
        3
 71
     1
340
55
 62
   256
 40
0.24
340
0
 62
   256
 40
0.24
300

 40
0.36
280
     3
 71
     2
340
5D
 90
       25
 62
   256
 71
     3
340
55
 62
   256
 40
0.24
 90
        1
 40
0.75
 90
        1
300
%<\AcVar ViewType \f "%tc1">% %<\AcVar ViewDetailId>%\PSCALE %<\AcVar ViewScale \f "%sn">%
 71
     4
340
5D
 90
       25
 62
   256
340
5D
 90
       25
 62
   256
280
     0
  0
LAYOUT
  5
6F
102
{ACAD_REACTORS
330
62
102
}
330
62
100
AcDbPlotSettings
  1

  2

  4

  6

 40
0.0
 41
0.0
 42
0.0
 43
0.0
 44
0.0
 45
0.0
 46
0.0
 47
0.0
 48
0.0
 49
0.0
140
0.0
141
0.0
142
1.0
143
1.0
 70
   688
 72
     0
 73
     0
 74
     5
  7

 75
    16
147
1.0
 76
     0
 77
     2
 78
   300
148
0.0
149
0.0
100
AcDbLayout
  1
Layout1
 70
     1
 71
     1
 10
0.0
 20
0.0
 11
12.0
 21
9.0
 12
0.0
 22
0.0
 32
0.0
 14
0.0
 24
0.0
 34
0.0
 15
0.0
 25
0.0
 35
0.0
146
0.0
 13
0.0
 23
0.0
 33
0.0
 16
1.0
 26
0.0
 36
0.0
 17
0.0
 27
1.0
 37
0.0
 76
     0
330
6C
  0
LAYOUT
  5
77
102
{ACAD_REACTORS
330
62
102
}
330
62
100
AcDbPlotSettings
  1

  2

  4

  6

 40
0.0
 41
0.0
 42
0.0
 43
0.0
 44
0.0
 45
0.0
 46
0.0
 47
0.0
 48
0.0
 49
0.0
140
0.0
141
0.0
142
1.0
143
1.0
 70
   688
 72
     0
 73
     0
 74
     5
  7

 75
    16
147
1.0
 76
     0
 77
     2
 78
   300
148
0.0
149
0.0
100
AcDbLayout
  1
Layout2
 70
     1
 71
     2
 10
0.0
 20
0.0
 11
12.0
 21
9.0
 12
0.0
 22
0.0
 32
0.0
 14
0.0
 24
0.0
 34
0.0
 15
0.0
 25
0.0
 35
0.0
146
0.0
 13
0.0
 23
0.0
 33
0.0
 16
1.0
 26
0.0
 36
0.0
 17
0.0
 27
1.0
 37
0.0
 76
     0
330
74
  0
LAYOUT
  5
73
102
{ACAD_REACTORS
330
62
102
}
330
62
100
AcDbPlotSettings
  1

  2

  4

  6

 40
0.0
 41
0.0
 42
0.0
 43
0.0
 44
0.0
 45
0.0
 46
0.0
 47
0.0
 48
0.0
 49
0.0
140
0.0
141
0.0
142
1.0
143
1.0
 70
  1712
 72
     0
 73
     0
 74
     0
  7

 75
     0
147
1.0
 76
     0
 77
     2
 78
   300
148
0.0
149
0.0
100
AcDbLayout
  1
Model
 70
     1
 71
     0
 10
0.0
 20
0.0
 11
12.0
 21
9.0
 12
0.0
 22
0.0
 32
0.0
 14
0.0
 24
0.0
 34
0.0
 15
0.0
 25
0.0
 35
0.0
146
0.0
 13
0.0
 23
0.0
 33
0.0
 16
1.0
 26
0.0
 36
0.0
 17
0.0
 27
1.0
 37
0.0
 76
     0
330
70
  0
MATERIAL
  5
19
102
{ACAD_XDICTIONARY
360
1A
102
}
102
{ACAD_REACTORS
330
10
102
}
330
10
100
AcDbMaterial
  1
ByBlock
 72
     0
 43
0.0208333333333333
 43
0.0
 43
0.0
 43
0.0
 43
0.0
 43
0.0208333333333333
 43
0.0
 43
0.0
 43
0.0
 43
0.0
 43
1.0
 43
0.0
 43
0.0
 43
0.0
 43
0.0
 43
1.0
 77
     0
 47
0.0208333333333333
 47
0.0
 47
0.0
 47
0.0
 47
0.0
 47
0.0208333333333333
 47
0.0
 47
0.0
 47
0.0
 47
0.0
 47
1.0
 47
0.0
 47
0.0
 47
0.0
 47
0.0
 47
1.0
171
     0
 49
0.0208333333333333
 49
0.0
 49
0.0
 49
0.0
 49
0.0
 49
0.0208333333333333
 49
0.0
 49
0.0
 49
0.0
 49
0.0
 49
1.0
 49
0.0
 49
0.0
 49
0.0
 49
0.0
 49
1.0
175
     0
142
0.0208333333333333
142
0.0
142
0.0
142
0.0
142
0.0
142
0.0208333333333333
142
0.0
142
0.0
142
0.0
142
0.0
142
1.0
142
0.0
142
0.0
142
0.0
142
0.0
142
1.0
179
     0
144
0.0208333333333333
144
0.0
144
0.0
144
0.0
144
0.0
144
0.0208333333333333
144
0.0
144
0.0
144
0.0
144
0.0
144
1.0
144
0.0
144
0.0
144
0.0
144
0.0
144
1.0
147
0.0208333333333333
147
0.0
147
0.0
147
0.0
147
0.0
147
0.0208333333333333
147
0.0
147
0.0
147
0.0
147
0.0
147
1.0
147
0.0
147
0.0
147
0.0
147
0.0
147
1.0
  0
MATERIAL
  5
11
102
{ACAD_XDICTIONARY
360
12
102
}
102
{ACAD_REACTORS
330
10
102
}
330
10
100
AcDbMaterial
  1
ByLayer
 72
     0
 43
0.0208333333333333
 43
0.0
 43
0.0
 43
0.0
 43
0.0
 43
0.0208333333333333
 43
0.0
 43
0.0
 43
0.0
 43
0.0
 43
1.0
 43
0.0
 43
0.0
 43
0.0
 43
0.0
 43
1.0
 77
     0
 47
0.0208333333333333
 47
0.0
 47
0.0
 47
0.0
 47
0.0
 47
0.0208333333333333
 47
0.0
 47
0.0
 47
0.0
 47
0.0
 47
1.0
 47
0.0
 47
0.0
 47
0.0
 47
0.0
 47
1.0
171
     0
 49
0.0208333333333333
 49
0.0
 49
0.0
 49
0.0
 49
0.0
 49
0.0208333333333333
 49
0.0
 49
0.0
 49
0.0
 49
0.0
 49
1.0
 49
0.0
 49
0.0
 49
0.0
 49
0.0
 49
1.0
175
     0
142
0.0208333333333333
142
0.0
142
0.0
142
0.0
142
0.0
142
0.0208333333333333
142
0.0
142
0.0
142
0.0
142
0.0
142
1.0
142
0.0
142
0.0
142
0.0
142
0.0
142
1.0
179
     0
144
0.0208333333333333
144
0.0
144
0.0
144
0.0
144
0.0
144
0.0208333333333333
144
0.0
144
0.0
144
0.0
144
0.0
144
1.0
144
0.0
144
0.0
144
0.0
144
0.0
144
1.0
147
0.0208333333333333
147
0.0
147
0.0
147
0.0
147
0.0
147
0.0208333333333333
147
0.0
147
0.0
147
0.0
147
0.0
147
1.0
147
0.0
147
0.0
147
0.0
147
0.0
147
1.0
  0
MATERIAL
  5
21
102
{ACAD_XDICTIONARY
360
22
102
}
102
{ACAD_REACTORS
330
10
102
}
330
10
100
AcDbMaterial
  1
Global
 72
     0
 43
0.0208333333333333
 43
0.0
 43
0.0
 43
0.0
 43
0.0
 43
0.0208333333333333
 43
0.0
 43
0.0
 43
0.0
 43
0.0
 43
1.0
 43
0.0
 43
0.0
 43
0.0
 43
0.0
 43
1.0
 77
     0
 47
0.0208333333333333
 47
0.0
 47
0.0
 47
0.0
 47
0.0
 47
0.0208333333333333
 47
0.0
 47
0.0
 47
0.0
 47
0.0
 47
1.0
 47
0.0
 47
0.0
 47
0.0
 47
0.0
 47
1.0
171
     0
 49
0.0208333333333333
 49
0.0
 49
0.0
 49
0.0
 49
0.0
 49
0.0208333333333333
 49
0.0
 49
0.0
 49
0.0
 49
0.0
 49
1.0
 49
0.0
 49
0.0
 49
0.0
 49
0.0
 49
1.0
175
     0
142
0.0208333333333333
142
0.0
142
0.0
142
0.0
142
0.0
142
0.0208333333333333
142
0.0
142
0.0
142
0.0
142
0.0
142
1.0
142
0.0
142
0.0
142
0.0
142
0.0
142
1.0
179
     0
144
0.0208333333333333
144
0.0
144
0.0
144
0.0
144
0.0
144
0.0208333333333333
144
0.0
144
0.0
144
0.0
144
0.0
144
1.0
144
0.0
144
0.0
144
0.0
144
0.0
144
1.0
147
0.0208333333333333
147
0.0
147
0.0
147
0.0
147
0.0
147
0.0208333333333333
147
0.0
147
0.0
147
0.0
147
0.0
147
1.0
147
0.0
147
0.0
147
0.0
147
0.0
147
1.0
  0
MLEADERSTYLE
  5
67
102
{ACAD_XDICTIONARY
360
10D
102
}
102
{ACAD_REACTORS
330
66
102
}
330
66
100
AcDbMLeaderStyle
170
     2
171
     1
172
     0
 90
        2
 40
0.0
 41
0.0
173
     1
 91
-1056964608
340
5B
 92
       -2
290
     1
 42
0.09
291
     1
 43
0.36
  3
Standard
 44
0.18
300

342
55
174
     1
178
     6
175
     1
176
     0
 93
-1056964608
 45
0.18
292
     0
297
     0
 46
0.18
 94
-1056964608
 47
1.0
 49
1.0
140
1.0
293
     1
141
0.0
294
     1
177
     0
142
1.0
295
     0
296
     0
143
0.125
1001
ACAD_MLEADERVER
1070
     2
  0
MLINESTYLE
  5
60
102
{ACAD_REACTORS
330
5F
102
}
330
5F
100
AcDbMlineStyle
  2
STANDARD
 70
     0
  3

 62
   256
 51
90.0
 52
90.0
 71
     2
 49
0.5
 62
   256
  6
BYLAYER
 49
-0.5
 62
   256
  6
BYLAYER
  0
ACDBPLACEHOLDER
  5
F
102
{ACAD_REACTORS
330
E
102
}
330
E
  0
SCALE
  5
43
102
{ACAD_REACTORS
330
42
102
}
330
42
100
AcDbScale
 70
     0
300
1:1
140
1.0
141
1.0
290
     1
  0
SCALE
  5
44
102
{ACAD_REACTORS
330
42
102
}
330
42
100
AcDbScale
 70
     0
300
1/128" = 1'-0"
140
0.0078125
141
12.0
290
     0
  0
SCALE
  5
45
102
{ACAD_REACTORS
330
42
102
}
330
42
100
AcDbScale
 70
     0
300
1/64" = 1'-0"
140
0.015625
141
12.0
290
     0
  0
SCALE
  5
46
102
{ACAD_REACTORS
330
42
102
}
330
42
100
AcDbScale
 70
     0
300
1/32" = 1'-0"
140
0.03125
141
12.0
290
     0
  0
SCALE
  5
47
102
{ACAD_REACTORS
330
42
102
}
330
42
100
AcDbScale
 70
     0
300
1/16" = 1'-0"
140
0.0625
141
12.0
290
     0
  0
SCALE
  5
48
102
{ACAD_REACTORS
330
42
102
}
330
42
100
AcDbScale
 70
     0
300
3/32" = 1'-0"
140
0.09375
141
12.0
290
     0
  0
SCALE
  5
49
102
{ACAD_REACTORS
330
42
102
}
330
42
100
AcDbScale
 70
     0
300
1/8" = 1'-0"
140
0.125
141
12.0
290
     0
  0
SCALE
  5
4A
102
{ACAD_REACTORS
330
42
102
}
330
42
100
AcDbScale
 70
     0
300
3/16" = 1'-0"
140
0.1875
141
12.0
290
     0
  0
SCALE
  5
4B
102
{ACAD_REACTORS
330
42
102
}
330
42
100
AcDbScale
 70
     0
300
1/4" = 1'-0"
140
0.25
141
12.0
290
     0
  0
SCALE
  5
4C
102
{ACAD_REACTORS
330
42
102
}
330
42
100
AcDbScale
 70
     0
300
3/8" = 1'-0"
140
0.375
141
12.0
290
     0
  0
SCALE
  5
4D
102
{ACAD_REACTORS
330
42
102
}
330
42
100
AcDbScale
 70
     0
300
1/2" = 1'-0"
140
0.5
141
12.0
290
     0
  0
SCALE
  5
4E
102
{ACAD_REACTORS
330
42
102
}
330
42
100
AcDbScale
 70
     0
300
3/4" = 1'-0"
140
0.75
141
12.0
290
     0
  0
SCALE
  5
4F
102
{ACAD_REACTORS
330
42
102
}
330
42
100
AcDbScale
 70
     0
300
1" = 1'-0"
140
1.0
141
12.0
290
     0
  0
SCALE
  5
50
102
{ACAD_REACTORS
330
42
102
}
330
42
100
AcDbScale
 70
     0
300
1-1/2" = 1'-0"
140
1.5
141
12.0
290
     0
  0
SCALE
  5
51
102
{ACAD_REACTORS
330
42
102
}
330
42
100
AcDbScale
 70
     0
300
3" = 1'-0"
140
3.0
141
12.0
290
     0
  0
SCALE
  5
52
102
{ACAD_REACTORS
330
42
102
}
330
42
100
AcDbScale
 70
     0
300
6" = 1'-0"
140
6.0
141
12.0
290
     0
  0
SCALE
  5
53
102
{ACAD_REACTORS
330
42
102
}
330
42
100
AcDbScale
 70
     0
300
1'-0" = 1'-0"
140
12.0
141
12.0
290
     0
  0
ACDBSECTIONVIEWSTYLE
  5
69
102
{ACAD_XDICTIONARY
360
10F
102
}
102
{ACAD_REACTORS
330
68
102
}
330
68
100
AcDbModelDocViewStyle
 70
     0
  3
Imperial24
290
     0
100
AcDbSectionViewStyle
 70
     0
 71
     0
 90
       78
 71
     1
340
55
 62
   256
 40
0.24
340
0
340
0
 62
   256
 40
0.24
300
I, O, Q, S, X, Z
 40
0.48
 90
        3
 40
0.18
 90
        1
 71
     2
340
5D
 90
       25
 62
   256
340
5D
 90
       50
 62
   256
 40
0.24
 40
0.0
 40
0.24
 71
     3
340
55
 62
   256
 40
0.24
 90
        1
 40
0.75
 90
        1
300
%<\AcVar ViewType \f "%tc1">% %<\AcVar ViewSectionStartId>%-%<\AcVar ViewSectionEndId>%\PSCALE %<\AcVar ViewScale \f "%sn">%
 71
     4
 62
   256
 62
   257
300
ANSI31
 40
1.0
 90
        0
290
     0
290
     0
 90
        6
 40
0.0
 40
1.570796326794896
 40
0.2617993877991494
 40
1.308996938995747
 40
-0.2617993877991494
 40
1.832595714594046
  0
TABLESTYLE
  5
65
102
{ACAD_XDICTIONARY
360
D5
102
}
102
{ACAD_REACTORS
330
64
102
}
330
64
100
AcDbTableStyle
  3
Standard
 70
     0
 71
     0
 40
0.06
 41
0.06
280
     0
281
     0
  7
Standard
140
0.18
170
     2
 62
     0
 63
     7
283
     0
274
    -2
284
     1
 64
     0
275
    -2
285
     1
 65
     0
276
    -2
286
     1
 66
     0
277
    -2
287
     1
 67
     0
278
    -2
288
     1
 68
     0
279
    -2
289
     1
 69
     0
  7
Standard
140
0.25
170
     5
 62
     0
 63
     7
283
     0
274
    -2
284
     1
 64
     0
275
    -2
285
     1
 65
     0
276
    -2
286
     1
 66
     0
277
    -2
287
     1
 67
     0
278
    -2
288
     1
 68
     0
279
    -2
289
     1
 69
     0
  7
Standard
140
0.18
170
     5
 62
     0
 63
     7
283
     0
274
    -2
284
     1
 64
     0
275
    -2
285
     1
 65
     0
276
    -2
286
     1
 66
     0
277
    -2
287
     1
 67
     0
278
    -2
288
     1
 68
     0
279
    -2
289
     1
 69
     0
  0
VISUALSTYLE
  5
2F
102
{ACAD_XDICTIONARY
360
E5
102
}
102
{ACAD_REACTORS
330
29
102
}
330
29
100
AcDbVisualStyle
  2
2dWireframe
 70
     4
 71
     0
 72
     2
 73
     0
 90
        0
 40
-0.6
 41
-30.0
 62
     5
 63
     7
421
 16777215
 74
     1
 91
        4
 64
     7
 65
   257
 75
     1
175
     1
 42
1.0
 92
        0
 66
   257
 43
1.0
 76
     1
 77
     6
 78
     2
 67
     7
 79
     5
170
     0
171
     0
290
     0
174
     0
 93
        1
 44
0.0
173
     0
291
     0
 45
0.0
1001
ACAD
1000
AcDbSavedByObjectVersion
1070
     0
  0
VISUALSTYLE
  5
2E
102
{ACAD_XDICTIONARY
360
E3
102
}
102
{ACAD_REACTORS
330
29
102
}
330
29
100
AcDbVisualStyle
  2
Basic
 70
     7
 71
     1
 72
     0
 73
     1
 90
        0
 40
-0.6
 41
-30.0
 62
     5
 63
     7
421
 16777215
 74
     0
 91
        4
 64
     7
 65
   257
 75
     1
175
     1
 42
1.0
 92
        8
 66
     7
 43
1.0
 76
     1
 77
     6
 78
     2
 67
     7
 79
     5
170
     0
171
     0
290
     0
174
     0
 93
        1
 44
0.0
173
     0
291
     1
 45
0.0
1001
ACAD
1000
AcDbSavedByObjectVersion
1070
     0
  0
VISUALSTYLE
  5
35
102
{ACAD_XDICTIONARY
360
F1
102
}
102
{ACAD_REACTORS
330
29
102
}
330
29
100
AcDbVisualStyle
  2
Brighten
 70
    12
 71
     2
 72
     2
 73
     0
 90
        0
 40
-0.6
 41
-30.0
 62
     5
 63
     7
421
 16777215
 74
     1
 91
        4
 64
     7
 65
   257
 75
     1
175
     1
 42
1.0
 92
        8
 66
     7
 43
1.0
 76
     1
 77
     6
 78
     2
 67
     7
 79
     5
170
     0
171
     0
290
     0
174
     0
 93
        1
 44
50.0
173
     0
291
     1
 45
0.0
1001
ACAD
1000
AcDbSavedByObjectVersion
1070
     0
  0
VISUALSTYLE
  5
39
102
{ACAD_XDICTIONARY
360
F9
102
}
102
{ACAD_REACTORS
330
29
102
}
330
29
100
AcDbVisualStyle
  2
ColorChange
 70
    16
 71
     2
 72
     2
 73
     3
 90
        0
 40
-0.6
 41
-30.0
 62
     5
 63
     8
421
  8421504
 74
     1
 91
        4
 64
     7
 65
   257
 75
     1
175
     1
 42
1.0
 92
        8
 66
     8
424
  8421504
 43
1.0
 76
     1
 77
     6
 78
     2
 67
     7
 79
     5
170
     0
171
     0
290
     0
174
     0
 93
        1
 44
0.0
173
     0
291
     1
 45
0.0
1001
ACAD
1000
AcDbSavedByObjectVersion
1070
     0
  0
VISUALSTYLE
  5
32
102
{ACAD_XDICTIONARY
360
EB
102
}
102
{ACAD_REACTORS
330
29
102
}
330
29
100
AcDbVisualStyle
  2
Conceptual
 70
     9
 71
     3
 72
     2
 73
     0
 90
        0
 40
-0.6
 41
-30.0
 62
     5
 63
     7
421
 16777215
 74
     2
 91
        2
 64
     7
 65
   257
 75
     1
175
     1
 42
179.0
 92
        8
 66
     7
 43
1.0
 76
     1
 77
     6
 78
     2
 67
     7
 79
     3
170
     0
171
     0
290
     0
174
     0
 93
        1
 44
0.0
173
     0
291
     0
 45
0.0
1001
ACAD
1000
AcDbSavedByObjectVersion
1070
     0
  0
VISUALSTYLE
  5
34
102
{ACAD_XDICTIONARY
360
EF
102
}
102
{ACAD_REACTORS
330
29
102
}
330
29
100
AcDbVisualStyle
  2
Dim
 70
    11
 71
     2
 72
     2
 73
     0
 90
        0
 40
-0.6
 41
-30.0
 62
     5
 63
     7
421
 16777215
 74
     1
 91
        4
 64
     7
 65
   257
 75
     1
175
     1
 42
1.0
 92
        8
 66
     7
 43
1.0
 76
     1
 77
     6
 78
     2
 67
     7
 79
     5
170
     0
171
     0
290
     0
174
     0
 93
        1
 44
-50.0
173
     0
291
     1
 45
0.0
1001
ACAD
1000
AcDbSavedByObjectVersion
1070
     0
  0
VISUALSTYLE
  5
41
102
{ACAD_XDICTIONARY
360
109
102
}
102
{ACAD_REACTORS
330
29
102
}
330
29
100
AcDbVisualStyle
  2
EdgeColorOff
 70
    22
 71
     2
 72
     2
 73
     0
 90
        0
 40
-0.6
 41
-30.0
 62
     5
 63
     7
421
 16777215
 74
     1
 91
        4
 64
     7
 65
   257
 75
     1
175
     1
 42
1.0
 92
        8
 66
     7
 43
1.0
 76
     1
 77
     6
 78
     2
 67
     7
 79
     5
170
     0
171
     0
290
     0
174
     0
 93
        1
 44
0.0
173
     0
291
     1
 45
0.0
1001
ACAD
1000
AcDbSavedByObjectVersion
1070
     0
  0
VISUALSTYLE
  5
38
102
{ACAD_XDICTIONARY
360
F7
102
}
102
{ACAD_REACTORS
330
29
102
}
330
29
100
AcDbVisualStyle
  2
Facepattern
 70
    15
 71
     2
 72
     2
 73
     0
 90
        0
 40
-0.6
 41
-30.0
 62
     5
 63
     7
421
 16777215
 74
     1
 91
        4
 64
     7
 65
   257
 75
     1
175
     1
 42
1.0
 92
        8
 66
     7
 43
1.0
 76
     1
 77
     6
 78
     2
 67
     7
 79
     5
170
     0
171
     0
290
     0
174
     0
 93
        1
 44
0.0
173
     0
291
     1
 45
0.0
1001
ACAD
1000
AcDbSavedByObjectVersion
1070
     0
  0
VISUALSTYLE
  5
2A
102
{ACAD_XDICTIONARY
360
DB
102
}
102
{ACAD_REACTORS
330
29
102
}
330
29
100
AcDbVisualStyle
  2
Flat
 70
     0
 71
     2
 72
     1
 73
     1
 90
        2
 40
-0.6
 41
30.0
 62
     5
 63
     7
421
 16777215
 74
     0
 91
        0
 64
     7
 65
   257
 75
     1
175
     1
 42
1.0
 92
        8
 66
     7
 43
1.0
 76
     1
 77
     6
 78
     2
 67
     7
 79
     5
170
     0
171
     0
290
     0
174
     0
 93
       13
 44
0.0
173
     0
291
     1
 45
0.0
1001
ACAD
1000
AcDbSavedByObjectVersion
1070
     0
  0
VISUALSTYLE
  5
2B
102
{ACAD_XDICTIONARY
360
DD
102
}
102
{ACAD_REACTORS
330
29
102
}
330
29
100
AcDbVisualStyle
  2
FlatWithEdges
 70
     1
 71
     2
 72
     1
 73
     1
 90
        2
 40
-0.6
 41
30.0
 62
     5
 63
     7
421
 16777215
 74
     1
 91
        0
 64
     7
 65
   257
 75
     1
175
     1
 42
1.0
 92
        0
 66
   257
 43
1.0
 76
     1
 77
     6
 78
     2
 67
     7
 79
     5
170
     0
171
     0
290
     0
174
     0
 93
       13
 44
0.0
173
     0
291
     1
 45
0.0
1001
ACAD
1000
AcDbSavedByObjectVersion
1070
     0
  0
VISUALSTYLE
  5
2C
102
{ACAD_XDICTIONARY
360
DF
102
}
102
{ACAD_REACTORS
330
29
102
}
330
29
100
AcDbVisualStyle
  2
Gouraud
 70
     2
 71
     2
 72
     2
 73
     1
 90
        2
 40
-0.6
 41
30.0
 62
     5
 63
     7
421
 16777215
 74
     0
 91
        0
 64
     7
 65
   257
 75
     1
175
     1
 42
1.0
 92
        0
 66
     7
 43
1.0
 76
     1
 77
     6
 78
     2
 67
     7
 79
     5
170
     0
171
     0
290
     0
174
     0
 93
       13
 44
0.0
173
     0
291
     1
 45
0.0
1001
ACAD
1000
AcDbSavedByObjectVersion
1070
     0
  0
VISUALSTYLE
  5
2D
102
{ACAD_XDICTIONARY
360
E1
102
}
102
{ACAD_REACTORS
330
29
102
}
330
29
100
AcDbVisualStyle
  2
GouraudWithEdges
 70
     3
 71
     2
 72
     2
 73
     1
 90
        2
 40
-0.6
 41
30.0
 62
     5
 63
     7
421
 16777215
 74
     1
 91
        0
 64
     7
 65
   257
 75
     1
175
     1
 42
1.0
 92
        0
 66
   257
 43
1.0
 76
     1
 77
     6
 78
     2
 67
     7
 79
     5
170
     0
171
     0
290
     0
174
     0
 93
       13
 44
0.0
173
     0
291
     1
 45
0.0
1001
ACAD
1000
AcDbSavedByObjectVersion
1070
     0
  0
VISUALSTYLE
  5
31
102
{ACAD_XDICTIONARY
360
E9
102
}
102
{ACAD_REACTORS
330
29
102
}
330
29
100
AcDbVisualStyle
  2
Hidden
 70
     6
 71
     1
 72
     2
 73
     2
 90
        0
 40
-0.6
 41
-30.0
 62
     5
 63
     7
421
 16777215
 74
     2
 91
        2
 64
     7
 65
   257
 75
     2
175
     1
 42
40.0
 92
        0
 66
   257
 43
1.0
 76
     1
 77
     6
 78
     2
 67
     7
 79
     3
170
     0
171
     0
290
     0
174
     0
 93
        1
 44
0.0
173
     0
291
     0
 45
0.0
1001
ACAD
1000
AcDbSavedByObjectVersion
1070
     0
  0
VISUALSTYLE
  5
3F
102
{ACAD_XDICTIONARY
360
105
102
}
102
{ACAD_REACTORS
330
29
102
}
330
29
100
AcDbVisualStyle
  2
JitterOff
 70
    20
 71
     2
 72
     2
 73
     0
 90
        0
 40
-0.6
 41
-30.0
 62
     5
 63
     7
421
 16777215
 74
     1
 91
        4
 64
     7
 65
   257
 75
     1
175
     1
 42
1.0
 92
       10
 66
     7
 43
1.0
 76
     1
 77
     6
 78
     2
 67
     7
 79
     5
170
     0
171
     0
290
     0
174
     0
 93
        1
 44
0.0
173
     0
291
     1
 45
0.0
1001
ACAD
1000
AcDbSavedByObjectVersion
1070
     0
  0
VISUALSTYLE
  5
37
102
{ACAD_XDICTIONARY
360
F5
102
}
102
{ACAD_REACTORS
330
29
102
}
330
29
100
AcDbVisualStyle
  2
Linepattern
 70
    14
 71
     2
 72
     2
 73
     0
 90
        0
 40
-0.6
 41
-30.0
 62
     5
 63
     7
421
 16777215
 74
     1
 91
        4
 64
     7
 65
   257
 75
     7
175
     7
 42
1.0
 92
        8
 66
     7
 43
1.0
 76
     1
 77
     6
 78
     2
 67
     7
 79
     5
170
     0
171
     0
290
     0
174
     0
 93
        1
 44
0.0
173
     0
291
     1
 45
0.0
1001
ACAD
1000
AcDbSavedByObjectVersion
1070
     0
  0
VISUALSTYLE
  5
40
102
{ACAD_XDICTIONARY
360
107
102
}
102
{ACAD_REACTORS
330
29
102
}
330
29
100
AcDbVisualStyle
  2
OverhangOff
 70
    21
 71
     2
 72
     2
 73
     0
 90
        0
 40
-0.6
 41
-30.0
 62
     5
 63
     7
421
 16777215
 74
     1
 91
        4
 64
     7
 65
   257
 75
     1
175
     1
 42
1.0
 92
        9
 66
     7
 43
1.0
 76
     1
 77
     6
 78
     2
 67
     7
 79
     5
170
     0
171
     0
290
     0
174
     0
 93
        1
 44
0.0
173
     0
291
     1
 45
0.0
1001
ACAD
1000
AcDbSavedByObjectVersion
1070
     0
  0
VISUALSTYLE
  5
33
102
{ACAD_XDICTIONARY
360
ED
102
}
102
{ACAD_REACTORS
330
29
102
}
330
29
100
AcDbVisualStyle
  2
Realistic
 70
     8
 71
     2
 72
     3
 73
     0
 90
        2
 40
-0.6
 41
30.0
 62
     5
 63
     7
421
 16777215
 74
     0
 91
        0
 64
     7
 65
   257
 75
     1
175
     1
 42
1.0
 92
        8
 66
   257
 43
1.0
 76
     1
 77
     6
 78
     2
 67
     7
 79
     3
170
     0
171
     0
290
     0
174
     0
 93
       13
 44
0.0
173
     0
291
     0
 45
0.0
1001
ACAD
1000
AcDbSavedByObjectVersion
1070
     0
  0
VISUALSTYLE
  5
3E
102
{ACAD_XDICTIONARY
360
103
102
}
102
{ACAD_REACTORS
330
29
102
}
330
29
100
AcDbVisualStyle
  2
Shaded
 70
    27
 71
     2
 72
     2
 73
     1
 90
        2
 40
-0.6
 41
30.0
 62
     5
 63
     7
421
 16777215
 74
     0
 91
        4
 64
     7
 65
   257
 75
     1
175
     1
 42
1.0
 92
        8
 66
   257
 43
1.0
 76
     1
 77
     6
 78
     2
 67
     8
425
  7895160
 79
     3
170
     0
171
     0
290
     0
174
     0
 93
        5
 44
0.0
173
     0
291
     0
 45
0.0
1001
ACAD
1000
AcDbSavedByObjectVersion
1070
     0
  0
VISUALSTYLE
  5
3D
102
{ACAD_XDICTIONARY
360
101
102
}
102
{ACAD_REACTORS
330
29
102
}
330
29
100
AcDbVisualStyle
  2
Shaded with edges
 70
    26
 71
     2
 72
     2
 73
     1
 90
        2
 40
-0.6
 41
30.0
 62
     5
 63
     7
421
 16777215
 74
     1
 91
        2
 64
     7
 65
   257
 75
     2
175
     1
 42
1.0
 92
        8
 66
   257
 43
1.0
 76
     1
 77
     6
 78
     2
 67
     7
 79
     3
170
     0
171
     0
290
     0
174
     0
 93
        5
 44
0.0
173
     0
291
     0
 45
0.0
1001
ACAD
1000
AcDbSavedByObjectVersion
1070
     0
  0
VISUALSTYLE
  5
3A
102
{ACAD_XDICTIONARY
360
FB
102
}
102
{ACAD_REACTORS
330
29
102
}
330
29
100
AcDbVisualStyle
  2
Shades of Gray
 70
    23
 71
     2
 72
     2
 73
     3
 90
        0
 40
-0.6
 41
-30.0
 62
     5
 63
     7
421
 16777215
 74
     2
 91
        2
 64
     7
 65
     7
 75
     1
175
     1
 42
40.0
 92
        8
 66
     7
 43
1.0
 76
     1
 77
     6
 78
     2
 67
     7
 79
     3
170
     0
171
     0
290
     0
174
     0
 93
        1
 44
0.0
173
     0
291
     0
 45
0.0
1001
ACAD
1000
AcDbSavedByObjectVersion
1070
     0
  0
VISUALSTYLE
  5
3B
102
{ACAD_XDICTIONARY
360
FD
102
}
102
{ACAD_REACTORS
330
29
102
}
330
29
100
AcDbVisualStyle
  2
Sketchy
 70
    24
 71
     1
 72
     2
 73
     2
 90
        0
 40
-0.6
 41
-30.0
 62
     5
 63
     7
421
 16777215
 74
     2
 91
        2
 64
     7
 65
     7
 75
     1
175
     1
 42
40.0
 92
       11
 66
     7
 43
1.0
 76
     1
 77
     6
 78
     2
 67
     7
 79
     6
170
     0
171
     0
290
     0
174
     0
 93
        1
 44
0.0
173
     0
291
     0
 45
0.0
1001
ACAD
1000
AcDbSavedByObjectVersion
1070
     0
  0
VISUALSTYLE
  5
36
102
{ACAD_XDICTIONARY
360
F3
102
}
102
{ACAD_REACTORS
330
29
102
}
330
29
100
AcDbVisualStyle
  2
Thicken
 70
    13
 71
     2
 72
     2
 73
     0
 90
        0
 40
-0.6
 41
-30.0
 62
     5
 63
     7
421
 16777215
 74
     1
 91
        4
 64
     7
 65
   257
 75
     1
175
     1
 42
1.0
 92
       12
 66
     7
 43
1.0
 76
     1
 77
     6
 78
     2
 67
     7
 79
     5
170
     0
171
     0
290
     0
174
     0
 93
        1
 44
0.0
173
     0
291
     1
 45
0.0
1001
ACAD
1000
AcDbSavedByObjectVersion
1070
     0
  0
VISUALSTYLE
  5
30
102
{ACAD_XDICTIONARY
360
E7
102
}
102
{ACAD_REACTORS
330
29
102
}
330
29
100
AcDbVisualStyle
  2
Wireframe
 70
     5
 71
     0
 72
     2
 73
     0
 90
        0
 40
-0.6
 41
-30.0
 62
     5
 63
     7
421
 16777215
 74
     1
 91
        4
 64
     7
 65
   257
 75
     1
175
     1
 42
1.0
 92
        0
 66
   257
 43
1.0
 76
     1
 77
     6
 78
     2
 67
     7
 79
     3
170
     0
171
     0
290
     0
174
     0
 93
        1
 44
0.0
173
     0
291
     0
 45
0.0
1001
ACAD
1000
AcDbSavedByObjectVersion
1070
     0
  0
VISUALSTYLE
  5
3C
102
{ACAD_XDICTIONARY
360
FF
102
}
102
{ACAD_REACTORS
330
29
102
}
330
29
100
AcDbVisualStyle
  2
X-Ray
 70
    25
 71
     2
 72
     2
 73
     1
 90
        1
 40
0.5
 41
-30.0
 62
     5
 63
     7
421
 16777215
 74
     1
 91
        0
 64
     7
 65
   257
 75
     1
175
     1
 42
1.0
 92
        8
 66
     7
 43
1.0
 76
     1
 77
     6
 78
     2
 67
     7
 79
     3
170
     0
171
     0
290
     0
174
     0
 93
       13
 44
0.0
173
     0
291
     0
 45
0.0
1001
ACAD
1000
AcDbSavedByObjectVersion
1070
     0
  0
DICTIONARYVAR
  5
D0
102
{ACAD_REACTORS
330
CA
102
}
330
CA
100
DictionaryVariables
280
     0
  1
1:1
  0
DICTIONARYVAR
  5
CC
102
{ACAD_REACTORS
330
CA
102
}
330
CA
100
DictionaryVariables
280
     0
  1
STANDARD
  0
DICTIONARYVAR
  5
CB
102
{ACAD_REACTORS
330
CA
102
}
330
CA
100
DictionaryVariables
280
     0
  1
STANDARD
  0
DICTIONARYVAR
  5
CD
102
{ACAD_REACTORS
330
CA
102
}
330
CA
100
DictionaryVariables
280
     0
  1
Imperial24
  0
DICTIONARYVAR
  5
CE
102
{ACAD_REACTORS
330
CA
102
}
330
CA
100
DictionaryVariables
280
     0
  1
Imperial24
  0
DICTIONARYVAR
  5
D2
102
{ACAD_REACTORS
330
CA
102
}
330
CA
100
DictionaryVariables
280
     0
  1
0
  0
DICTIONARYVAR
  5
D3
102
{ACAD_REACTORS
330
CA
102
}
330
CA
100
DictionaryVariables
280
     0
  1
0
  0
DICTIONARYVAR
  5
D1
102
{ACAD_REACTORS
330
CA
102
}
330
CA
100
DictionaryVariables
280
     0
  1
2
  0
DICTIONARYVAR
  5
CF
102
{ACAD_REACTORS
330
CA
102
}
330
CA
100
DictionaryVariables
280
     0
  1
1
  0
DICTIONARYVAR
  5
D4
102
{ACAD_REACTORS
330
CA
102
}
330
CA
100
DictionaryVariables
280
     0
  1
2
  0
DICTIONARY
  5
111
330
6B
100
AcDbDictionary
280
     1
281
     1
  3
ACAD_XREC_ROUNDTRIP
360
112
  0
DICTIONARY
  5
1A
330
19
100
AcDbDictionary
280
     1
281
     1
  3
ACAD_XREC_ROUNDTRIP
360
D9
  3
BUMPTILE
360
1C
  3
DIFFUSETILE
360
1B
  3
OPACITYTILE
360
1F
  3
REFLECTIONTILE
360
1E
  3
REFRACTIONTILE
360
20
  3
SPECULARTILE
360
1D
  0
DICTIONARY
  5
12
330
11
100
AcDbDictionary
280
     1
281
     1
  3
ACAD_XREC_ROUNDTRIP
360
D8
  3
BUMPTILE
360
14
  3
DIFFUSETILE
360
13
  3
OPACITYTILE
360
17
  3
REFLECTIONTILE
360
16
  3
REFRACTIONTILE
360
18
  3
SPECULARTILE
360
15
  0
DICTIONARY
  5
22
330
21
100
AcDbDictionary
280
     1
281
     1
  3
ACAD_XREC_ROUNDTRIP
360
DA
  3
BUMPTILE
360
24
  3
DIFFUSETILE
360
23
  3
OPACITYTILE
360
27
  3
REFLECTIONTILE
360
26
  3
REFRACTIONTILE
360
28
  3
SPECULARTILE
360
25
  0
DICTIONARY
  5
10D
330
67
100
AcDbDictionary
280
     1
281
     1
  3
ACAD_XREC_ROUNDTRIP
360
10E
  0
DICTIONARY
  5
10F
330
69
100
AcDbDictionary
280
     1
281
     1
  3
ACAD_XREC_ROUNDTRIP
360
110
  0
DICTIONARY
  5
D5
330
65
100
AcDbDictionary
280
     1
281
     1
  3
ACAD_ROUNDTRIP_2008_TABLESTYLE_CELLSTYLEMAP
360
D6
  3
ACAD_XREC_ROUNDTRIP
360
10B
  0
DICTIONARY
  5
E5
330
2F
100
AcDbDictionary
280
     1
281
     1
  3
ACAD_XREC_ROUNDTRIP
360
E6
  0
DICTIONARY
  5
E3
330
2E
100
AcDbDictionary
280
     1
281
     1
  3
ACAD_XREC_ROUNDTRIP
360
E4
  0
DICTIONARY
  5
F1
330
35
100
AcDbDictionary
280
     1
281
     1
  3
ACAD_XREC_ROUNDTRIP
360
F2
  0
DICTIONARY
  5
F9
330
39
100
AcDbDictionary
280
     1
281
     1
  3
ACAD_XREC_ROUNDTRIP
360
FA
  0
DICTIONARY
  5
EB
330
32
100
AcDbDictionary
280
     1
281
     1
  3
ACAD_XREC_ROUNDTRIP
360
EC
  0
DICTIONARY
  5
EF
330
34
100
AcDbDictionary
280
     1
281
     1
  3
ACAD_XREC_ROUNDTRIP
360
F0
  0
DICTIONARY
  5
109
330
41
100
AcDbDictionary
280
     1
281
     1
  3
ACAD_XREC_ROUNDTRIP
360
10A
  0
DICTIONARY
  5
F7
330
38
100
AcDbDictionary
280
     1
281
     1
  3
ACAD_XREC_ROUNDTRIP
360
F8
  0
DICTIONARY
  5
DB
330
2A
100
AcDbDictionary
280
     1
281
     1
  3
ACAD_XREC_ROUNDTRIP
360
DC
  0
DICTIONARY
  5
DD
330
2B
100
AcDbDictionary
280
     1
281
     1
  3
ACAD_XREC_ROUNDTRIP
360
DE
  0
DICTIONARY
  5
DF
330
2C
100
AcDbDictionary
280
     1
281
     1
  3
ACAD_XREC_ROUNDTRIP
360
E0
  0
DICTIONARY
  5
E1
330
2D
100
AcDbDictionary
280
     1
281
     1
  3
ACAD_XREC_ROUNDTRIP
360
E2
  0
DICTIONARY
  5
E9
330
31
100
AcDbDictionary
280
     1
281
     1
  3
ACAD_XREC_ROUNDTRIP
360
EA
  0
DICTIONARY
  5
105
330
3F
100
AcDbDictionary
280
     1
281
     1
  3
ACAD_XREC_ROUNDTRIP
360
106
  0
DICTIONARY
  5
F5
330
37
100
AcDbDictionary
280
     1
281
     1
  3
ACAD_XREC_ROUNDTRIP
360
F6
  0
DICTIONARY
  5
107
330
40
100
AcDbDictionary
280
     1
281
     1
  3
ACAD_XREC_ROUNDTRIP
360
108
  0
DICTIONARY
  5
ED
330
33
100
AcDbDictionary
280
     1
281
     1
  3
ACAD_XREC_ROUNDTRIP
360
EE
  0
DICTIONARY
  5
103
330
3E
100
AcDbDictionary
280
     1
281
     1
  3
ACAD_XREC_ROUNDTRIP
360
104
  0
DICTIONARY
  5
101
330
3D
100
AcDbDictionary
280
     1
281
     1
  3
ACAD_XREC_ROUNDTRIP
360
102
  0
DICTIONARY
  5
FB
330
3A
100
AcDbDictionary
280
     1
281
     1
  3
ACAD_XREC_ROUNDTRIP
360
FC
  0
DICTIONARY
  5
FD
330
3B
100
AcDbDictionary
280
     1
281
     1
  3
ACAD_XREC_ROUNDTRIP
360
FE
  0
DICTIONARY
  5
F3
330
36
100
AcDbDictionary
280
     1
281
     1
  3
ACAD_XREC_ROUNDTRIP
360
F4
  0
DICTIONARY
  5
E7
330
30
100
AcDbDictionary
280
     1
281
     1
  3
ACAD_XREC_ROUNDTRIP
360
E8
  0
DICTIONARY
  5
FF
330
3C
100
AcDbDictionary
280
     1
281
     1
  3
ACAD_XREC_ROUNDTRIP
360
100
  0
XRECORD
  5
112
102
{ACAD_REACTORS
330
111
102
}
330
111
100
AcDbXrecord
280
     1
102
DISPLAYNAME
  1
Imperial24
102
FLAGS
 90
        0
  0
XRECORD
  5
D9
102
{ACAD_REACTORS
330
1A
102
}
330
1A
100
AcDbXrecord
280
     1
102
MATERIAL
148
0.0
149
0.0
149
0.0
 93
        0
 94
      127
282
     0
 72
     0
 77
     0
171
     0
175
     0
179
     0
273
     0
  0
XRECORD
  5
1C
102
{ACAD_REACTORS
330
1A
102
}
330
1A
100
AcDbXrecord
280
     1
270
     1
271
     1
  0
XRECORD
  5
1B
102
{ACAD_REACTORS
330
1A
102
}
330
1A
100
AcDbXrecord
280
     1
270
     1
271
     1
  0
XRECORD
  5
1F
102
{ACAD_REACTORS
330
1A
102
}
330
1A
100
AcDbXrecord
280
     1
270
     1
271
     1
  0
XRECORD
  5
1E
102
{ACAD_REACTORS
330
1A
102
}
330
1A
100
AcDbXrecord
280
     1
270
     1
271
     1
  0
XRECORD
  5
20
102
{ACAD_REACTORS
330
1A
102
}
330
1A
100
AcDbXrecord
280
     1
270
     1
271
     1
  0
XRECORD
  5
1D
102
{ACAD_REACTORS
330
1A
102
}
330
1A
100
AcDbXrecord
280
     1
270
     1
271
     1
  0
XRECORD
  5
D8
102
{ACAD_REACTORS
330
12
102
}
330
12
100
AcDbXrecord
280
     1
102
MATERIAL
148
0.0
149
0.0
149
0.0
 93
        0
 94
      127
282
     0
 72
     0
 77
     0
171
     0
175
     0
179
     0
273
     0
  0
XRECORD
  5
14
102
{ACAD_REACTORS
330
12
102
}
330
12
100
AcDbXrecord
280
     1
270
     1
271
     1
  0
XRECORD
  5
13
102
{ACAD_REACTORS
330
12
102
}
330
12
100
AcDbXrecord
280
     1
270
     1
271
     1
  0
XRECORD
  5
17
102
{ACAD_REACTORS
330
12
102
}
330
12
100
AcDbXrecord
280
     1
270
     1
271
     1
  0
XRECORD
  5
16
102
{ACAD_REACTORS
330
12
102
}
330
12
100
AcDbXrecord
280
     1
270
     1
271
     1
  0
XRECORD
  5
18
102
{ACAD_REACTORS
330
12
102
}
330
12
100
AcDbXrecord
280
     1
270
     1
271
     1
  0
XRECORD
  5
15
102
{ACAD_REACTORS
330
12
102
}
330
12
100
AcDbXrecord
280
     1
270
     1
271
     1
  0
XRECORD
  5
DA
102
{ACAD_REACTORS
330
22
102
}
330
22
100
AcDbXrecord
280
     1
102
MATERIAL
148
0.0
149
0.0
149
0.0
 93
        0
 94
      127
282
     0
 72
     0
 77
     0
171
     0
175
     0
179
     0
273
     0
  0
XRECORD
  5
24
102
{ACAD_REACTORS
330
22
102
}
330
22
100
AcDbXrecord
280
     1
270
     1
271
     1
  0
XRECORD
  5
23
102
{ACAD_REACTORS
330
22
102
}
330
22
100
AcDbXrecord
280
     1
270
     1
271
     1
  0
XRECORD
  5
27
102
{ACAD_REACTORS
330
22
102
}
330
22
100
AcDbXrecord
280
     1
270
     1
271
     1
  0
XRECORD
  5
26
102
{ACAD_REACTORS
330
22
102
}
330
22
100
AcDbXrecord
280
     1
270
     1
271
     1
  0
XRECORD
  5
28
102
{ACAD_REACTORS
330
22
102
}
330
22
100
AcDbXrecord
280
     1
270
     1
271
     1
  0
XRECORD
  5
25
102
{ACAD_REACTORS
330
22
102
}
330
22
100
AcDbXrecord
280
     1
270
     1
271
     1
  0
XRECORD
  5
10E
102
{ACAD_REACTORS
330
10D
102
}
330
10D
100
AcDbXrecord
280
     1
102
ACAD_ROUNDTRIP_2012_MLEADER_STYLE
298
     1
  0
XRECORD
  5
110
102
{ACAD_REACTORS
330
10F
102
}
330
10F
100
AcDbXrecord
280
     1
102
DISPLAYNAME
  1
Imperial24
102
FLAGS
 90
        0
  0
CELLSTYLEMAP
  5
D6
102
{ACAD_REACTORS
330
D5
102
}
330
D5
100
AcDbCellStyleMap
 90
        3
300
CELLSTYLE
  1
TABLEFORMAT_BEGIN
 90
        5
170
     1
 91
        0
 92
    32768
 62
   257
 93
        1
300
CONTENTFORMAT
  1
CONTENTFORMAT_BEGIN
 90
        0
 91
        0
 92
      512
 93
        0
300

 40
0.0
140
1.0
 94
        5
 62
     0
340
55
144
0.25
309
CONTENTFORMAT_END
171
     0
 94
        0
309
TABLEFORMAT_END
  1
CELLSTYLE_BEGIN
 90
        1
 91
        1
300
_TITLE
309
CELLSTYLE_END
300
CELLSTYLE
  1
TABLEFORMAT_BEGIN
 90
        5
170
     1
 91
        0
 92
        0
 62
   257
 93
        1
300
CONTENTFORMAT
  1
CONTENTFORMAT_BEGIN
 90
        0
 91
        0
 92
      512
 93
        0
300

 40
0.0
140
1.0
 94
        5
 62
     0
340
55
144
0.18
309
CONTENTFORMAT_END
171
     0
 94
        0
309
TABLEFORMAT_END
  1
CELLSTYLE_BEGIN
 90
        2
 91
        1
300
_HEADER
309
CELLSTYLE_END
300
CELLSTYLE
  1
TABLEFORMAT_BEGIN
 90
        5
170
     1
 91
        0
 92
        0
 62
   257
 93
        1
300
CONTENTFORMAT
  1
CONTENTFORMAT_BEGIN
 90
        0
 91
        0
 92
      512
 93
        0
300

 40
0.0
140
1.0
 94
        2
 62
     0
340
55
144
0.18
309
CONTENTFORMAT_END
171
     0
 94
        0
309
TABLEFORMAT_END
  1
CELLSTYLE_BEGIN
 90
        3
 91
        2
300
_DATA
309
CELLSTYLE_END
  0
XRECORD
  5
10B
102
{ACAD_REACTORS
330
D5
102
}
330
D5
100
AcDbXrecord
280
     1
102
ACAD_ROUNDTRIP_PRE2007_TABLESTYLE
 90
      512
 91
        0
  1

 92
      512
 93
        0
  2

 94
      512
 95
        0
  3

  0
XRECORD
  5
E6
102
{ACAD_REACTORS
330
E5
102
}
330
E5
100
AcDbXrecord
280
     1
102
RTVSPost2010Prop28
280
     1
102
RTVSPost2010PropOp28
 70
     1
102
RTVSPost2010Prop29
280
     1
102
RTVSPost2010PropOp29
 70
     1
102
RTVSPost2010Prop30
280
     0
102
RTVSPost2010PropOp30
 70
     1
102
RTVSPost2010Prop31
280
     0
102
RTVSPost2010PropOp31
 70
     1
102
RTVSPost2010Prop32
280
     0
102
RTVSPost2010PropOp32
 70
     1
102
RTVSPost2010Prop33
280
     0
102
RTVSPost2010PropOp33
 70
     1
102
RTVSPost2010Prop34
280
     0
102
RTVSPost2010PropOp34
 70
     1
102
RTVSPost2010Prop35
280
     0
102
RTVSPost2010PropOp35
 70
     1
102
RTVSPost2010Prop36
280
     0
102
RTVSPost2010PropOp36
 70
     1
102
RTVSPost2010Prop37
 90
       50
102
RTVSPost2010PropOp37
 70
     1
102
RTVSPost2010Prop38
140
0.0
102
RTVSPost2010PropOp38
 70
     1
102
RTVSPost2010Prop39
140
1.0
102
RTVSPost2010PropOp39
 70
     1
102
RTVSPost2010Prop40
 90
        0
102
RTVSPost2010PropOp40
 70
     1
102
RTVSPost2010Prop41ColorIndex
 90
       18
102
RTVSPost2010Prop41ColorRGB
 90
        0
102
RTVSPost2010PropOp41
 70
     1
102
RTVSPost2010Prop42
 90
       50
102
RTVSPost2010PropOp42
 70
     1
102
RTVSPost2010Prop43
 90
        3
102
RTVSPost2010PropOp43
 70
     1
102
RTVSPost2010Prop44ColorIndex
 90
        5
102
RTVSPost2010Prop44ColorRGB
 90
      255
102
RTVSPost2010PropOp44
 70
     1
102
RTVSPost2010Prop45
280
     0
102
RTVSPost2010PropOp45
 70
     1
102
RTVSPost2010Prop46
 90
       50
102
RTVSPost2010PropOp46
 70
     1
102
RTVSPost2010Prop47
 90
       50
102
RTVSPost2010PropOp47
 70
     1
102
RTVSPost2010Prop48
 90
       50
102
RTVSPost2010PropOp48
 70
     1
102
RTVSPost2010Prop49
280
     0
102
RTVSPost2010PropOp49
 70
     1
102
RTVSPost2010Prop50
 90
       50
102
RTVSPost2010PropOp50
 70
     1
102
RTVSPost2010Prop51ColorIndex
 90
      256
102
RTVSPost2010Prop51ColorRGB
 90
-16777216
102
RTVSPost2010PropOp51
 70
     0
102
RTVSPost2010Prop52
140
1.0
102
RTVSPost2010PropOp52
 70
     0
102
RTVSPost2010Prop53
 90
        2
102
RTVSPost2010PropOp53
 70
     1
102
RTVSPost2010Prop54
  1
strokes_ogs.tif
102
RTVSPost2010PropOp54
 70
     1
102
RTVSPost2010Prop55
280
     0
102
RTVSPost2010PropOp55
 70
     1
102
RTVSPost2010Prop56
140
1.0
102
RTVSPost2010PropOp56
 70
     1
102
RTVSPost2010Prop57
140
1.0
102
RTVSPost2010PropOp57
 70
     1
102
RTVSPropertyOp0
 70
     1
102
RTVSPropertyOp1
 70
     1
102
RTVSPropertyOp2
 70
     1
102
RTVSPropertyOp3
 70
     1
102
RTVSPropertyOp4
 70
     1
102
RTVSPropertyOp5
 70
     1
102
RTVSPropertyOp6
 70
     1
102
RTVSPropertyOp7
 70
     1
102
RTVSPropertyOp8
 70
     1
102
RTVSPropertyOp9
 70
     1
102
RTVSPropertyOp10
 70
     1
102
RTVSPropertyOp11
 70
     1
102
RTVSPropertyOp12
 70
     1
102
RTVSPropertyOp13
 70
     1
102
RTVSPropertyOp14
 70
     1
102
RTVSPropertyOp15
 70
     1
102
RTVSPropertyOp16
 70
     1
102
RTVSPropertyOp17
 70
     1
102
RTVSPropertyOp18
 70
     1
102
RTVSPropertyOp19
 70
     1
102
RTVSPropertyOp20
 70
     1
102
RTVSPropertyOp21
 70
     1
102
RTVSPropertyOp22
 70
     1
102
RTVSPropertyOp23
 70
     1
102
RTVSPropertyOp24
 70
     1
102
RTVSPropertyOp25
 70
     1
102
RTVSPropertyOp26
 70
     1
102
RTVSPropertyOp27
 70
     1
102
RTVSPropertyOp28
 70
     1
102
RTVSPropertyOp29
 70
     1
102
RTVSPropertyOp30
 70
     1
102
RTVSPropertyOp31
 70
     1
102
RTVSPropertyOp32
 70
     1
102
RTVSPropertyOp33
 70
     1
102
RTVSPropertyOp34
 70
     1
102
RTVSPropertyOp35
 70
     1
102
RTVSPropertyOp36
 70
     1
102
RTVSPropertyOp37
 70
     1
102
RTVSPropertyOp38
 70
     1
102
RTVSPropertyOp39
 70
     1
102
RTVSPropertyOp40
 70
     1
102
RTVSPropertyOp41
 70
     1
102
RTVSPropertyOp42
 70
     1
102
RTVSPropertyOp43
 70
     1
102
RTVSPropertyOp44
 70
     1
102
RTVSPropertyOp45
 70
     1
102
RTVSPropertyOp46
 70
     1
102
RTVSPropertyOp47
 70
     1
102
RTVSPropertyOp48
 70
     1
102
RTVSPropertyOp49
 70
     1
102
RTVSPropertyOp50
 70
     1
102
RTVSPropertyOp51
 70
     0
102
RTVSPropertyOp52
 70
     0
102
RTVSPropertyOp53
 70
     1
102
RTVSPropertyOp54
 70
     1
102
RTVSPropertyOp55
 70
     1
102
RTVSPropertyOp56
 70
     1
102
RTVSPropertyOp57
 70
     1
102
RTVSPropertyOp58
 70
     1
102
RTVSPropertyOp59
 70
     1
102
RTVSPropertyOp60
 70
     1
102
RTVSPropertyOp61
 70
     1
102
RTVSPropertyOp62
 70
     1
  0
XRECORD
  5
E4
102
{ACAD_REACTORS
330
E3
102
}
330
E3
100
AcDbXrecord
280
     1
102
RTVSPost2010Prop28
280
     0
102
RTVSPost2010PropOp28
 70
     1
102
RTVSPost2010Prop29
280
     1
102
RTVSPost2010PropOp29
 70
     1
102
RTVSPost2010Prop30
280
     1
102
RTVSPost2010PropOp30
 70
     1
102
RTVSPost2010Prop31
280
     0
102
RTVSPost2010PropOp31
 70
     1
102
RTVSPost2010Prop32
280
     0
102
RTVSPost2010PropOp32
 70
     1
102
RTVSPost2010Prop33
280
     0
102
RTVSPost2010PropOp33
 70
     1
102
RTVSPost2010Prop34
280
     0
102
RTVSPost2010PropOp34
 70
     1
102
RTVSPost2010Prop35
280
     0
102
RTVSPost2010PropOp35
 70
     1
102
RTVSPost2010Prop36
280
     0
102
RTVSPost2010PropOp36
 70
     1
102
RTVSPost2010Prop37
 90
       50
102
RTVSPost2010PropOp37
 70
     1
102
RTVSPost2010Prop38
140
0.0
102
RTVSPost2010PropOp38
 70
     1
102
RTVSPost2010Prop39
140
1.0
102
RTVSPost2010PropOp39
 70
     1
102
RTVSPost2010Prop40
 90
        0
102
RTVSPost2010PropOp40
 70
     1
102
RTVSPost2010Prop41ColorIndex
 90
       18
102
RTVSPost2010Prop41ColorRGB
 90
        0
102
RTVSPost2010PropOp41
 70
     1
102
RTVSPost2010Prop42
 90
       50
102
RTVSPost2010PropOp42
 70
     1
102
RTVSPost2010Prop43
 90
        3
102
RTVSPost2010PropOp43
 70
     1
102
RTVSPost2010Prop44ColorIndex
 90
        5
102
RTVSPost2010Prop44ColorRGB
 90
      255
102
RTVSPost2010PropOp44
 70
     1
102
RTVSPost2010Prop45
280
     0
102
RTVSPost2010PropOp45
 70
     1
102
RTVSPost2010Prop46
 90
       50
102
RTVSPost2010PropOp46
 70
     1
102
RTVSPost2010Prop47
 90
       50
102
RTVSPost2010PropOp47
 70
     1
102
RTVSPost2010Prop48
 90
       50
102
RTVSPost2010PropOp48
 70
     1
102
RTVSPost2010Prop49
280
     0
102
RTVSPost2010PropOp49
 70
     1
102
RTVSPost2010Prop50
 90
       50
102
RTVSPost2010PropOp50
 70
     1
102
RTVSPost2010Prop51ColorIndex
 90
      256
102
RTVSPost2010Prop51ColorRGB
 90
-16777216
102
RTVSPost2010PropOp51
 70
     0
102
RTVSPost2010Prop52
140
1.0
102
RTVSPost2010PropOp52
 70
     0
102
RTVSPost2010Prop53
 90
        2
102
RTVSPost2010PropOp53
 70
     1
102
RTVSPost2010Prop54
  1
strokes_ogs.tif
102
RTVSPost2010PropOp54
 70
     1
102
RTVSPost2010Prop55
280
     0
102
RTVSPost2010PropOp55
 70
     1
102
RTVSPost2010Prop56
140
1.0
102
RTVSPost2010PropOp56
 70
     1
102
RTVSPost2010Prop57
140
1.0
102
RTVSPost2010PropOp57
 70
     1
102
RTVSPropertyOp0
 70
     1
102
RTVSPropertyOp1
 70
     1
102
RTVSPropertyOp2
 70
     1
102
RTVSPropertyOp3
 70
     1
102
RTVSPropertyOp4
 70
     1
102
RTVSPropertyOp5
 70
     1
102
RTVSPropertyOp6
 70
     1
102
RTVSPropertyOp7
 70
     1
102
RTVSPropertyOp8
 70
     1
102
RTVSPropertyOp9
 70
     1
102
RTVSPropertyOp10
 70
     1
102
RTVSPropertyOp11
 70
     1
102
RTVSPropertyOp12
 70
     1
102
RTVSPropertyOp13
 70
     1
102
RTVSPropertyOp14
 70
     1
102
RTVSPropertyOp15
 70
     1
102
RTVSPropertyOp16
 70
     1
102
RTVSPropertyOp17
 70
     1
102
RTVSPropertyOp18
 70
     1
102
RTVSPropertyOp19
 70
     1
102
RTVSPropertyOp20
 70
     1
102
RTVSPropertyOp21
 70
     1
102
RTVSPropertyOp22
 70
     1
102
RTVSPropertyOp23
 70
     1
102
RTVSPropertyOp24
 70
     1
102
RTVSPropertyOp25
 70
     1
102
RTVSPropertyOp26
 70
     1
102
RTVSPropertyOp27
 70
     1
102
RTVSPropertyOp28
 70
     1
102
RTVSPropertyOp29
 70
     1
102
RTVSPropertyOp30
 70
     1
102
RTVSPropertyOp31
 70
     1
102
RTVSPropertyOp32
 70
     1
102
RTVSPropertyOp33
 70
     1
102
RTVSPropertyOp34
 70
     1
102
RTVSPropertyOp35
 70
     1
102
RTVSPropertyOp36
 70
     1
102
RTVSPropertyOp37
 70
     1
102
RTVSPropertyOp38
 70
     1
102
RTVSPropertyOp39
 70
     1
102
RTVSPropertyOp40
 70
     1
102
RTVSPropertyOp41
 70
     1
102
RTVSPropertyOp42
 70
     1
102
RTVSPropertyOp43
 70
     1
102
RTVSPropertyOp44
 70
     1
102
RTVSPropertyOp45
 70
     1
102
RTVSPropertyOp46
 70
     1
102
RTVSPropertyOp47
 70
     1
102
RTVSPropertyOp48
 70
     1
102
RTVSPropertyOp49
 70
     1
102
RTVSPropertyOp50
 70
     1
102
RTVSPropertyOp51
 70
     0
102
RTVSPropertyOp52
 70
     0
102
RTVSPropertyOp53
 70
     1
102
RTVSPropertyOp54
 70
     1
102
RTVSPropertyOp55
 70
     1
102
RTVSPropertyOp56
 70
     1
102
RTVSPropertyOp57
 70
     1
102
RTVSPropertyOp58
 70
     1
102
RTVSPropertyOp59
 70
     1
102
RTVSPropertyOp60
 70
     1
102
RTVSPropertyOp61
 70
     1
102
RTVSPropertyOp62
 70
     1
  0
XRECORD
  5
F2
102
{ACAD_REACTORS
330
F1
102
}
330
F1
100
AcDbXrecord
280
     1
102
RTVSPost2010Prop28
280
     0
102
RTVSPost2010PropOp28
 70
     1
102
RTVSPost2010Prop29
280
     1
102
RTVSPost2010PropOp29
 70
     1
102
RTVSPost2010Prop30
280
     1
102
RTVSPost2010PropOp30
 70
     1
102
RTVSPost2010Prop31
280
     0
102
RTVSPost2010PropOp31
 70
     1
102
RTVSPost2010Prop32
280
     0
102
RTVSPost2010PropOp32
 70
     1
102
RTVSPost2010Prop33
280
     0
102
RTVSPost2010PropOp33
 70
     1
102
RTVSPost2010Prop34
280
     0
102
RTVSPost2010PropOp34
 70
     1
102
RTVSPost2010Prop35
280
     0
102
RTVSPost2010PropOp35
 70
     1
102
RTVSPost2010Prop36
280
     0
102
RTVSPost2010PropOp36
 70
     1
102
RTVSPost2010Prop37
 90
       50
102
RTVSPost2010PropOp37
 70
     1
102
RTVSPost2010Prop38
140
0.0
102
RTVSPost2010PropOp38
 70
     1
102
RTVSPost2010Prop39
140
1.0
102
RTVSPost2010PropOp39
 70
     1
102
RTVSPost2010Prop40
 90
        0
102
RTVSPost2010PropOp40
 70
     1
102
RTVSPost2010Prop41ColorIndex
 90
       18
102
RTVSPost2010Prop41ColorRGB
 90
        0
102
RTVSPost2010PropOp41
 70
     1
102
RTVSPost2010Prop42
 90
       50
102
RTVSPost2010PropOp42
 70
     1
102
RTVSPost2010Prop43
 90
        3
102
RTVSPost2010PropOp43
 70
     1
102
RTVSPost2010Prop44ColorIndex
 90
        5
102
RTVSPost2010Prop44ColorRGB
 90
      255
102
RTVSPost2010PropOp44
 70
     1
102
RTVSPost2010Prop45
280
     0
102
RTVSPost2010PropOp45
 70
     1
102
RTVSPost2010Prop46
 90
       50
102
RTVSPost2010PropOp46
 70
     1
102
RTVSPost2010Prop47
 90
       50
102
RTVSPost2010PropOp47
 70
     1
102
RTVSPost2010Prop48
 90
       50
102
RTVSPost2010PropOp48
 70
     1
102
RTVSPost2010Prop49
280
     0
102
RTVSPost2010PropOp49
 70
     1
102
RTVSPost2010Prop50
 90
       50
102
RTVSPost2010PropOp50
 70
     1
102
RTVSPost2010Prop51ColorIndex
 90
      256
102
RTVSPost2010Prop51ColorRGB
 90
-16777216
102
RTVSPost2010PropOp51
 70
     0
102
RTVSPost2010Prop52
140
1.0
102
RTVSPost2010PropOp52
 70
     0
102
RTVSPost2010Prop53
 90
        2
102
RTVSPost2010PropOp53
 70
     1
102
RTVSPost2010Prop54
  1
strokes_ogs.tif
102
RTVSPost2010PropOp54
 70
     1
102
RTVSPost2010Prop55
280
     0
102
RTVSPost2010PropOp55
 70
     1
102
RTVSPost2010Prop56
140
1.0
102
RTVSPost2010PropOp56
 70
     1
102
RTVSPost2010Prop57
140
1.0
102
RTVSPost2010PropOp57
 70
     1
102
RTVSPropertyOp0
 70
     1
102
RTVSPropertyOp1
 70
     1
102
RTVSPropertyOp2
 70
     1
102
RTVSPropertyOp3
 70
     1
102
RTVSPropertyOp4
 70
     1
102
RTVSPropertyOp5
 70
     1
102
RTVSPropertyOp6
 70
     1
102
RTVSPropertyOp7
 70
     1
102
RTVSPropertyOp8
 70
     1
102
RTVSPropertyOp9
 70
     1
102
RTVSPropertyOp10
 70
     1
102
RTVSPropertyOp11
 70
     1
102
RTVSPropertyOp12
 70
     1
102
RTVSPropertyOp13
 70
     1
102
RTVSPropertyOp14
 70
     1
102
RTVSPropertyOp15
 70
     1
102
RTVSPropertyOp16
 70
     1
102
RTVSPropertyOp17
 70
     1
102
RTVSPropertyOp18
 70
     1
102
RTVSPropertyOp19
 70
     1
102
RTVSPropertyOp20
 70
     1
102
RTVSPropertyOp21
 70
     1
102
RTVSPropertyOp22
 70
     1
102
RTVSPropertyOp23
 70
     1
102
RTVSPropertyOp24
 70
     1
102
RTVSPropertyOp25
 70
     1
102
RTVSPropertyOp26
 70
     1
102
RTVSPropertyOp27
 70
     1
102
RTVSPropertyOp28
 70
     1
102
RTVSPropertyOp29
 70
     1
102
RTVSPropertyOp30
 70
     1
102
RTVSPropertyOp31
 70
     1
102
RTVSPropertyOp32
 70
     1
102
RTVSPropertyOp33
 70
     1
102
RTVSPropertyOp34
 70
     1
102
RTVSPropertyOp35
 70
     1
102
RTVSPropertyOp36
 70
     1
102
RTVSPropertyOp37
 70
     1
102
RTVSPropertyOp38
 70
     1
102
RTVSPropertyOp39
 70
     1
102
RTVSPropertyOp40
 70
     1
102
RTVSPropertyOp41
 70
     1
102
RTVSPropertyOp42
 70
     1
102
RTVSPropertyOp43
 70
     1
102
RTVSPropertyOp44
 70
     1
102
RTVSPropertyOp45
 70
     1
102
RTVSPropertyOp46
 70
     1
102
RTVSPropertyOp47
 70
     1
102
RTVSPropertyOp48
 70
     1
102
RTVSPropertyOp49
 70
     1
102
RTVSPropertyOp50
 70
     1
102
RTVSPropertyOp51
 70
     0
102
RTVSPropertyOp52
 70
     0
102
RTVSPropertyOp53
 70
     1
102
RTVSPropertyOp54
 70
     1
102
RTVSPropertyOp55
 70
     1
102
RTVSPropertyOp56
 70
     1
102
RTVSPropertyOp57
 70
     1
102
RTVSPropertyOp58
 70
     1
102
RTVSPropertyOp59
 70
     1
102
RTVSPropertyOp60
 70
     1
102
RTVSPropertyOp61
 70
     1
102
RTVSPropertyOp62
 70
     1
  0
XRECORD
  5
FA
102
{ACAD_REACTORS
330
F9
102
}
330
F9
100
AcDbXrecord
280
     1
102
RTVSPost2010Prop28
280
     0
102
RTVSPost2010PropOp28
 70
     1
102
RTVSPost2010Prop29
280
     1
102
RTVSPost2010PropOp29
 70
     1
102
RTVSPost2010Prop30
280
     1
102
RTVSPost2010PropOp30
 70
     1
102
RTVSPost2010Prop31
280
     0
102
RTVSPost2010PropOp31
 70
     1
102
RTVSPost2010Prop32
280
     0
102
RTVSPost2010PropOp32
 70
     1
102
RTVSPost2010Prop33
280
     0
102
RTVSPost2010PropOp33
 70
     1
102
RTVSPost2010Prop34
280
     0
102
RTVSPost2010PropOp34
 70
     1
102
RTVSPost2010Prop35
280
     0
102
RTVSPost2010PropOp35
 70
     1
102
RTVSPost2010Prop36
280
     0
102
RTVSPost2010PropOp36
 70
     1
102
RTVSPost2010Prop37
 90
       50
102
RTVSPost2010PropOp37
 70
     1
102
RTVSPost2010Prop38
140
0.0
102
RTVSPost2010PropOp38
 70
     1
102
RTVSPost2010Prop39
140
1.0
102
RTVSPost2010PropOp39
 70
     1
102
RTVSPost2010Prop40
 90
        0
102
RTVSPost2010PropOp40
 70
     1
102
RTVSPost2010Prop41ColorIndex
 90
       18
102
RTVSPost2010Prop41ColorRGB
 90
        0
102
RTVSPost2010PropOp41
 70
     1
102
RTVSPost2010Prop42
 90
       50
102
RTVSPost2010PropOp42
 70
     1
102
RTVSPost2010Prop43
 90
        3
102
RTVSPost2010PropOp43
 70
     1
102
RTVSPost2010Prop44ColorIndex
 90
        5
102
RTVSPost2010Prop44ColorRGB
 90
      255
102
RTVSPost2010PropOp44
 70
     1
102
RTVSPost2010Prop45
280
     0
102
RTVSPost2010PropOp45
 70
     1
102
RTVSPost2010Prop46
 90
       50
102
RTVSPost2010PropOp46
 70
     1
102
RTVSPost2010Prop47
 90
       50
102
RTVSPost2010PropOp47
 70
     1
102
RTVSPost2010Prop48
 90
       50
102
RTVSPost2010PropOp48
 70
     1
102
RTVSPost2010Prop49
280
     0
102
RTVSPost2010PropOp49
 70
     1
102
RTVSPost2010Prop50
 90
       50
102
RTVSPost2010PropOp50
 70
     1
102
RTVSPost2010Prop51ColorIndex
 90
      256
102
RTVSPost2010Prop51ColorRGB
 90
-16777216
102
RTVSPost2010PropOp51
 70
     0
102
RTVSPost2010Prop52
140
1.0
102
RTVSPost2010PropOp52
 70
     0
102
RTVSPost2010Prop53
 90
        2
102
RTVSPost2010PropOp53
 70
     1
102
RTVSPost2010Prop54
  1
strokes_ogs.tif
102
RTVSPost2010PropOp54
 70
     1
102
RTVSPost2010Prop55
280
     0
102
RTVSPost2010PropOp55
 70
     1
102
RTVSPost2010Prop56
140
1.0
102
RTVSPost2010PropOp56
 70
     1
102
RTVSPost2010Prop57
140
1.0
102
RTVSPost2010PropOp57
 70
     1
102
RTVSPropertyOp0
 70
     1
102
RTVSPropertyOp1
 70
     1
102
RTVSPropertyOp2
 70
     1
102
RTVSPropertyOp3
 70
     1
102
RTVSPropertyOp4
 70
     1
102
RTVSPropertyOp5
 70
     1
102
RTVSPropertyOp6
 70
     1
102
RTVSPropertyOp7
 70
     1
102
RTVSPropertyOp8
 70
     1
102
RTVSPropertyOp9
 70
     1
102
RTVSPropertyOp10
 70
     1
102
RTVSPropertyOp11
 70
     1
102
RTVSPropertyOp12
 70
     1
102
RTVSPropertyOp13
 70
     1
102
RTVSPropertyOp14
 70
     1
102
RTVSPropertyOp15
 70
     1
102
RTVSPropertyOp16
 70
     1
102
RTVSPropertyOp17
 70
     1
102
RTVSPropertyOp18
 70
     1
102
RTVSPropertyOp19
 70
     1
102
RTVSPropertyOp20
 70
     1
102
RTVSPropertyOp21
 70
     1
102
RTVSPropertyOp22
 70
     1
102
RTVSPropertyOp23
 70
     1
102
RTVSPropertyOp24
 70
     1
102
RTVSPropertyOp25
 70
     1
102
RTVSPropertyOp26
 70
     1
102
RTVSPropertyOp27
 70
     1
102
RTVSPropertyOp28
 70
     1
102
RTVSPropertyOp29
 70
     1
102
RTVSPropertyOp30
 70
     1
102
RTVSPropertyOp31
 70
     1
102
RTVSPropertyOp32
 70
     1
102
RTVSPropertyOp33
 70
     1
102
RTVSPropertyOp34
 70
     1
102
RTVSPropertyOp35
 70
     1
102
RTVSPropertyOp36
 70
     1
102
RTVSPropertyOp37
 70
     1
102
RTVSPropertyOp38
 70
     1
102
RTVSPropertyOp39
 70
     1
102
RTVSPropertyOp40
 70
     1
102
RTVSPropertyOp41
 70
     1
102
RTVSPropertyOp42
 70
     1
102
RTVSPropertyOp43
 70
     1
102
RTVSPropertyOp44
 70
     1
102
RTVSPropertyOp45
 70
     1
102
RTVSPropertyOp46
 70
     1
102
RTVSPropertyOp47
 70
     1
102
RTVSPropertyOp48
 70
     1
102
RTVSPropertyOp49
 70
     1
102
RTVSPropertyOp50
 70
     1
102
RTVSPropertyOp51
 70
     0
102
RTVSPropertyOp52
 70
     0
102
RTVSPropertyOp53
 70
     1
102
RTVSPropertyOp54
 70
     1
102
RTVSPropertyOp55
 70
     1
102
RTVSPropertyOp56
 70
     1
102
RTVSPropertyOp57
 70
     1
102
RTVSPropertyOp58
 70
     1
102
RTVSPropertyOp59
 70
     1
102
RTVSPropertyOp60
 70
     1
102
RTVSPropertyOp61
 70
     1
102
RTVSPropertyOp62
 70
     1
  0
XRECORD
  5
EC
102
{ACAD_REACTORS
330
EB
102
}
330
EB
100
AcDbXrecord
280
     1
102
RTVSPost2010Prop28
280
     0
102
RTVSPost2010PropOp28
 70
     1
102
RTVSPost2010Prop29
280
     1
102
RTVSPost2010PropOp29
 70
     1
102
RTVSPost2010Prop30
280
     1
102
RTVSPost2010PropOp30
 70
     1
102
RTVSPost2010Prop31
280
     0
102
RTVSPost2010PropOp31
 70
     1
102
RTVSPost2010Prop32
280
     0
102
RTVSPost2010PropOp32
 70
     1
102
RTVSPost2010Prop33
280
     0
102
RTVSPost2010PropOp33
 70
     1
102
RTVSPost2010Prop34
280
     0
102
RTVSPost2010PropOp34
 70
     1
102
RTVSPost2010Prop35
280
     0
102
RTVSPost2010PropOp35
 70
     1
102
RTVSPost2010Prop36
280
     0
102
RTVSPost2010PropOp36
 70
     1
102
RTVSPost2010Prop37
 90
       50
102
RTVSPost2010PropOp37
 70
     1
102
RTVSPost2010Prop38
140
0.0
102
RTVSPost2010PropOp38
 70
     1
102
RTVSPost2010Prop39
140
1.0
102
RTVSPost2010PropOp39
 70
     1
102
RTVSPost2010Prop40
 90
        0
102
RTVSPost2010PropOp40
 70
     1
102
RTVSPost2010Prop41ColorIndex
 90
       18
102
RTVSPost2010Prop41ColorRGB
 90
        0
102
RTVSPost2010PropOp41
 70
     1
102
RTVSPost2010Prop42
 90
       50
102
RTVSPost2010PropOp42
 70
     1
102
RTVSPost2010Prop43
 90
        3
102
RTVSPost2010PropOp43
 70
     1
102
RTVSPost2010Prop44ColorIndex
 90
        5
102
RTVSPost2010Prop44ColorRGB
 90
      255
102
RTVSPost2010PropOp44
 70
     1
102
RTVSPost2010Prop45
280
     0
102
RTVSPost2010PropOp45
 70
     1
102
RTVSPost2010Prop46
 90
       50
102
RTVSPost2010PropOp46
 70
     1
102
RTVSPost2010Prop47
 90
       50
102
RTVSPost2010PropOp47
 70
     1
102
RTVSPost2010Prop48
 90
       50
102
RTVSPost2010PropOp48
 70
     1
102
RTVSPost2010Prop49
280
     0
102
RTVSPost2010PropOp49
 70
     1
102
RTVSPost2010Prop50
 90
       50
102
RTVSPost2010PropOp50
 70
     1
102
RTVSPost2010Prop51ColorIndex
 90
      256
102
RTVSPost2010Prop51ColorRGB
 90
-16777216
102
RTVSPost2010PropOp51
 70
     0
102
RTVSPost2010Prop52
140
1.0
102
RTVSPost2010PropOp52
 70
     0
102
RTVSPost2010Prop53
 90
        2
102
RTVSPost2010PropOp53
 70
     1
102
RTVSPost2010Prop54
  1
strokes_ogs.tif
102
RTVSPost2010PropOp54
 70
     1
102
RTVSPost2010Prop55
280
     0
102
RTVSPost2010PropOp55
 70
     1
102
RTVSPost2010Prop56
140
1.0
102
RTVSPost2010PropOp56
 70
     1
102
RTVSPost2010Prop57
140
1.0
102
RTVSPost2010PropOp57
 70
     1
102
RTVSPropertyOp0
 70
     1
102
RTVSPropertyOp1
 70
     1
102
RTVSPropertyOp2
 70
     1
102
RTVSPropertyOp3
 70
     1
102
RTVSPropertyOp4
 70
     1
102
RTVSPropertyOp5
 70
     1
102
RTVSPropertyOp6
 70
     1
102
RTVSPropertyOp7
 70
     1
102
RTVSPropertyOp8
 70
     1
102
RTVSPropertyOp9
 70
     1
102
RTVSPropertyOp10
 70
     1
102
RTVSPropertyOp11
 70
     1
102
RTVSPropertyOp12
 70
     1
102
RTVSPropertyOp13
 70
     1
102
RTVSPropertyOp14
 70
     1
102
RTVSPropertyOp15
 70
     1
102
RTVSPropertyOp16
 70
     1
102
RTVSPropertyOp17
 70
     1
102
RTVSPropertyOp18
 70
     1
102
RTVSPropertyOp19
 70
     1
102
RTVSPropertyOp20
 70
     1
102
RTVSPropertyOp21
 70
     1
102
RTVSPropertyOp22
 70
     1
102
RTVSPropertyOp23
 70
     1
102
RTVSPropertyOp24
 70
     1
102
RTVSPropertyOp25
 70
     1
102
RTVSPropertyOp26
 70
     1
102
RTVSPropertyOp27
 70
     1
102
RTVSPropertyOp28
 70
     1
102
RTVSPropertyOp29
 70
     1
102
RTVSPropertyOp30
 70
     1
102
RTVSPropertyOp31
 70
     1
102
RTVSPropertyOp32
 70
     1
102
RTVSPropertyOp33
 70
     1
102
RTVSPropertyOp34
 70
     1
102
RTVSPropertyOp35
 70
     1
102
RTVSPropertyOp36
 70
     1
102
RTVSPropertyOp37
 70
     1
102
RTVSPropertyOp38
 70
     1
102
RTVSPropertyOp39
 70
     1
102
RTVSPropertyOp40
 70
     1
102
RTVSPropertyOp41
 70
     1
102
RTVSPropertyOp42
 70
     1
102
RTVSPropertyOp43
 70
     1
102
RTVSPropertyOp44
 70
     1
102
RTVSPropertyOp45
 70
     1
102
RTVSPropertyOp46
 70
     1
102
RTVSPropertyOp47
 70
     1
102
RTVSPropertyOp48
 70
     1
102
RTVSPropertyOp49
 70
     1
102
RTVSPropertyOp50
 70
     1
102
RTVSPropertyOp51
 70
     0
102
RTVSPropertyOp52
 70
     0
102
RTVSPropertyOp53
 70
     1
102
RTVSPropertyOp54
 70
     1
102
RTVSPropertyOp55
 70
     1
102
RTVSPropertyOp56
 70
     1
102
RTVSPropertyOp57
 70
     1
102
RTVSPropertyOp58
 70
     1
102
RTVSPropertyOp59
 70
     1
102
RTVSPropertyOp60
 70
     1
102
RTVSPropertyOp61
 70
     1
102
RTVSPropertyOp62
 70
     1
  0
XRECORD
  5
F0
102
{ACAD_REACTORS
330
EF
102
}
330
EF
100
AcDbXrecord
280
     1
102
RTVSPost2010Prop28
280
     0
102
RTVSPost2010PropOp28
 70
     1
102
RTVSPost2010Prop29
280
     1
102
RTVSPost2010PropOp29
 70
     1
102
RTVSPost2010Prop30
280
     1
102
RTVSPost2010PropOp30
 70
     1
102
RTVSPost2010Prop31
280
     0
102
RTVSPost2010PropOp31
 70
     1
102
RTVSPost2010Prop32
280
     0
102
RTVSPost2010PropOp32
 70
     1
102
RTVSPost2010Prop33
280
     0
102
RTVSPost2010PropOp33
 70
     1
102
RTVSPost2010Prop34
280
     0
102
RTVSPost2010PropOp34
 70
     1
102
RTVSPost2010Prop35
280
     0
102
RTVSPost2010PropOp35
 70
     1
102
RTVSPost2010Prop36
280
     0
102
RTVSPost2010PropOp36
 70
     1
102
RTVSPost2010Prop37
 90
       50
102
RTVSPost2010PropOp37
 70
     1
102
RTVSPost2010Prop38
140
0.0
102
RTVSPost2010PropOp38
 70
     1
102
RTVSPost2010Prop39
140
1.0
102
RTVSPost2010PropOp39
 70
     1
102
RTVSPost2010Prop40
 90
        0
102
RTVSPost2010PropOp40
 70
     1
102
RTVSPost2010Prop41ColorIndex
 90
       18
102
RTVSPost2010Prop41ColorRGB
 90
        0
102
RTVSPost2010PropOp41
 70
     1
102
RTVSPost2010Prop42
 90
       50
102
RTVSPost2010PropOp42
 70
     1
102
RTVSPost2010Prop43
 90
        3
102
RTVSPost2010PropOp43
 70
     1
102
RTVSPost2010Prop44ColorIndex
 90
        5
102
RTVSPost2010Prop44ColorRGB
 90
      255
102
RTVSPost2010PropOp44
 70
     1
102
RTVSPost2010Prop45
280
     0
102
RTVSPost2010PropOp45
 70
     1
102
RTVSPost2010Prop46
 90
       50
102
RTVSPost2010PropOp46
 70
     1
102
RTVSPost2010Prop47
 90
       50
102
RTVSPost2010PropOp47
 70
     1
102
RTVSPost2010Prop48
 90
       50
102
RTVSPost2010PropOp48
 70
     1
102
RTVSPost2010Prop49
280
     0
102
RTVSPost2010PropOp49
 70
     1
102
RTVSPost2010Prop50
 90
       50
102
RTVSPost2010PropOp50
 70
     1
102
RTVSPost2010Prop51ColorIndex
 90
      256
102
RTVSPost2010Prop51ColorRGB
 90
-16777216
102
RTVSPost2010PropOp51
 70
     0
102
RTVSPost2010Prop52
140
1.0
102
RTVSPost2010PropOp52
 70
     0
102
RTVSPost2010Prop53
 90
        2
102
RTVSPost2010PropOp53
 70
     1
102
RTVSPost2010Prop54
  1
strokes_ogs.tif
102
RTVSPost2010PropOp54
 70
     1
102
RTVSPost2010Prop55
280
     0
102
RTVSPost2010PropOp55
 70
     1
102
RTVSPost2010Prop56
140
1.0
102
RTVSPost2010PropOp56
 70
     1
102
RTVSPost2010Prop57
140
1.0
102
RTVSPost2010PropOp57
 70
     1
102
RTVSPropertyOp0
 70
     1
102
RTVSPropertyOp1
 70
     1
102
RTVSPropertyOp2
 70
     1
102
RTVSPropertyOp3
 70
     1
102
RTVSPropertyOp4
 70
     1
102
RTVSPropertyOp5
 70
     1
102
RTVSPropertyOp6
 70
     1
102
RTVSPropertyOp7
 70
     1
102
RTVSPropertyOp8
 70
     1
102
RTVSPropertyOp9
 70
     1
102
RTVSPropertyOp10
 70
     1
102
RTVSPropertyOp11
 70
     1
102
RTVSPropertyOp12
 70
     1
102
RTVSPropertyOp13
 70
     1
102
RTVSPropertyOp14
 70
     1
102
RTVSPropertyOp15
 70
     1
102
RTVSPropertyOp16
 70
     1
102
RTVSPropertyOp17
 70
     1
102
RTVSPropertyOp18
 70
     1
102
RTVSPropertyOp19
 70
     1
102
RTVSPropertyOp20
 70
     1
102
RTVSPropertyOp21
 70
     1
102
RTVSPropertyOp22
 70
     1
102
RTVSPropertyOp23
 70
     1
102
RTVSPropertyOp24
 70
     1
102
RTVSPropertyOp25
 70
     1
102
RTVSPropertyOp26
 70
     1
102
RTVSPropertyOp27
 70
     1
102
RTVSPropertyOp28
 70
     1
102
RTVSPropertyOp29
 70
     1
102
RTVSPropertyOp30
 70
     1
102
RTVSPropertyOp31
 70
     1
102
RTVSPropertyOp32
 70
     1
102
RTVSPropertyOp33
 70
     1
102
RTVSPropertyOp34
 70
     1
102
RTVSPropertyOp35
 70
     1
102
RTVSPropertyOp36
 70
     1
102
RTVSPropertyOp37
 70
     1
102
RTVSPropertyOp38
 70
     1
102
RTVSPropertyOp39
 70
     1
102
RTVSPropertyOp40
 70
     1
102
RTVSPropertyOp41
 70
     1
102
RTVSPropertyOp42
 70
     1
102
RTVSPropertyOp43
 70
     1
102
RTVSPropertyOp44
 70
     1
102
RTVSPropertyOp45
 70
     1
102
RTVSPropertyOp46
 70
     1
102
RTVSPropertyOp47
 70
     1
102
RTVSPropertyOp48
 70
     1
102
RTVSPropertyOp49
 70
     1
102
RTVSPropertyOp50
 70
     1
102
RTVSPropertyOp51
 70
     0
102
RTVSPropertyOp52
 70
     0
102
RTVSPropertyOp53
 70
     1
102
RTVSPropertyOp54
 70
     1
102
RTVSPropertyOp55
 70
     1
102
RTVSPropertyOp56
 70
     1
102
RTVSPropertyOp57
 70
     1
102
RTVSPropertyOp58
 70
     1
102
RTVSPropertyOp59
 70
     1
102
RTVSPropertyOp60
 70
     1
102
RTVSPropertyOp61
 70
     1
102
RTVSPropertyOp62
 70
     1
  0
XRECORD
  5
10A
102
{ACAD_REACTORS
330
109
102
}
330
109
100
AcDbXrecord
280
     1
102
RTVSPost2010Prop28
280
     0
102
RTVSPost2010PropOp28
 70
     0
102
RTVSPost2010Prop29
280
     1
102
RTVSPost2010PropOp29
 70
     0
102
RTVSPost2010Prop30
280
     1
102
RTVSPost2010PropOp30
 70
     0
102
RTVSPost2010Prop31
280
     0
102
RTVSPost2010PropOp31
 70
     0
102
RTVSPost2010Prop32
280
     0
102
RTVSPost2010PropOp32
 70
     0
102
RTVSPost2010Prop33
280
     0
102
RTVSPost2010PropOp33
 70
     0
102
RTVSPost2010Prop34
280
     0
102
RTVSPost2010PropOp34
 70
     0
102
RTVSPost2010Prop35
280
     0
102
RTVSPost2010PropOp35
 70
     0
102
RTVSPost2010Prop36
280
     0
102
RTVSPost2010PropOp36
 70
     0
102
RTVSPost2010Prop37
 90
       50
102
RTVSPost2010PropOp37
 70
     0
102
RTVSPost2010Prop38
140
0.0
102
RTVSPost2010PropOp38
 70
     0
102
RTVSPost2010Prop39
140
1.0
102
RTVSPost2010PropOp39
 70
     0
102
RTVSPost2010Prop40
 90
        0
102
RTVSPost2010PropOp40
 70
     0
102
RTVSPost2010Prop41ColorIndex
 90
       18
102
RTVSPost2010Prop41ColorRGB
 90
        0
102
RTVSPost2010PropOp41
 70
     0
102
RTVSPost2010Prop42
 90
       50
102
RTVSPost2010PropOp42
 70
     0
102
RTVSPost2010Prop43
 90
        3
102
RTVSPost2010PropOp43
 70
     0
102
RTVSPost2010Prop44ColorIndex
 90
        5
102
RTVSPost2010Prop44ColorRGB
 90
      255
102
RTVSPost2010PropOp44
 70
     0
102
RTVSPost2010Prop45
280
     0
102
RTVSPost2010PropOp45
 70
     0
102
RTVSPost2010Prop46
 90
       50
102
RTVSPost2010PropOp46
 70
     0
102
RTVSPost2010Prop47
 90
       50
102
RTVSPost2010PropOp47
 70
     0
102
RTVSPost2010Prop48
 90
       50
102
RTVSPost2010PropOp48
 70
     0
102
RTVSPost2010Prop49
280
     0
102
RTVSPost2010PropOp49
 70
     0
102
RTVSPost2010Prop50
 90
       50
102
RTVSPost2010PropOp50
 70
     0
102
RTVSPost2010Prop51ColorIndex
 90
      256
102
RTVSPost2010Prop51ColorRGB
 90
-16777216
102
RTVSPost2010PropOp51
 70
     0
102
RTVSPost2010Prop52
140
1.0
102
RTVSPost2010PropOp52
 70
     0
102
RTVSPost2010Prop53
 90
        2
102
RTVSPost2010PropOp53
 70
     0
102
RTVSPost2010Prop54
  1
strokes_ogs.tif
102
RTVSPost2010PropOp54
 70
     0
102
RTVSPost2010Prop55
280
     0
102
RTVSPost2010PropOp55
 70
     0
102
RTVSPost2010Prop56
140
1.0
102
RTVSPost2010PropOp56
 70
     0
102
RTVSPost2010Prop57
140
1.0
102
RTVSPost2010PropOp57
 70
     0
102
RTVSPropertyOp0
 70
     0
102
RTVSPropertyOp1
 70
     0
102
RTVSPropertyOp2
 70
     0
102
RTVSPropertyOp3
 70
     0
102
RTVSPropertyOp4
 70
     0
102
RTVSPropertyOp5
 70
     0
102
RTVSPropertyOp6
 70
     0
102
RTVSPropertyOp7
 70
     0
102
RTVSPropertyOp8
 70
     0
102
RTVSPropertyOp9
 70
     0
102
RTVSPropertyOp10
 70
     0
102
RTVSPropertyOp11
 70
     0
102
RTVSPropertyOp12
 70
     0
102
RTVSPropertyOp13
 70
     0
102
RTVSPropertyOp14
 70
     2
102
RTVSPropertyOp15
 70
     0
102
RTVSPropertyOp16
 70
     0
102
RTVSPropertyOp17
 70
     0
102
RTVSPropertyOp18
 70
     0
102
RTVSPropertyOp19
 70
     0
102
RTVSPropertyOp20
 70
     0
102
RTVSPropertyOp21
 70
     0
102
RTVSPropertyOp22
 70
     0
102
RTVSPropertyOp23
 70
     0
102
RTVSPropertyOp24
 70
     0
102
RTVSPropertyOp25
 70
     0
102
RTVSPropertyOp26
 70
     0
102
RTVSPropertyOp27
 70
     0
102
RTVSPropertyOp28
 70
     0
102
RTVSPropertyOp29
 70
     0
102
RTVSPropertyOp30
 70
     0
102
RTVSPropertyOp31
 70
     0
102
RTVSPropertyOp32
 70
     0
102
RTVSPropertyOp33
 70
     0
102
RTVSPropertyOp34
 70
     0
102
RTVSPropertyOp35
 70
     0
102
RTVSPropertyOp36
 70
     0
102
RTVSPropertyOp37
 70
     0
102
RTVSPropertyOp38
 70
     0
102
RTVSPropertyOp39
 70
     0
102
RTVSPropertyOp40
 70
     0
102
RTVSPropertyOp41
 70
     0
102
RTVSPropertyOp42
 70
     0
102
RTVSPropertyOp43
 70
     0
102
RTVSPropertyOp44
 70
     0
102
RTVSPropertyOp45
 70
     0
102
RTVSPropertyOp46
 70
     0
102
RTVSPropertyOp47
 70
     0
102
RTVSPropertyOp48
 70
     0
102
RTVSPropertyOp49
 70
     0
102
RTVSPropertyOp50
 70
     0
102
RTVSPropertyOp51
 70
     0
102
RTVSPropertyOp52
 70
     0
102
RTVSPropertyOp53
 70
     0
102
RTVSPropertyOp54
 70
     0
102
RTVSPropertyOp55
 70
     0
102
RTVSPropertyOp56
 70
     0
102
RTVSPropertyOp57
 70
     0
102
RTVSPropertyOp58
 70
     0
102
RTVSPropertyOp59
 70
     0
102
RTVSPropertyOp60
 70
     0
102
RTVSPropertyOp61
 70
     0
102
RTVSPropertyOp62
 70
     0
  0
XRECORD
  5
F8
102
{ACAD_REACTORS
330
F7
102
}
330
F7
100
AcDbXrecord
280
     1
102
RTVSPost2010Prop28
280
     0
102
RTVSPost2010PropOp28
 70
     1
102
RTVSPost2010Prop29
280
     1
102
RTVSPost2010PropOp29
 70
     1
102
RTVSPost2010Prop30
280
     1
102
RTVSPost2010PropOp30
 70
     1
102
RTVSPost2010Prop31
280
     0
102
RTVSPost2010PropOp31
 70
     1
102
RTVSPost2010Prop32
280
     0
102
RTVSPost2010PropOp32
 70
     1
102
RTVSPost2010Prop33
280
     0
102
RTVSPost2010PropOp33
 70
     1
102
RTVSPost2010Prop34
280
     0
102
RTVSPost2010PropOp34
 70
     1
102
RTVSPost2010Prop35
280
     0
102
RTVSPost2010PropOp35
 70
     1
102
RTVSPost2010Prop36
280
     0
102
RTVSPost2010PropOp36
 70
     1
102
RTVSPost2010Prop37
 90
       50
102
RTVSPost2010PropOp37
 70
     1
102
RTVSPost2010Prop38
140
0.0
102
RTVSPost2010PropOp38
 70
     1
102
RTVSPost2010Prop39
140
1.0
102
RTVSPost2010PropOp39
 70
     1
102
RTVSPost2010Prop40
 90
        0
102
RTVSPost2010PropOp40
 70
     1
102
RTVSPost2010Prop41ColorIndex
 90
       18
102
RTVSPost2010Prop41ColorRGB
 90
        0
102
RTVSPost2010PropOp41
 70
     1
102
RTVSPost2010Prop42
 90
       50
102
RTVSPost2010PropOp42
 70
     1
102
RTVSPost2010Prop43
 90
        3
102
RTVSPost2010PropOp43
 70
     1
102
RTVSPost2010Prop44ColorIndex
 90
        5
102
RTVSPost2010Prop44ColorRGB
 90
      255
102
RTVSPost2010PropOp44
 70
     1
102
RTVSPost2010Prop45
280
     0
102
RTVSPost2010PropOp45
 70
     1
102
RTVSPost2010Prop46
 90
       50
102
RTVSPost2010PropOp46
 70
     1
102
RTVSPost2010Prop47
 90
       50
102
RTVSPost2010PropOp47
 70
     1
102
RTVSPost2010Prop48
 90
       50
102
RTVSPost2010PropOp48
 70
     1
102
RTVSPost2010Prop49
280
     0
102
RTVSPost2010PropOp49
 70
     1
102
RTVSPost2010Prop50
 90
       50
102
RTVSPost2010PropOp50
 70
     1
102
RTVSPost2010Prop51ColorIndex
 90
      256
102
RTVSPost2010Prop51ColorRGB
 90
-16777216
102
RTVSPost2010PropOp51
 70
     0
102
RTVSPost2010Prop52
140
1.0
102
RTVSPost2010PropOp52
 70
     0
102
RTVSPost2010Prop53
 90
        2
102
RTVSPost2010PropOp53
 70
     1
102
RTVSPost2010Prop54
  1
strokes_ogs.tif
102
RTVSPost2010PropOp54
 70
     1
102
RTVSPost2010Prop55
280
     0
102
RTVSPost2010PropOp55
 70
     1
102
RTVSPost2010Prop56
140
1.0
102
RTVSPost2010PropOp56
 70
     1
102
RTVSPost2010Prop57
140
1.0
102
RTVSPost2010PropOp57
 70
     1
102
RTVSPropertyOp0
 70
     1
102
RTVSPropertyOp1
 70
     1
102
RTVSPropertyOp2
 70
     1
102
RTVSPropertyOp3
 70
     1
102
RTVSPropertyOp4
 70
     1
102
RTVSPropertyOp5
 70
     1
102
RTVSPropertyOp6
 70
     1
102
RTVSPropertyOp7
 70
     1
102
RTVSPropertyOp8
 70
     1
102
RTVSPropertyOp9
 70
     1
102
RTVSPropertyOp10
 70
     1
102
RTVSPropertyOp11
 70
     1
102
RTVSPropertyOp12
 70
     1
102
RTVSPropertyOp13
 70
     1
102
RTVSPropertyOp14
 70
     1
102
RTVSPropertyOp15
 70
     1
102
RTVSPropertyOp16
 70
     1
102
RTVSPropertyOp17
 70
     1
102
RTVSPropertyOp18
 70
     1
102
RTVSPropertyOp19
 70
     1
102
RTVSPropertyOp20
 70
     1
102
RTVSPropertyOp21
 70
     1
102
RTVSPropertyOp22
 70
     1
102
RTVSPropertyOp23
 70
     1
102
RTVSPropertyOp24
 70
     1
102
RTVSPropertyOp25
 70
     1
102
RTVSPropertyOp26
 70
     1
102
RTVSPropertyOp27
 70
     1
102
RTVSPropertyOp28
 70
     1
102
RTVSPropertyOp29
 70
     1
102
RTVSPropertyOp30
 70
     1
102
RTVSPropertyOp31
 70
     1
102
RTVSPropertyOp32
 70
     1
102
RTVSPropertyOp33
 70
     1
102
RTVSPropertyOp34
 70
     1
102
RTVSPropertyOp35
 70
     1
102
RTVSPropertyOp36
 70
     1
102
RTVSPropertyOp37
 70
     1
102
RTVSPropertyOp38
 70
     1
102
RTVSPropertyOp39
 70
     1
102
RTVSPropertyOp40
 70
     1
102
RTVSPropertyOp41
 70
     1
102
RTVSPropertyOp42
 70
     1
102
RTVSPropertyOp43
 70
     1
102
RTVSPropertyOp44
 70
     1
102
RTVSPropertyOp45
 70
     1
102
RTVSPropertyOp46
 70
     1
102
RTVSPropertyOp47
 70
     1
102
RTVSPropertyOp48
 70
     1
102
RTVSPropertyOp49
 70
     1
102
RTVSPropertyOp50
 70
     1
102
RTVSPropertyOp51
 70
     0
102
RTVSPropertyOp52
 70
     0
102
RTVSPropertyOp53
 70
     1
102
RTVSPropertyOp54
 70
     1
102
RTVSPropertyOp55
 70
     1
102
RTVSPropertyOp56
 70
     1
102
RTVSPropertyOp57
 70
     1
102
RTVSPropertyOp58
 70
     1
102
RTVSPropertyOp59
 70
     1
102
RTVSPropertyOp60
 70
     1
102
RTVSPropertyOp61
 70
     1
102
RTVSPropertyOp62
 70
     1
  0
XRECORD
  5
DC
102
{ACAD_REACTORS
330
DB
102
}
330
DB
100
AcDbXrecord
280
     1
102
RTVSPost2010Prop28
280
     0
102
RTVSPost2010PropOp28
 70
     1
102
RTVSPost2010Prop29
280
     1
102
RTVSPost2010PropOp29
 70
     1
102
RTVSPost2010Prop30
280
     1
102
RTVSPost2010PropOp30
 70
     1
102
RTVSPost2010Prop31
280
     0
102
RTVSPost2010PropOp31
 70
     1
102
RTVSPost2010Prop32
280
     0
102
RTVSPost2010PropOp32
 70
     1
102
RTVSPost2010Prop33
280
     0
102
RTVSPost2010PropOp33
 70
     1
102
RTVSPost2010Prop34
280
     0
102
RTVSPost2010PropOp34
 70
     1
102
RTVSPost2010Prop35
280
     0
102
RTVSPost2010PropOp35
 70
     1
102
RTVSPost2010Prop36
280
     0
102
RTVSPost2010PropOp36
 70
     1
102
RTVSPost2010Prop37
 90
       50
102
RTVSPost2010PropOp37
 70
     1
102
RTVSPost2010Prop38
140
0.0
102
RTVSPost2010PropOp38
 70
     1
102
RTVSPost2010Prop39
140
1.0
102
RTVSPost2010PropOp39
 70
     1
102
RTVSPost2010Prop40
 90
        0
102
RTVSPost2010PropOp40
 70
     1
102
RTVSPost2010Prop41ColorIndex
 90
       18
102
RTVSPost2010Prop41ColorRGB
 90
        0
102
RTVSPost2010PropOp41
 70
     1
102
RTVSPost2010Prop42
 90
       50
102
RTVSPost2010PropOp42
 70
     1
102
RTVSPost2010Prop43
 90
        3
102
RTVSPost2010PropOp43
 70
     1
102
RTVSPost2010Prop44ColorIndex
 90
        5
102
RTVSPost2010Prop44ColorRGB
 90
      255
102
RTVSPost2010PropOp44
 70
     1
102
RTVSPost2010Prop45
280
     0
102
RTVSPost2010PropOp45
 70
     1
102
RTVSPost2010Prop46
 90
       50
102
RTVSPost2010PropOp46
 70
     1
102
RTVSPost2010Prop47
 90
       50
102
RTVSPost2010PropOp47
 70
     1
102
RTVSPost2010Prop48
 90
       50
102
RTVSPost2010PropOp48
 70
     1
102
RTVSPost2010Prop49
280
     0
102
RTVSPost2010PropOp49
 70
     1
102
RTVSPost2010Prop50
 90
       50
102
RTVSPost2010PropOp50
 70
     1
102
RTVSPost2010Prop51ColorIndex
 90
      256
102
RTVSPost2010Prop51ColorRGB
 90
-16777216
102
RTVSPost2010PropOp51
 70
     0
102
RTVSPost2010Prop52
140
1.0
102
RTVSPost2010PropOp52
 70
     0
102
RTVSPost2010Prop53
 90
        2
102
RTVSPost2010PropOp53
 70
     1
102
RTVSPost2010Prop54
  1
strokes_ogs.tif
102
RTVSPost2010PropOp54
 70
     1
102
RTVSPost2010Prop55
280
     0
102
RTVSPost2010PropOp55
 70
     1
102
RTVSPost2010Prop56
140
1.0
102
RTVSPost2010PropOp56
 70
     1
102
RTVSPost2010Prop57
140
1.0
102
RTVSPost2010PropOp57
 70
     1
102
RTVSPropertyOp0
 70
     1
102
RTVSPropertyOp1
 70
     1
102
RTVSPropertyOp2
 70
     1
102
RTVSPropertyOp3
 70
     1
102
RTVSPropertyOp4
 70
     1
102
RTVSPropertyOp5
 70
     1
102
RTVSPropertyOp6
 70
     1
102
RTVSPropertyOp7
 70
     1
102
RTVSPropertyOp8
 70
     1
102
RTVSPropertyOp9
 70
     1
102
RTVSPropertyOp10
 70
     1
102
RTVSPropertyOp11
 70
     1
102
RTVSPropertyOp12
 70
     1
102
RTVSPropertyOp13
 70
     1
102
RTVSPropertyOp14
 70
     1
102
RTVSPropertyOp15
 70
     1
102
RTVSPropertyOp16
 70
     1
102
RTVSPropertyOp17
 70
     1
102
RTVSPropertyOp18
 70
     1
102
RTVSPropertyOp19
 70
     1
102
RTVSPropertyOp20
 70
     1
102
RTVSPropertyOp21
 70
     1
102
RTVSPropertyOp22
 70
     1
102
RTVSPropertyOp23
 70
     1
102
RTVSPropertyOp24
 70
     1
102
RTVSPropertyOp25
 70
     1
102
RTVSPropertyOp26
 70
     1
102
RTVSPropertyOp27
 70
     1
102
RTVSPropertyOp28
 70
     1
102
RTVSPropertyOp29
 70
     1
102
RTVSPropertyOp30
 70
     1
102
RTVSPropertyOp31
 70
     1
102
RTVSPropertyOp32
 70
     1
102
RTVSPropertyOp33
 70
     1
102
RTVSPropertyOp34
 70
     1
102
RTVSPropertyOp35
 70
     1
102
RTVSPropertyOp36
 70
     1
102
RTVSPropertyOp37
 70
     1
102
RTVSPropertyOp38
 70
     1
102
RTVSPropertyOp39
 70
     1
102
RTVSPropertyOp40
 70
     1
102
RTVSPropertyOp41
 70
     1
102
RTVSPropertyOp42
 70
     1
102
RTVSPropertyOp43
 70
     1
102
RTVSPropertyOp44
 70
     1
102
RTVSPropertyOp45
 70
     1
102
RTVSPropertyOp46
 70
     1
102
RTVSPropertyOp47
 70
     1
102
RTVSPropertyOp48
 70
     1
102
RTVSPropertyOp49
 70
     1
102
RTVSPropertyOp50
 70
     1
102
RTVSPropertyOp51
 70
     0
102
RTVSPropertyOp52
 70
     0
102
RTVSPropertyOp53
 70
     1
102
RTVSPropertyOp54
 70
     1
102
RTVSPropertyOp55
 70
     1
102
RTVSPropertyOp56
 70
     1
102
RTVSPropertyOp57
 70
     1
102
RTVSPropertyOp58
 70
     1
102
RTVSPropertyOp59
 70
     1
102
RTVSPropertyOp60
 70
     1
102
RTVSPropertyOp61
 70
     1
102
RTVSPropertyOp62
 70
     1
  0
XRECORD
  5
DE
102
{ACAD_REACTORS
330
DD
102
}
330
DD
100
AcDbXrecord
280
     1
102
RTVSPost2010Prop28
280
     0
102
RTVSPost2010PropOp28
 70
     1
102
RTVSPost2010Prop29
280
     1
102
RTVSPost2010PropOp29
 70
     1
102
RTVSPost2010Prop30
280
     1
102
RTVSPost2010PropOp30
 70
     1
102
RTVSPost2010Prop31
280
     0
102
RTVSPost2010PropOp31
 70
     1
102
RTVSPost2010Prop32
280
     0
102
RTVSPost2010PropOp32
 70
     1
102
RTVSPost2010Prop33
280
     0
102
RTVSPost2010PropOp33
 70
     1
102
RTVSPost2010Prop34
280
     0
102
RTVSPost2010PropOp34
 70
     1
102
RTVSPost2010Prop35
280
     0
102
RTVSPost2010PropOp35
 70
     1
102
RTVSPost2010Prop36
280
     0
102
RTVSPost2010PropOp36
 70
     1
102
RTVSPost2010Prop37
 90
       50
102
RTVSPost2010PropOp37
 70
     1
102
RTVSPost2010Prop38
140
0.0
102
RTVSPost2010PropOp38
 70
     1
102
RTVSPost2010Prop39
140
1.0
102
RTVSPost2010PropOp39
 70
     1
102
RTVSPost2010Prop40
 90
        0
102
RTVSPost2010PropOp40
 70
     1
102
RTVSPost2010Prop41ColorIndex
 90
       18
102
RTVSPost2010Prop41ColorRGB
 90
        0
102
RTVSPost2010PropOp41
 70
     1
102
RTVSPost2010Prop42
 90
       50
102
RTVSPost2010PropOp42
 70
     1
102
RTVSPost2010Prop43
 90
        3
102
RTVSPost2010PropOp43
 70
     1
102
RTVSPost2010Prop44ColorIndex
 90
        5
102
RTVSPost2010Prop44ColorRGB
 90
      255
102
RTVSPost2010PropOp44
 70
     1
102
RTVSPost2010Prop45
280
     0
102
RTVSPost2010PropOp45
 70
     1
102
RTVSPost2010Prop46
 90
       50
102
RTVSPost2010PropOp46
 70
     1
102
RTVSPost2010Prop47
 90
       50
102
RTVSPost2010PropOp47
 70
     1
102
RTVSPost2010Prop48
 90
       50
102
RTVSPost2010PropOp48
 70
     1
102
RTVSPost2010Prop49
280
     0
102
RTVSPost2010PropOp49
 70
     1
102
RTVSPost2010Prop50
 90
       50
102
RTVSPost2010PropOp50
 70
     1
102
RTVSPost2010Prop51ColorIndex
 90
      256
102
RTVSPost2010Prop51ColorRGB
 90
-16777216
102
RTVSPost2010PropOp51
 70
     0
102
RTVSPost2010Prop52
140
1.0
102
RTVSPost2010PropOp52
 70
     0
102
RTVSPost2010Prop53
 90
        2
102
RTVSPost2010PropOp53
 70
     1
102
RTVSPost2010Prop54
  1
strokes_ogs.tif
102
RTVSPost2010PropOp54
 70
     1
102
RTVSPost2010Prop55
280
     0
102
RTVSPost2010PropOp55
 70
     1
102
RTVSPost2010Prop56
140
1.0
102
RTVSPost2010PropOp56
 70
     1
102
RTVSPost2010Prop57
140
1.0
102
RTVSPost2010PropOp57
 70
     1
102
RTVSPropertyOp0
 70
     1
102
RTVSPropertyOp1
 70
     1
102
RTVSPropertyOp2
 70
     1
102
RTVSPropertyOp3
 70
     1
102
RTVSPropertyOp4
 70
     1
102
RTVSPropertyOp5
 70
     1
102
RTVSPropertyOp6
 70
     1
102
RTVSPropertyOp7
 70
     1
102
RTVSPropertyOp8
 70
     1
102
RTVSPropertyOp9
 70
     1
102
RTVSPropertyOp10
 70
     1
102
RTVSPropertyOp11
 70
     1
102
RTVSPropertyOp12
 70
     1
102
RTVSPropertyOp13
 70
     1
102
RTVSPropertyOp14
 70
     1
102
RTVSPropertyOp15
 70
     1
102
RTVSPropertyOp16
 70
     1
102
RTVSPropertyOp17
 70
     1
102
RTVSPropertyOp18
 70
     1
102
RTVSPropertyOp19
 70
     1
102
RTVSPropertyOp20
 70
     1
102
RTVSPropertyOp21
 70
     1
102
RTVSPropertyOp22
 70
     1
102
RTVSPropertyOp23
 70
     1
102
RTVSPropertyOp24
 70
     1
102
RTVSPropertyOp25
 70
     1
102
RTVSPropertyOp26
 70
     1
102
RTVSPropertyOp27
 70
     1
102
RTVSPropertyOp28
 70
     1
102
RTVSPropertyOp29
 70
     1
102
RTVSPropertyOp30
 70
     1
102
RTVSPropertyOp31
 70
     1
102
RTVSPropertyOp32
 70
     1
102
RTVSPropertyOp33
 70
     1
102
RTVSPropertyOp34
 70
     1
102
RTVSPropertyOp35
 70
     1
102
RTVSPropertyOp36
 70
     1
102
RTVSPropertyOp37
 70
     1
102
RTVSPropertyOp38
 70
     1
102
RTVSPropertyOp39
 70
     1
102
RTVSPropertyOp40
 70
     1
102
RTVSPropertyOp41
 70
     1
102
RTVSPropertyOp42
 70
     1
102
RTVSPropertyOp43
 70
     1
102
RTVSPropertyOp44
 70
     1
102
RTVSPropertyOp45
 70
     1
102
RTVSPropertyOp46
 70
     1
102
RTVSPropertyOp47
 70
     1
102
RTVSPropertyOp48
 70
     1
102
RTVSPropertyOp49
 70
     1
102
RTVSPropertyOp50
 70
     1
102
RTVSPropertyOp51
 70
     0
102
RTVSPropertyOp52
 70
     0
102
RTVSPropertyOp53
 70
     1
102
RTVSPropertyOp54
 70
     1
102
RTVSPropertyOp55
 70
     1
102
RTVSPropertyOp56
 70
     1
102
RTVSPropertyOp57
 70
     1
102
RTVSPropertyOp58
 70
     1
102
RTVSPropertyOp59
 70
     1
102
RTVSPropertyOp60
 70
     1
102
RTVSPropertyOp61
 70
     1
102
RTVSPropertyOp62
 70
     1
  0
XRECORD
  5
E0
102
{ACAD_REACTORS
330
DF
102
}
330
DF
100
AcDbXrecord
280
     1
102
RTVSPost2010Prop28
280
     0
102
RTVSPost2010PropOp28
 70
     1
102
RTVSPost2010Prop29
280
     1
102
RTVSPost2010PropOp29
 70
     1
102
RTVSPost2010Prop30
280
     1
102
RTVSPost2010PropOp30
 70
     1
102
RTVSPost2010Prop31
280
     0
102
RTVSPost2010PropOp31
 70
     1
102
RTVSPost2010Prop32
280
     0
102
RTVSPost2010PropOp32
 70
     1
102
RTVSPost2010Prop33
280
     0
102
RTVSPost2010PropOp33
 70
     1
102
RTVSPost2010Prop34
280
     0
102
RTVSPost2010PropOp34
 70
     1
102
RTVSPost2010Prop35
280
     0
102
RTVSPost2010PropOp35
 70
     1
102
RTVSPost2010Prop36
280
     0
102
RTVSPost2010PropOp36
 70
     1
102
RTVSPost2010Prop37
 90
       50
102
RTVSPost2010PropOp37
 70
     1
102
RTVSPost2010Prop38
140
0.0
102
RTVSPost2010PropOp38
 70
     1
102
RTVSPost2010Prop39
140
1.0
102
RTVSPost2010PropOp39
 70
     1
102
RTVSPost2010Prop40
 90
        0
102
RTVSPost2010PropOp40
 70
     1
102
RTVSPost2010Prop41ColorIndex
 90
       18
102
RTVSPost2010Prop41ColorRGB
 90
        0
102
RTVSPost2010PropOp41
 70
     1
102
RTVSPost2010Prop42
 90
       50
102
RTVSPost2010PropOp42
 70
     1
102
RTVSPost2010Prop43
 90
        3
102
RTVSPost2010PropOp43
 70
     1
102
RTVSPost2010Prop44ColorIndex
 90
        5
102
RTVSPost2010Prop44ColorRGB
 90
      255
102
RTVSPost2010PropOp44
 70
     1
102
RTVSPost2010Prop45
280
     0
102
RTVSPost2010PropOp45
 70
     1
102
RTVSPost2010Prop46
 90
       50
102
RTVSPost2010PropOp46
 70
     1
102
RTVSPost2010Prop47
 90
       50
102
RTVSPost2010PropOp47
 70
     1
102
RTVSPost2010Prop48
 90
       50
102
RTVSPost2010PropOp48
 70
     1
102
RTVSPost2010Prop49
280
     0
102
RTVSPost2010PropOp49
 70
     1
102
RTVSPost2010Prop50
 90
       50
102
RTVSPost2010PropOp50
 70
     1
102
RTVSPost2010Prop51ColorIndex
 90
      256
102
RTVSPost2010Prop51ColorRGB
 90
-16777216
102
RTVSPost2010PropOp51
 70
     0
102
RTVSPost2010Prop52
140
1.0
102
RTVSPost2010PropOp52
 70
     0
102
RTVSPost2010Prop53
 90
        2
102
RTVSPost2010PropOp53
 70
     1
102
RTVSPost2010Prop54
  1
strokes_ogs.tif
102
RTVSPost2010PropOp54
 70
     1
102
RTVSPost2010Prop55
280
     0
102
RTVSPost2010PropOp55
 70
     1
102
RTVSPost2010Prop56
140
1.0
102
RTVSPost2010PropOp56
 70
     1
102
RTVSPost2010Prop57
140
1.0
102
RTVSPost2010PropOp57
 70
     1
102
RTVSPropertyOp0
 70
     1
102
RTVSPropertyOp1
 70
     1
102
RTVSPropertyOp2
 70
     1
102
RTVSPropertyOp3
 70
     1
102
RTVSPropertyOp4
 70
     1
102
RTVSPropertyOp5
 70
     1
102
RTVSPropertyOp6
 70
     1
102
RTVSPropertyOp7
 70
     1
102
RTVSPropertyOp8
 70
     1
102
RTVSPropertyOp9
 70
     1
102
RTVSPropertyOp10
 70
     1
102
RTVSPropertyOp11
 70
     1
102
RTVSPropertyOp12
 70
     1
102
RTVSPropertyOp13
 70
     1
102
RTVSPropertyOp14
 70
     1
102
RTVSPropertyOp15
 70
     1
102
RTVSPropertyOp16
 70
     1
102
RTVSPropertyOp17
 70
     1
102
RTVSPropertyOp18
 70
     1
102
RTVSPropertyOp19
 70
     1
102
RTVSPropertyOp20
 70
     1
102
RTVSPropertyOp21
 70
     1
102
RTVSPropertyOp22
 70
     1
102
RTVSPropertyOp23
 70
     1
102
RTVSPropertyOp24
 70
     1
102
RTVSPropertyOp25
 70
     1
102
RTVSPropertyOp26
 70
     1
102
RTVSPropertyOp27
 70
     1
102
RTVSPropertyOp28
 70
     1
102
RTVSPropertyOp29
 70
     1
102
RTVSPropertyOp30
 70
     1
102
RTVSPropertyOp31
 70
     1
102
RTVSPropertyOp32
 70
     1
102
RTVSPropertyOp33
 70
     1
102
RTVSPropertyOp34
 70
     1
102
RTVSPropertyOp35
 70
     1
102
RTVSPropertyOp36
 70
     1
102
RTVSPropertyOp37
 70
     1
102
RTVSPropertyOp38
 70
     1
102
RTVSPropertyOp39
 70
     1
102
RTVSPropertyOp40
 70
     1
102
RTVSPropertyOp41
 70
     1
102
RTVSPropertyOp42
 70
     1
102
RTVSPropertyOp43
 70
     1
102
RTVSPropertyOp44
 70
     1
102
RTVSPropertyOp45
 70
     1
102
RTVSPropertyOp46
 70
     1
102
RTVSPropertyOp47
 70
     1
102
RTVSPropertyOp48
 70
     1
102
RTVSPropertyOp49
 70
     1
102
RTVSPropertyOp50
 70
     1
102
RTVSPropertyOp51
 70
     0
102
RTVSPropertyOp52
 70
     0
102
RTVSPropertyOp53
 70
     1
102
RTVSPropertyOp54
 70
     1
102
RTVSPropertyOp55
 70
     1
102
RTVSPropertyOp56
 70
     1
102
RTVSPropertyOp57
 70
     1
102
RTVSPropertyOp58
 70
     1
102
RTVSPropertyOp59
 70
     1
102
RTVSPropertyOp60
 70
     1
102
RTVSPropertyOp61
 70
     1
102
RTVSPropertyOp62
 70
     1
  0
XRECORD
  5
E2
102
{ACAD_REACTORS
330
E1
102
}
330
E1
100
AcDbXrecord
280
     1
102
RTVSPost2010Prop28
280
     0
102
RTVSPost2010PropOp28
 70
     1
102
RTVSPost2010Prop29
280
     1
102
RTVSPost2010PropOp29
 70
     1
102
RTVSPost2010Prop30
280
     1
102
RTVSPost2010PropOp30
 70
     1
102
RTVSPost2010Prop31
280
     0
102
RTVSPost2010PropOp31
 70
     1
102
RTVSPost2010Prop32
280
     0
102
RTVSPost2010PropOp32
 70
     1
102
RTVSPost2010Prop33
280
     0
102
RTVSPost2010PropOp33
 70
     1
102
RTVSPost2010Prop34
280
     0
102
RTVSPost2010PropOp34
 70
     1
102
RTVSPost2010Prop35
280
     0
102
RTVSPost2010PropOp35
 70
     1
102
RTVSPost2010Prop36
280
     0
102
RTVSPost2010PropOp36
 70
     1
102
RTVSPost2010Prop37
 90
       50
102
RTVSPost2010PropOp37
 70
     1
102
RTVSPost2010Prop38
140
0.0
102
RTVSPost2010PropOp38
 70
     1
102
RTVSPost2010Prop39
140
1.0
102
RTVSPost2010PropOp39
 70
     1
102
RTVSPost2010Prop40
 90
        0
102
RTVSPost2010PropOp40
 70
     1
102
RTVSPost2010Prop41ColorIndex
 90
       18
102
RTVSPost2010Prop41ColorRGB
 90
        0
102
RTVSPost2010PropOp41
 70
     1
102
RTVSPost2010Prop42
 90
       50
102
RTVSPost2010PropOp42
 70
     1
102
RTVSPost2010Prop43
 90
        3
102
RTVSPost2010PropOp43
 70
     1
102
RTVSPost2010Prop44ColorIndex
 90
        5
102
RTVSPost2010Prop44ColorRGB
 90
      255
102
RTVSPost2010PropOp44
 70
     1
102
RTVSPost2010Prop45
280
     0
102
RTVSPost2010PropOp45
 70
     1
102
RTVSPost2010Prop46
 90
       50
102
RTVSPost2010PropOp46
 70
     1
102
RTVSPost2010Prop47
 90
       50
102
RTVSPost2010PropOp47
 70
     1
102
RTVSPost2010Prop48
 90
       50
102
RTVSPost2010PropOp48
 70
     1
102
RTVSPost2010Prop49
280
     0
102
RTVSPost2010PropOp49
 70
     1
102
RTVSPost2010Prop50
 90
       50
102
RTVSPost2010PropOp50
 70
     1
102
RTVSPost2010Prop51ColorIndex
 90
      256
102
RTVSPost2010Prop51ColorRGB
 90
-16777216
102
RTVSPost2010PropOp51
 70
     0
102
RTVSPost2010Prop52
140
1.0
102
RTVSPost2010PropOp52
 70
     0
102
RTVSPost2010Prop53
 90
        2
102
RTVSPost2010PropOp53
 70
     1
102
RTVSPost2010Prop54
  1
strokes_ogs.tif
102
RTVSPost2010PropOp54
 70
     1
102
RTVSPost2010Prop55
280
     0
102
RTVSPost2010PropOp55
 70
     1
102
RTVSPost2010Prop56
140
1.0
102
RTVSPost2010PropOp56
 70
     1
102
RTVSPost2010Prop57
140
1.0
102
RTVSPost2010PropOp57
 70
     1
102
RTVSPropertyOp0
 70
     1
102
RTVSPropertyOp1
 70
     1
102
RTVSPropertyOp2
 70
     1
102
RTVSPropertyOp3
 70
     1
102
RTVSPropertyOp4
 70
     1
102
RTVSPropertyOp5
 70
     1
102
RTVSPropertyOp6
 70
     1
102
RTVSPropertyOp7
 70
     1
102
RTVSPropertyOp8
 70
     1
102
RTVSPropertyOp9
 70
     1
102
RTVSPropertyOp10
 70
     1
102
RTVSPropertyOp11
 70
     1
102
RTVSPropertyOp12
 70
     1
102
RTVSPropertyOp13
 70
     1
102
RTVSPropertyOp14
 70
     1
102
RTVSPropertyOp15
 70
     1
102
RTVSPropertyOp16
 70
     1
102
RTVSPropertyOp17
 70
     1
102
RTVSPropertyOp18
 70
     1
102
RTVSPropertyOp19
 70
     1
102
RTVSPropertyOp20
 70
     1
102
RTVSPropertyOp21
 70
     1
102
RTVSPropertyOp22
 70
     1
102
RTVSPropertyOp23
 70
     1
102
RTVSPropertyOp24
 70
     1
102
RTVSPropertyOp25
 70
     1
102
RTVSPropertyOp26
 70
     1
102
RTVSPropertyOp27
 70
     1
102
RTVSPropertyOp28
 70
     1
102
RTVSPropertyOp29
 70
     1
102
RTVSPropertyOp30
 70
     1
102
RTVSPropertyOp31
 70
     1
102
RTVSPropertyOp32
 70
     1
102
RTVSPropertyOp33
 70
     1
102
RTVSPropertyOp34
 70
     1
102
RTVSPropertyOp35
 70
     1
102
RTVSPropertyOp36
 70
     1
102
RTVSPropertyOp37
 70
     1
102
RTVSPropertyOp38
 70
     1
102
RTVSPropertyOp39
 70
     1
102
RTVSPropertyOp40
 70
     1
102
RTVSPropertyOp41
 70
     1
102
RTVSPropertyOp42
 70
     1
102
RTVSPropertyOp43
 70
     1
102
RTVSPropertyOp44
 70
     1
102
RTVSPropertyOp45
 70
     1
102
RTVSPropertyOp46
 70
     1
102
RTVSPropertyOp47
 70
     1
102
RTVSPropertyOp48
 70
     1
102
RTVSPropertyOp49
 70
     1
102
RTVSPropertyOp50
 70
     1
102
RTVSPropertyOp51
 70
     0
102
RTVSPropertyOp52
 70
     0
102
RTVSPropertyOp53
 70
     1
102
RTVSPropertyOp54
 70
     1
102
RTVSPropertyOp55
 70
     1
102
RTVSPropertyOp56
 70
     1
102
RTVSPropertyOp57
 70
     1
102
RTVSPropertyOp58
 70
     1
102
RTVSPropertyOp59
 70
     1
102
RTVSPropertyOp60
 70
     1
102
RTVSPropertyOp61
 70
     1
102
RTVSPropertyOp62
 70
     1
  0
XRECORD
  5
EA
102
{ACAD_REACTORS
330
E9
102
}
330
E9
100
AcDbXrecord
280
     1
102
RTVSPost2010Prop28
280
     0
102
RTVSPost2010PropOp28
 70
     1
102
RTVSPost2010Prop29
280
     1
102
RTVSPost2010PropOp29
 70
     1
102
RTVSPost2010Prop30
280
     1
102
RTVSPost2010PropOp30
 70
     1
102
RTVSPost2010Prop31
280
     0
102
RTVSPost2010PropOp31
 70
     1
102
RTVSPost2010Prop32
280
     0
102
RTVSPost2010PropOp32
 70
     1
102
RTVSPost2010Prop33
280
     0
102
RTVSPost2010PropOp33
 70
     1
102
RTVSPost2010Prop34
280
     0
102
RTVSPost2010PropOp34
 70
     1
102
RTVSPost2010Prop35
280
     0
102
RTVSPost2010PropOp35
 70
     1
102
RTVSPost2010Prop36
280
     0
102
RTVSPost2010PropOp36
 70
     1
102
RTVSPost2010Prop37
 90
       50
102
RTVSPost2010PropOp37
 70
     1
102
RTVSPost2010Prop38
140
0.0
102
RTVSPost2010PropOp38
 70
     1
102
RTVSPost2010Prop39
140
1.0
102
RTVSPost2010PropOp39
 70
     1
102
RTVSPost2010Prop40
 90
        0
102
RTVSPost2010PropOp40
 70
     1
102
RTVSPost2010Prop41ColorIndex
 90
       18
102
RTVSPost2010Prop41ColorRGB
 90
        0
102
RTVSPost2010PropOp41
 70
     1
102
RTVSPost2010Prop42
 90
       50
102
RTVSPost2010PropOp42
 70
     1
102
RTVSPost2010Prop43
 90
        3
102
RTVSPost2010PropOp43
 70
     1
102
RTVSPost2010Prop44ColorIndex
 90
        5
102
RTVSPost2010Prop44ColorRGB
 90
      255
102
RTVSPost2010PropOp44
 70
     1
102
RTVSPost2010Prop45
280
     0
102
RTVSPost2010PropOp45
 70
     1
102
RTVSPost2010Prop46
 90
       50
102
RTVSPost2010PropOp46
 70
     1
102
RTVSPost2010Prop47
 90
       50
102
RTVSPost2010PropOp47
 70
     1
102
RTVSPost2010Prop48
 90
       50
102
RTVSPost2010PropOp48
 70
     1
102
RTVSPost2010Prop49
280
     0
102
RTVSPost2010PropOp49
 70
     1
102
RTVSPost2010Prop50
 90
       50
102
RTVSPost2010PropOp50
 70
     1
102
RTVSPost2010Prop51ColorIndex
 90
      256
102
RTVSPost2010Prop51ColorRGB
 90
-16777216
102
RTVSPost2010PropOp51
 70
     0
102
RTVSPost2010Prop52
140
1.0
102
RTVSPost2010PropOp52
 70
     0
102
RTVSPost2010Prop53
 90
        2
102
RTVSPost2010PropOp53
 70
     1
102
RTVSPost2010Prop54
  1
strokes_ogs.tif
102
RTVSPost2010PropOp54
 70
     1
102
RTVSPost2010Prop55
280
     0
102
RTVSPost2010PropOp55
 70
     1
102
RTVSPost2010Prop56
140
1.0
102
RTVSPost2010PropOp56
 70
     1
102
RTVSPost2010Prop57
140
1.0
102
RTVSPost2010PropOp57
 70
     1
102
RTVSPropertyOp0
 70
     1
102
RTVSPropertyOp1
 70
     1
102
RTVSPropertyOp2
 70
     1
102
RTVSPropertyOp3
 70
     1
102
RTVSPropertyOp4
 70
     1
102
RTVSPropertyOp5
 70
     1
102
RTVSPropertyOp6
 70
     1
102
RTVSPropertyOp7
 70
     1
102
RTVSPropertyOp8
 70
     1
102
RTVSPropertyOp9
 70
     1
102
RTVSPropertyOp10
 70
     1
102
RTVSPropertyOp11
 70
     1
102
RTVSPropertyOp12
 70
     1
102
RTVSPropertyOp13
 70
     1
102
RTVSPropertyOp14
 70
     1
102
RTVSPropertyOp15
 70
     1
102
RTVSPropertyOp16
 70
     1
102
RTVSPropertyOp17
 70
     1
102
RTVSPropertyOp18
 70
     1
102
RTVSPropertyOp19
 70
     1
102
RTVSPropertyOp20
 70
     1
102
RTVSPropertyOp21
 70
     1
102
RTVSPropertyOp22
 70
     1
102
RTVSPropertyOp23
 70
     1
102
RTVSPropertyOp24
 70
     1
102
RTVSPropertyOp25
 70
     1
102
RTVSPropertyOp26
 70
     1
102
RTVSPropertyOp27
 70
     1
102
RTVSPropertyOp28
 70
     1
102
RTVSPropertyOp29
 70
     1
102
RTVSPropertyOp30
 70
     1
102
RTVSPropertyOp31
 70
     1
102
RTVSPropertyOp32
 70
     1
102
RTVSPropertyOp33
 70
     1
102
RTVSPropertyOp34
 70
     1
102
RTVSPropertyOp35
 70
     1
102
RTVSPropertyOp36
 70
     1
102
RTVSPropertyOp37
 70
     1
102
RTVSPropertyOp38
 70
     1
102
RTVSPropertyOp39
 70
     1
102
RTVSPropertyOp40
 70
     1
102
RTVSPropertyOp41
 70
     1
102
RTVSPropertyOp42
 70
     1
102
RTVSPropertyOp43
 70
     1
102
RTVSPropertyOp44
 70
     1
102
RTVSPropertyOp45
 70
     1
102
RTVSPropertyOp46
 70
     1
102
RTVSPropertyOp47
 70
     1
102
RTVSPropertyOp48
 70
     1
102
RTVSPropertyOp49
 70
     1
102
RTVSPropertyOp50
 70
     1
102
RTVSPropertyOp51
 70
     0
102
RTVSPropertyOp52
 70
     0
102
RTVSPropertyOp53
 70
     1
102
RTVSPropertyOp54
 70
     1
102
RTVSPropertyOp55
 70
     1
102
RTVSPropertyOp56
 70
     1
102
RTVSPropertyOp57
 70
     1
102
RTVSPropertyOp58
 70
     1
102
RTVSPropertyOp59
 70
     1
102
RTVSPropertyOp60
 70
     1
102
RTVSPropertyOp61
 70
     1
102
RTVSPropertyOp62
 70
     1
  0
XRECORD
  5
106
102
{ACAD_REACTORS
330
105
102
}
330
105
100
AcDbXrecord
280
     1
102
RTVSPost2010Prop28
280
     0
102
RTVSPost2010PropOp28
 70
     0
102
RTVSPost2010Prop29
280
     1
102
RTVSPost2010PropOp29
 70
     0
102
RTVSPost2010Prop30
280
     1
102
RTVSPost2010PropOp30
 70
     0
102
RTVSPost2010Prop31
280
     0
102
RTVSPost2010PropOp31
 70
     0
102
RTVSPost2010Prop32
280
     0
102
RTVSPost2010PropOp32
 70
     0
102
RTVSPost2010Prop33
280
     0
102
RTVSPost2010PropOp33
 70
     0
102
RTVSPost2010Prop34
280
     0
102
RTVSPost2010PropOp34
 70
     0
102
RTVSPost2010Prop35
280
     0
102
RTVSPost2010PropOp35
 70
     0
102
RTVSPost2010Prop36
280
     0
102
RTVSPost2010PropOp36
 70
     0
102
RTVSPost2010Prop37
 90
       50
102
RTVSPost2010PropOp37
 70
     0
102
RTVSPost2010Prop38
140
0.0
102
RTVSPost2010PropOp38
 70
     0
102
RTVSPost2010Prop39
140
1.0
102
RTVSPost2010PropOp39
 70
     0
102
RTVSPost2010Prop40
 90
        0
102
RTVSPost2010PropOp40
 70
     0
102
RTVSPost2010Prop41ColorIndex
 90
       18
102
RTVSPost2010Prop41ColorRGB
 90
        0
102
RTVSPost2010PropOp41
 70
     0
102
RTVSPost2010Prop42
 90
       50
102
RTVSPost2010PropOp42
 70
     0
102
RTVSPost2010Prop43
 90
        3
102
RTVSPost2010PropOp43
 70
     0
102
RTVSPost2010Prop44ColorIndex
 90
        5
102
RTVSPost2010Prop44ColorRGB
 90
      255
102
RTVSPost2010PropOp44
 70
     0
102
RTVSPost2010Prop45
280
     0
102
RTVSPost2010PropOp45
 70
     0
102
RTVSPost2010Prop46
 90
       50
102
RTVSPost2010PropOp46
 70
     0
102
RTVSPost2010Prop47
 90
       50
102
RTVSPost2010PropOp47
 70
     0
102
RTVSPost2010Prop48
 90
       50
102
RTVSPost2010PropOp48
 70
     0
102
RTVSPost2010Prop49
280
     0
102
RTVSPost2010PropOp49
 70
     0
102
RTVSPost2010Prop50
 90
       50
102
RTVSPost2010PropOp50
 70
     0
102
RTVSPost2010Prop51ColorIndex
 90
      256
102
RTVSPost2010Prop51ColorRGB
 90
-16777216
102
RTVSPost2010PropOp51
 70
     0
102
RTVSPost2010Prop52
140
1.0
102
RTVSPost2010PropOp52
 70
     0
102
RTVSPost2010Prop53
 90
        2
102
RTVSPost2010PropOp53
 70
     0
102
RTVSPost2010Prop54
  1
strokes_ogs.tif
102
RTVSPost2010PropOp54
 70
     0
102
RTVSPost2010Prop55
280
     0
102
RTVSPost2010PropOp55
 70
     0
102
RTVSPost2010Prop56
140
1.0
102
RTVSPost2010PropOp56
 70
     0
102
RTVSPost2010Prop57
140
1.0
102
RTVSPost2010PropOp57
 70
     0
102
RTVSPropertyOp0
 70
     0
102
RTVSPropertyOp1
 70
     0
102
RTVSPropertyOp2
 70
     0
102
RTVSPropertyOp3
 70
     0
102
RTVSPropertyOp4
 70
     0
102
RTVSPropertyOp5
 70
     0
102
RTVSPropertyOp6
 70
     0
102
RTVSPropertyOp7
 70
     0
102
RTVSPropertyOp8
 70
     0
102
RTVSPropertyOp9
 70
     0
102
RTVSPropertyOp10
 70
     0
102
RTVSPropertyOp11
 70
     0
102
RTVSPropertyOp12
 70
     0
102
RTVSPropertyOp13
 70
     0
102
RTVSPropertyOp14
 70
     2
102
RTVSPropertyOp15
 70
     0
102
RTVSPropertyOp16
 70
     0
102
RTVSPropertyOp17
 70
     0
102
RTVSPropertyOp18
 70
     0
102
RTVSPropertyOp19
 70
     0
102
RTVSPropertyOp20
 70
     0
102
RTVSPropertyOp21
 70
     0
102
RTVSPropertyOp22
 70
     0
102
RTVSPropertyOp23
 70
     0
102
RTVSPropertyOp24
 70
     0
102
RTVSPropertyOp25
 70
     0
102
RTVSPropertyOp26
 70
     0
102
RTVSPropertyOp27
 70
     0
102
RTVSPropertyOp28
 70
     0
102
RTVSPropertyOp29
 70
     0
102
RTVSPropertyOp30
 70
     0
102
RTVSPropertyOp31
 70
     0
102
RTVSPropertyOp32
 70
     0
102
RTVSPropertyOp33
 70
     0
102
RTVSPropertyOp34
 70
     0
102
RTVSPropertyOp35
 70
     0
102
RTVSPropertyOp36
 70
     0
102
RTVSPropertyOp37
 70
     0
102
RTVSPropertyOp38
 70
     0
102
RTVSPropertyOp39
 70
     0
102
RTVSPropertyOp40
 70
     0
102
RTVSPropertyOp41
 70
     0
102
RTVSPropertyOp42
 70
     0
102
RTVSPropertyOp43
 70
     0
102
RTVSPropertyOp44
 70
     0
102
RTVSPropertyOp45
 70
     0
102
RTVSPropertyOp46
 70
     0
102
RTVSPropertyOp47
 70
     0
102
RTVSPropertyOp48
 70
     0
102
RTVSPropertyOp49
 70
     0
102
RTVSPropertyOp50
 70
     0
102
RTVSPropertyOp51
 70
     0
102
RTVSPropertyOp52
 70
     0
102
RTVSPropertyOp53
 70
     0
102
RTVSPropertyOp54
 70
     0
102
RTVSPropertyOp55
 70
     0
102
RTVSPropertyOp56
 70
     0
102
RTVSPropertyOp57
 70
     0
102
RTVSPropertyOp58
 70
     0
102
RTVSPropertyOp59
 70
     0
102
RTVSPropertyOp60
 70
     0
102
RTVSPropertyOp61
 70
     0
102
RTVSPropertyOp62
 70
     0
  0
XRECORD
  5
F6
102
{ACAD_REACTORS
330
F5
102
}
330
F5
100
AcDbXrecord
280
     1
102
RTVSPost2010Prop28
280
     0
102
RTVSPost2010PropOp28
 70
     1
102
RTVSPost2010Prop29
280
     1
102
RTVSPost2010PropOp29
 70
     1
102
RTVSPost2010Prop30
280
     1
102
RTVSPost2010PropOp30
 70
     1
102
RTVSPost2010Prop31
280
     0
102
RTVSPost2010PropOp31
 70
     1
102
RTVSPost2010Prop32
280
     0
102
RTVSPost2010PropOp32
 70
     1
102
RTVSPost2010Prop33
280
     0
102
RTVSPost2010PropOp33
 70
     1
102
RTVSPost2010Prop34
280
     0
102
RTVSPost2010PropOp34
 70
     1
102
RTVSPost2010Prop35
280
     0
102
RTVSPost2010PropOp35
 70
     1
102
RTVSPost2010Prop36
280
     0
102
RTVSPost2010PropOp36
 70
     1
102
RTVSPost2010Prop37
 90
       50
102
RTVSPost2010PropOp37
 70
     1
102
RTVSPost2010Prop38
140
0.0
102
RTVSPost2010PropOp38
 70
     1
102
RTVSPost2010Prop39
140
1.0
102
RTVSPost2010PropOp39
 70
     1
102
RTVSPost2010Prop40
 90
        0
102
RTVSPost2010PropOp40
 70
     1
102
RTVSPost2010Prop41ColorIndex
 90
       18
102
RTVSPost2010Prop41ColorRGB
 90
        0
102
RTVSPost2010PropOp41
 70
     1
102
RTVSPost2010Prop42
 90
       50
102
RTVSPost2010PropOp42
 70
     1
102
RTVSPost2010Prop43
 90
        3
102
RTVSPost2010PropOp43
 70
     1
102
RTVSPost2010Prop44ColorIndex
 90
        5
102
RTVSPost2010Prop44ColorRGB
 90
      255
102
RTVSPost2010PropOp44
 70
     1
102
RTVSPost2010Prop45
280
     0
102
RTVSPost2010PropOp45
 70
     1
102
RTVSPost2010Prop46
 90
       50
102
RTVSPost2010PropOp46
 70
     1
102
RTVSPost2010Prop47
 90
       50
102
RTVSPost2010PropOp47
 70
     1
102
RTVSPost2010Prop48
 90
       50
102
RTVSPost2010PropOp48
 70
     1
102
RTVSPost2010Prop49
280
     0
102
RTVSPost2010PropOp49
 70
     1
102
RTVSPost2010Prop50
 90
       50
102
RTVSPost2010PropOp50
 70
     1
102
RTVSPost2010Prop51ColorIndex
 90
      256
102
RTVSPost2010Prop51ColorRGB
 90
-16777216
102
RTVSPost2010PropOp51
 70
     0
102
RTVSPost2010Prop52
140
1.0
102
RTVSPost2010PropOp52
 70
     0
102
RTVSPost2010Prop53
 90
        2
102
RTVSPost2010PropOp53
 70
     1
102
RTVSPost2010Prop54
  1
strokes_ogs.tif
102
RTVSPost2010PropOp54
 70
     1
102
RTVSPost2010Prop55
280
     0
102
RTVSPost2010PropOp55
 70
     1
102
RTVSPost2010Prop56
140
1.0
102
RTVSPost2010PropOp56
 70
     1
102
RTVSPost2010Prop57
140
1.0
102
RTVSPost2010PropOp57
 70
     1
102
RTVSPropertyOp0
 70
     1
102
RTVSPropertyOp1
 70
     1
102
RTVSPropertyOp2
 70
     1
102
RTVSPropertyOp3
 70
     1
102
RTVSPropertyOp4
 70
     1
102
RTVSPropertyOp5
 70
     1
102
RTVSPropertyOp6
 70
     1
102
RTVSPropertyOp7
 70
     1
102
RTVSPropertyOp8
 70
     1
102
RTVSPropertyOp9
 70
     1
102
RTVSPropertyOp10
 70
     1
102
RTVSPropertyOp11
 70
     1
102
RTVSPropertyOp12
 70
     1
102
RTVSPropertyOp13
 70
     1
102
RTVSPropertyOp14
 70
     1
102
RTVSPropertyOp15
 70
     1
102
RTVSPropertyOp16
 70
     1
102
RTVSPropertyOp17
 70
     1
102
RTVSPropertyOp18
 70
     1
102
RTVSPropertyOp19
 70
     1
102
RTVSPropertyOp20
 70
     1
102
RTVSPropertyOp21
 70
     1
102
RTVSPropertyOp22
 70
     1
102
RTVSPropertyOp23
 70
     1
102
RTVSPropertyOp24
 70
     1
102
RTVSPropertyOp25
 70
     1
102
RTVSPropertyOp26
 70
     1
102
RTVSPropertyOp27
 70
     1
102
RTVSPropertyOp28
 70
     1
102
RTVSPropertyOp29
 70
     1
102
RTVSPropertyOp30
 70
     1
102
RTVSPropertyOp31
 70
     1
102
RTVSPropertyOp32
 70
     1
102
RTVSPropertyOp33
 70
     1
102
RTVSPropertyOp34
 70
     1
102
RTVSPropertyOp35
 70
     1
102
RTVSPropertyOp36
 70
     1
102
RTVSPropertyOp37
 70
     1
102
RTVSPropertyOp38
 70
     1
102
RTVSPropertyOp39
 70
     1
102
RTVSPropertyOp40
 70
     1
102
RTVSPropertyOp41
 70
     1
102
RTVSPropertyOp42
 70
     1
102
RTVSPropertyOp43
 70
     1
102
RTVSPropertyOp44
 70
     1
102
RTVSPropertyOp45
 70
     1
102
RTVSPropertyOp46
 70
     1
102
RTVSPropertyOp47
 70
     1
102
RTVSPropertyOp48
 70
     1
102
RTVSPropertyOp49
 70
     1
102
RTVSPropertyOp50
 70
     1
102
RTVSPropertyOp51
 70
     0
102
RTVSPropertyOp52
 70
     0
102
RTVSPropertyOp53
 70
     1
102
RTVSPropertyOp54
 70
     1
102
RTVSPropertyOp55
 70
     1
102
RTVSPropertyOp56
 70
     1
102
RTVSPropertyOp57
 70
     1
102
RTVSPropertyOp58
 70
     1
102
RTVSPropertyOp59
 70
     1
102
RTVSPropertyOp60
 70
     1
102
RTVSPropertyOp61
 70
     1
102
RTVSPropertyOp62
 70
     1
  0
XRECORD
  5
108
102
{ACAD_REACTORS
330
107
102
}
330
107
100
AcDbXrecord
280
     1
102
RTVSPost2010Prop28
280
     0
102
RTVSPost2010PropOp28
 70
     0
102
RTVSPost2010Prop29
280
     1
102
RTVSPost2010PropOp29
 70
     0
102
RTVSPost2010Prop30
280
     1
102
RTVSPost2010PropOp30
 70
     0
102
RTVSPost2010Prop31
280
     0
102
RTVSPost2010PropOp31
 70
     0
102
RTVSPost2010Prop32
280
     0
102
RTVSPost2010PropOp32
 70
     0
102
RTVSPost2010Prop33
280
     0
102
RTVSPost2010PropOp33
 70
     0
102
RTVSPost2010Prop34
280
     0
102
RTVSPost2010PropOp34
 70
     0
102
RTVSPost2010Prop35
280
     0
102
RTVSPost2010PropOp35
 70
     0
102
RTVSPost2010Prop36
280
     0
102
RTVSPost2010PropOp36
 70
     0
102
RTVSPost2010Prop37
 90
       50
102
RTVSPost2010PropOp37
 70
     0
102
RTVSPost2010Prop38
140
0.0
102
RTVSPost2010PropOp38
 70
     0
102
RTVSPost2010Prop39
140
1.0
102
RTVSPost2010PropOp39
 70
     0
102
RTVSPost2010Prop40
 90
        0
102
RTVSPost2010PropOp40
 70
     0
102
RTVSPost2010Prop41ColorIndex
 90
       18
102
RTVSPost2010Prop41ColorRGB
 90
        0
102
RTVSPost2010PropOp41
 70
     0
102
RTVSPost2010Prop42
 90
       50
102
RTVSPost2010PropOp42
 70
     0
102
RTVSPost2010Prop43
 90
        3
102
RTVSPost2010PropOp43
 70
     0
102
RTVSPost2010Prop44ColorIndex
 90
        5
102
RTVSPost2010Prop44ColorRGB
 90
      255
102
RTVSPost2010PropOp44
 70
     0
102
RTVSPost2010Prop45
280
     0
102
RTVSPost2010PropOp45
 70
     0
102
RTVSPost2010Prop46
 90
       50
102
RTVSPost2010PropOp46
 70
     0
102
RTVSPost2010Prop47
 90
       50
102
RTVSPost2010PropOp47
 70
     0
102
RTVSPost2010Prop48
 90
       50
102
RTVSPost2010PropOp48
 70
     0
102
RTVSPost2010Prop49
280
     0
102
RTVSPost2010PropOp49
 70
     0
102
RTVSPost2010Prop50
 90
       50
102
RTVSPost2010PropOp50
 70
     0
102
RTVSPost2010Prop51ColorIndex
 90
      256
102
RTVSPost2010Prop51ColorRGB
 90
-16777216
102
RTVSPost2010PropOp51
 70
     0
102
RTVSPost2010Prop52
140
1.0
102
RTVSPost2010PropOp52
 70
     0
102
RTVSPost2010Prop53
 90
        2
102
RTVSPost2010PropOp53
 70
     0
102
RTVSPost2010Prop54
  1
strokes_ogs.tif
102
RTVSPost2010PropOp54
 70
     0
102
RTVSPost2010Prop55
280
     0
102
RTVSPost2010PropOp55
 70
     0
102
RTVSPost2010Prop56
140
1.0
102
RTVSPost2010PropOp56
 70
     0
102
RTVSPost2010Prop57
140
1.0
102
RTVSPost2010PropOp57
 70
     0
102
RTVSPropertyOp0
 70
     0
102
RTVSPropertyOp1
 70
     0
102
RTVSPropertyOp2
 70
     0
102
RTVSPropertyOp3
 70
     0
102
RTVSPropertyOp4
 70
     0
102
RTVSPropertyOp5
 70
     0
102
RTVSPropertyOp6
 70
     0
102
RTVSPropertyOp7
 70
     0
102
RTVSPropertyOp8
 70
     0
102
RTVSPropertyOp9
 70
     0
102
RTVSPropertyOp10
 70
     0
102
RTVSPropertyOp11
 70
     0
102
RTVSPropertyOp12
 70
     0
102
RTVSPropertyOp13
 70
     0
102
RTVSPropertyOp14
 70
     2
102
RTVSPropertyOp15
 70
     0
102
RTVSPropertyOp16
 70
     0
102
RTVSPropertyOp17
 70
     0
102
RTVSPropertyOp18
 70
     0
102
RTVSPropertyOp19
 70
     0
102
RTVSPropertyOp20
 70
     0
102
RTVSPropertyOp21
 70
     0
102
RTVSPropertyOp22
 70
     0
102
RTVSPropertyOp23
 70
     0
102
RTVSPropertyOp24
 70
     0
102
RTVSPropertyOp25
 70
     0
102
RTVSPropertyOp26
 70
     0
102
RTVSPropertyOp27
 70
     0
102
RTVSPropertyOp28
 70
     0
102
RTVSPropertyOp29
 70
     0
102
RTVSPropertyOp30
 70
     0
102
RTVSPropertyOp31
 70
     0
102
RTVSPropertyOp32
 70
     0
102
RTVSPropertyOp33
 70
     0
102
RTVSPropertyOp34
 70
     0
102
RTVSPropertyOp35
 70
     0
102
RTVSPropertyOp36
 70
     0
102
RTVSPropertyOp37
 70
     0
102
RTVSPropertyOp38
 70
     0
102
RTVSPropertyOp39
 70
     0
102
RTVSPropertyOp40
 70
     0
102
RTVSPropertyOp41
 70
     0
102
RTVSPropertyOp42
 70
     0
102
RTVSPropertyOp43
 70
     0
102
RTVSPropertyOp44
 70
     0
102
RTVSPropertyOp45
 70
     0
102
RTVSPropertyOp46
 70
     0
102
RTVSPropertyOp47
 70
     0
102
RTVSPropertyOp48
 70
     0
102
RTVSPropertyOp49
 70
     0
102
RTVSPropertyOp50
 70
     0
102
RTVSPropertyOp51
 70
     0
102
RTVSPropertyOp52
 70
     0
102
RTVSPropertyOp53
 70
     0
102
RTVSPropertyOp54
 70
     0
102
RTVSPropertyOp55
 70
     0
102
RTVSPropertyOp56
 70
     0
102
RTVSPropertyOp57
 70
     0
102
RTVSPropertyOp58
 70
     0
102
RTVSPropertyOp59
 70
     0
102
RTVSPropertyOp60
 70
     0
102
RTVSPropertyOp61
 70
     0
102
RTVSPropertyOp62
 70
     0
  0
XRECORD
  5
EE
102
{ACAD_REACTORS
330
ED
102
}
330
ED
100
AcDbXrecord
280
     1
102
RTVSPost2010Prop28
280
     0
102
RTVSPost2010PropOp28
 70
     1
102
RTVSPost2010Prop29
280
     1
102
RTVSPost2010PropOp29
 70
     1
102
RTVSPost2010Prop30
280
     1
102
RTVSPost2010PropOp30
 70
     1
102
RTVSPost2010Prop31
280
     0
102
RTVSPost2010PropOp31
 70
     1
102
RTVSPost2010Prop32
280
     0
102
RTVSPost2010PropOp32
 70
     1
102
RTVSPost2010Prop33
280
     0
102
RTVSPost2010PropOp33
 70
     1
102
RTVSPost2010Prop34
280
     0
102
RTVSPost2010PropOp34
 70
     1
102
RTVSPost2010Prop35
280
     0
102
RTVSPost2010PropOp35
 70
     1
102
RTVSPost2010Prop36
280
     0
102
RTVSPost2010PropOp36
 70
     1
102
RTVSPost2010Prop37
 90
       50
102
RTVSPost2010PropOp37
 70
     1
102
RTVSPost2010Prop38
140
0.0
102
RTVSPost2010PropOp38
 70
     1
102
RTVSPost2010Prop39
140
1.0
102
RTVSPost2010PropOp39
 70
     1
102
RTVSPost2010Prop40
 90
        0
102
RTVSPost2010PropOp40
 70
     1
102
RTVSPost2010Prop41ColorIndex
 90
       18
102
RTVSPost2010Prop41ColorRGB
 90
        0
102
RTVSPost2010PropOp41
 70
     1
102
RTVSPost2010Prop42
 90
       50
102
RTVSPost2010PropOp42
 70
     1
102
RTVSPost2010Prop43
 90
        3
102
RTVSPost2010PropOp43
 70
     1
102
RTVSPost2010Prop44ColorIndex
 90
        5
102
RTVSPost2010Prop44ColorRGB
 90
      255
102
RTVSPost2010PropOp44
 70
     1
102
RTVSPost2010Prop45
280
     0
102
RTVSPost2010PropOp45
 70
     1
102
RTVSPost2010Prop46
 90
       50
102
RTVSPost2010PropOp46
 70
     1
102
RTVSPost2010Prop47
 90
       50
102
RTVSPost2010PropOp47
 70
     1
102
RTVSPost2010Prop48
 90
       50
102
RTVSPost2010PropOp48
 70
     1
102
RTVSPost2010Prop49
280
     0
102
RTVSPost2010PropOp49
 70
     1
102
RTVSPost2010Prop50
 90
       50
102
RTVSPost2010PropOp50
 70
     1
102
RTVSPost2010Prop51ColorIndex
 90
      256
102
RTVSPost2010Prop51ColorRGB
 90
-16777216
102
RTVSPost2010PropOp51
 70
     0
102
RTVSPost2010Prop52
140
1.0
102
RTVSPost2010PropOp52
 70
     0
102
RTVSPost2010Prop53
 90
        2
102
RTVSPost2010PropOp53
 70
     1
102
RTVSPost2010Prop54
  1
strokes_ogs.tif
102
RTVSPost2010PropOp54
 70
     1
102
RTVSPost2010Prop55
280
     0
102
RTVSPost2010PropOp55
 70
     1
102
RTVSPost2010Prop56
140
1.0
102
RTVSPost2010PropOp56
 70
     1
102
RTVSPost2010Prop57
140
1.0
102
RTVSPost2010PropOp57
 70
     1
102
RTVSPropertyOp0
 70
     1
102
RTVSPropertyOp1
 70
     1
102
RTVSPropertyOp2
 70
     1
102
RTVSPropertyOp3
 70
     1
102
RTVSPropertyOp4
 70
     1
102
RTVSPropertyOp5
 70
     1
102
RTVSPropertyOp6
 70
     1
102
RTVSPropertyOp7
 70
     1
102
RTVSPropertyOp8
 70
     1
102
RTVSPropertyOp9
 70
     1
102
RTVSPropertyOp10
 70
     1
102
RTVSPropertyOp11
 70
     1
102
RTVSPropertyOp12
 70
     1
102
RTVSPropertyOp13
 70
     1
102
RTVSPropertyOp14
 70
     1
102
RTVSPropertyOp15
 70
     1
102
RTVSPropertyOp16
 70
     1
102
RTVSPropertyOp17
 70
     1
102
RTVSPropertyOp18
 70
     1
102
RTVSPropertyOp19
 70
     1
102
RTVSPropertyOp20
 70
     1
102
RTVSPropertyOp21
 70
     1
102
RTVSPropertyOp22
 70
     1
102
RTVSPropertyOp23
 70
     1
102
RTVSPropertyOp24
 70
     1
102
RTVSPropertyOp25
 70
     1
102
RTVSPropertyOp26
 70
     1
102
RTVSPropertyOp27
 70
     1
102
RTVSPropertyOp28
 70
     1
102
RTVSPropertyOp29
 70
     1
102
RTVSPropertyOp30
 70
     1
102
RTVSPropertyOp31
 70
     1
102
RTVSPropertyOp32
 70
     1
102
RTVSPropertyOp33
 70
     1
102
RTVSPropertyOp34
 70
     1
102
RTVSPropertyOp35
 70
     1
102
RTVSPropertyOp36
 70
     1
102
RTVSPropertyOp37
 70
     1
102
RTVSPropertyOp38
 70
     1
102
RTVSPropertyOp39
 70
     1
102
RTVSPropertyOp40
 70
     1
102
RTVSPropertyOp41
 70
     1
102
RTVSPropertyOp42
 70
     1
102
RTVSPropertyOp43
 70
     1
102
RTVSPropertyOp44
 70
     1
102
RTVSPropertyOp45
 70
     1
102
RTVSPropertyOp46
 70
     1
102
RTVSPropertyOp47
 70
     1
102
RTVSPropertyOp48
 70
     1
102
RTVSPropertyOp49
 70
     1
102
RTVSPropertyOp50
 70
     1
102
RTVSPropertyOp51
 70
     0
102
RTVSPropertyOp52
 70
     0
102
RTVSPropertyOp53
 70
     1
102
RTVSPropertyOp54
 70
     1
102
RTVSPropertyOp55
 70
     1
102
RTVSPropertyOp56
 70
     1
102
RTVSPropertyOp57
 70
     1
102
RTVSPropertyOp58
 70
     1
102
RTVSPropertyOp59
 70
     1
102
RTVSPropertyOp60
 70
     1
102
RTVSPropertyOp61
 70
     1
102
RTVSPropertyOp62
 70
     1
  0
XRECORD
  5
104
102
{ACAD_REACTORS
330
103
102
}
330
103
100
AcDbXrecord
280
     1
102
RTVSPost2010Prop28
280
     0
102
RTVSPost2010PropOp28
 70
     1
102
RTVSPost2010Prop29
280
     1
102
RTVSPost2010PropOp29
 70
     1
102
RTVSPost2010Prop30
280
     1
102
RTVSPost2010PropOp30
 70
     1
102
RTVSPost2010Prop31
280
     0
102
RTVSPost2010PropOp31
 70
     1
102
RTVSPost2010Prop32
280
     0
102
RTVSPost2010PropOp32
 70
     1
102
RTVSPost2010Prop33
280
     0
102
RTVSPost2010PropOp33
 70
     1
102
RTVSPost2010Prop34
280
     0
102
RTVSPost2010PropOp34
 70
     1
102
RTVSPost2010Prop35
280
     0
102
RTVSPost2010PropOp35
 70
     1
102
RTVSPost2010Prop36
280
     0
102
RTVSPost2010PropOp36
 70
     1
102
RTVSPost2010Prop37
 90
       50
102
RTVSPost2010PropOp37
 70
     1
102
RTVSPost2010Prop38
140
0.0
102
RTVSPost2010PropOp38
 70
     1
102
RTVSPost2010Prop39
140
1.0
102
RTVSPost2010PropOp39
 70
     1
102
RTVSPost2010Prop40
 90
        0
102
RTVSPost2010PropOp40
 70
     1
102
RTVSPost2010Prop41ColorIndex
 90
       18
102
RTVSPost2010Prop41ColorRGB
 90
        0
102
RTVSPost2010PropOp41
 70
     1
102
RTVSPost2010Prop42
 90
       50
102
RTVSPost2010PropOp42
 70
     1
102
RTVSPost2010Prop43
 90
        3
102
RTVSPost2010PropOp43
 70
     1
102
RTVSPost2010Prop44ColorIndex
 90
        5
102
RTVSPost2010Prop44ColorRGB
 90
      255
102
RTVSPost2010PropOp44
 70
     1
102
RTVSPost2010Prop45
280
     0
102
RTVSPost2010PropOp45
 70
     1
102
RTVSPost2010Prop46
 90
       50
102
RTVSPost2010PropOp46
 70
     1
102
RTVSPost2010Prop47
 90
       50
102
RTVSPost2010PropOp47
 70
     1
102
RTVSPost2010Prop48
 90
       50
102
RTVSPost2010PropOp48
 70
     1
102
RTVSPost2010Prop49
280
     0
102
RTVSPost2010PropOp49
 70
     1
102
RTVSPost2010Prop50
 90
       50
102
RTVSPost2010PropOp50
 70
     1
102
RTVSPost2010Prop51ColorIndex
 90
      256
102
RTVSPost2010Prop51ColorRGB
 90
-16777216
102
RTVSPost2010PropOp51
 70
     0
102
RTVSPost2010Prop52
140
1.0
102
RTVSPost2010PropOp52
 70
     0
102
RTVSPost2010Prop53
 90
        2
102
RTVSPost2010PropOp53
 70
     1
102
RTVSPost2010Prop54
  1
strokes_ogs.tif
102
RTVSPost2010PropOp54
 70
     1
102
RTVSPost2010Prop55
280
     0
102
RTVSPost2010PropOp55
 70
     1
102
RTVSPost2010Prop56
140
1.0
102
RTVSPost2010PropOp56
 70
     1
102
RTVSPost2010Prop57
140
1.0
102
RTVSPost2010PropOp57
 70
     1
102
RTVSPropertyOp0
 70
     1
102
RTVSPropertyOp1
 70
     1
102
RTVSPropertyOp2
 70
     1
102
RTVSPropertyOp3
 70
     1
102
RTVSPropertyOp4
 70
     1
102
RTVSPropertyOp5
 70
     1
102
RTVSPropertyOp6
 70
     1
102
RTVSPropertyOp7
 70
     1
102
RTVSPropertyOp8
 70
     1
102
RTVSPropertyOp9
 70
     1
102
RTVSPropertyOp10
 70
     1
102
RTVSPropertyOp11
 70
     1
102
RTVSPropertyOp12
 70
     1
102
RTVSPropertyOp13
 70
     1
102
RTVSPropertyOp14
 70
     1
102
RTVSPropertyOp15
 70
     1
102
RTVSPropertyOp16
 70
     1
102
RTVSPropertyOp17
 70
     1
102
RTVSPropertyOp18
 70
     1
102
RTVSPropertyOp19
 70
     1
102
RTVSPropertyOp20
 70
     1
102
RTVSPropertyOp21
 70
     1
102
RTVSPropertyOp22
 70
     1
102
RTVSPropertyOp23
 70
     1
102
RTVSPropertyOp24
 70
     1
102
RTVSPropertyOp25
 70
     1
102
RTVSPropertyOp26
 70
     1
102
RTVSPropertyOp27
 70
     1
102
RTVSPropertyOp28
 70
     1
102
RTVSPropertyOp29
 70
     1
102
RTVSPropertyOp30
 70
     1
102
RTVSPropertyOp31
 70
     1
102
RTVSPropertyOp32
 70
     1
102
RTVSPropertyOp33
 70
     1
102
RTVSPropertyOp34
 70
     1
102
RTVSPropertyOp35
 70
     1
102
RTVSPropertyOp36
 70
     1
102
RTVSPropertyOp37
 70
     1
102
RTVSPropertyOp38
 70
     1
102
RTVSPropertyOp39
 70
     1
102
RTVSPropertyOp40
 70
     1
102
RTVSPropertyOp41
 70
     1
102
RTVSPropertyOp42
 70
     1
102
RTVSPropertyOp43
 70
     1
102
RTVSPropertyOp44
 70
     1
102
RTVSPropertyOp45
 70
     1
102
RTVSPropertyOp46
 70
     1
102
RTVSPropertyOp47
 70
     1
102
RTVSPropertyOp48
 70
     1
102
RTVSPropertyOp49
 70
     1
102
RTVSPropertyOp50
 70
     1
102
RTVSPropertyOp51
 70
     0
102
RTVSPropertyOp52
 70
     0
102
RTVSPropertyOp53
 70
     1
102
RTVSPropertyOp54
 70
     1
102
RTVSPropertyOp55
 70
     1
102
RTVSPropertyOp56
 70
     1
102
RTVSPropertyOp57
 70
     1
102
RTVSPropertyOp58
 70
     1
102
RTVSPropertyOp59
 70
     1
102
RTVSPropertyOp60
 70
     1
102
RTVSPropertyOp61
 70
     1
102
RTVSPropertyOp62
 70
     1
  0
XRECORD
  5
102
102
{ACAD_REACTORS
330
101
102
}
330
101
100
AcDbXrecord
280
     1
102
RTVSPost2010Prop28
280
     0
102
RTVSPost2010PropOp28
 70
     1
102
RTVSPost2010Prop29
280
     1
102
RTVSPost2010PropOp29
 70
     1
102
RTVSPost2010Prop30
280
     1
102
RTVSPost2010PropOp30
 70
     1
102
RTVSPost2010Prop31
280
     0
102
RTVSPost2010PropOp31
 70
     1
102
RTVSPost2010Prop32
280
     0
102
RTVSPost2010PropOp32
 70
     1
102
RTVSPost2010Prop33
280
     0
102
RTVSPost2010PropOp33
 70
     1
102
RTVSPost2010Prop34
280
     0
102
RTVSPost2010PropOp34
 70
     1
102
RTVSPost2010Prop35
280
     0
102
RTVSPost2010PropOp35
 70
     1
102
RTVSPost2010Prop36
280
     0
102
RTVSPost2010PropOp36
 70
     1
102
RTVSPost2010Prop37
 90
       50
102
RTVSPost2010PropOp37
 70
     1
102
RTVSPost2010Prop38
140
0.0
102
RTVSPost2010PropOp38
 70
     1
102
RTVSPost2010Prop39
140
1.0
102
RTVSPost2010PropOp39
 70
     1
102
RTVSPost2010Prop40
 90
        0
102
RTVSPost2010PropOp40
 70
     1
102
RTVSPost2010Prop41ColorIndex
 90
       18
102
RTVSPost2010Prop41ColorRGB
 90
        0
102
RTVSPost2010PropOp41
 70
     1
102
RTVSPost2010Prop42
 90
       50
102
RTVSPost2010PropOp42
 70
     1
102
RTVSPost2010Prop43
 90
        3
102
RTVSPost2010PropOp43
 70
     1
102
RTVSPost2010Prop44ColorIndex
 90
        5
102
RTVSPost2010Prop44ColorRGB
 90
      255
102
RTVSPost2010PropOp44
 70
     1
102
RTVSPost2010Prop45
280
     0
102
RTVSPost2010PropOp45
 70
     1
102
RTVSPost2010Prop46
 90
       50
102
RTVSPost2010PropOp46
 70
     1
102
RTVSPost2010Prop47
 90
       50
102
RTVSPost2010PropOp47
 70
     1
102
RTVSPost2010Prop48
 90
       50
102
RTVSPost2010PropOp48
 70
     1
102
RTVSPost2010Prop49
280
     0
102
RTVSPost2010PropOp49
 70
     1
102
RTVSPost2010Prop50
 90
       50
102
RTVSPost2010PropOp50
 70
     1
102
RTVSPost2010Prop51ColorIndex
 90
      256
102
RTVSPost2010Prop51ColorRGB
 90
-16777216
102
RTVSPost2010PropOp51
 70
     0
102
RTVSPost2010Prop52
140
1.0
102
RTVSPost2010PropOp52
 70
     0
102
RTVSPost2010Prop53
 90
        2
102
RTVSPost2010PropOp53
 70
     1
102
RTVSPost2010Prop54
  1
strokes_ogs.tif
102
RTVSPost2010PropOp54
 70
     1
102
RTVSPost2010Prop55
280
     0
102
RTVSPost2010PropOp55
 70
     1
102
RTVSPost2010Prop56
140
1.0
102
RTVSPost2010PropOp56
 70
     1
102
RTVSPost2010Prop57
140
1.0
102
RTVSPost2010PropOp57
 70
     1
102
RTVSPropertyOp0
 70
     1
102
RTVSPropertyOp1
 70
     1
102
RTVSPropertyOp2
 70
     1
102
RTVSPropertyOp3
 70
     1
102
RTVSPropertyOp4
 70
     1
102
RTVSPropertyOp5
 70
     1
102
RTVSPropertyOp6
 70
     1
102
RTVSPropertyOp7
 70
     1
102
RTVSPropertyOp8
 70
     1
102
RTVSPropertyOp9
 70
     1
102
RTVSPropertyOp10
 70
     1
102
RTVSPropertyOp11
 70
     1
102
RTVSPropertyOp12
 70
     1
102
RTVSPropertyOp13
 70
     1
102
RTVSPropertyOp14
 70
     1
102
RTVSPropertyOp15
 70
     1
102
RTVSPropertyOp16
 70
     1
102
RTVSPropertyOp17
 70
     1
102
RTVSPropertyOp18
 70
     1
102
RTVSPropertyOp19
 70
     1
102
RTVSPropertyOp20
 70
     1
102
RTVSPropertyOp21
 70
     1
102
RTVSPropertyOp22
 70
     1
102
RTVSPropertyOp23
 70
     1
102
RTVSPropertyOp24
 70
     1
102
RTVSPropertyOp25
 70
     1
102
RTVSPropertyOp26
 70
     1
102
RTVSPropertyOp27
 70
     1
102
RTVSPropertyOp28
 70
     1
102
RTVSPropertyOp29
 70
     1
102
RTVSPropertyOp30
 70
     1
102
RTVSPropertyOp31
 70
     1
102
RTVSPropertyOp32
 70
     1
102
RTVSPropertyOp33
 70
     1
102
RTVSPropertyOp34
 70
     1
102
RTVSPropertyOp35
 70
     1
102
RTVSPropertyOp36
 70
     1
102
RTVSPropertyOp37
 70
     1
102
RTVSPropertyOp38
 70
     1
102
RTVSPropertyOp39
 70
     1
102
RTVSPropertyOp40
 70
     1
102
RTVSPropertyOp41
 70
     1
102
RTVSPropertyOp42
 70
     1
102
RTVSPropertyOp43
 70
     1
102
RTVSPropertyOp44
 70
     1
102
RTVSPropertyOp45
 70
     1
102
RTVSPropertyOp46
 70
     1
102
RTVSPropertyOp47
 70
     1
102
RTVSPropertyOp48
 70
     1
102
RTVSPropertyOp49
 70
     1
102
RTVSPropertyOp50
 70
     1
102
RTVSPropertyOp51
 70
     0
102
RTVSPropertyOp52
 70
     0
102
RTVSPropertyOp53
 70
     1
102
RTVSPropertyOp54
 70
     1
102
RTVSPropertyOp55
 70
     1
102
RTVSPropertyOp56
 70
     1
102
RTVSPropertyOp57
 70
     1
102
RTVSPropertyOp58
 70
     1
102
RTVSPropertyOp59
 70
     1
102
RTVSPropertyOp60
 70
     1
102
RTVSPropertyOp61
 70
     1
102
RTVSPropertyOp62
 70
     1
  0
XRECORD
  5
FC
102
{ACAD_REACTORS
330
FB
102
}
330
FB
100
AcDbXrecord
280
     1
102
RTVSPost2010Prop28
280
     0
102
RTVSPost2010PropOp28
 70
     1
102
RTVSPost2010Prop29
280
     1
102
RTVSPost2010PropOp29
 70
     1
102
RTVSPost2010Prop30
280
     1
102
RTVSPost2010PropOp30
 70
     1
102
RTVSPost2010Prop31
280
     0
102
RTVSPost2010PropOp31
 70
     1
102
RTVSPost2010Prop32
280
     0
102
RTVSPost2010PropOp32
 70
     1
102
RTVSPost2010Prop33
280
     0
102
RTVSPost2010PropOp33
 70
     1
102
RTVSPost2010Prop34
280
     0
102
RTVSPost2010PropOp34
 70
     1
102
RTVSPost2010Prop35
280
     0
102
RTVSPost2010PropOp35
 70
     1
102
RTVSPost2010Prop36
280
     0
102
RTVSPost2010PropOp36
 70
     1
102
RTVSPost2010Prop37
 90
       50
102
RTVSPost2010PropOp37
 70
     1
102
RTVSPost2010Prop38
140
0.0
102
RTVSPost2010PropOp38
 70
     1
102
RTVSPost2010Prop39
140
1.0
102
RTVSPost2010PropOp39
 70
     1
102
RTVSPost2010Prop40
 90
        0
102
RTVSPost2010PropOp40
 70
     1
102
RTVSPost2010Prop41ColorIndex
 90
       18
102
RTVSPost2010Prop41ColorRGB
 90
        0
102
RTVSPost2010PropOp41
 70
     1
102
RTVSPost2010Prop42
 90
       50
102
RTVSPost2010PropOp42
 70
     1
102
RTVSPost2010Prop43
 90
        3
102
RTVSPost2010PropOp43
 70
     1
102
RTVSPost2010Prop44ColorIndex
 90
        5
102
RTVSPost2010Prop44ColorRGB
 90
      255
102
RTVSPost2010PropOp44
 70
     1
102
RTVSPost2010Prop45
280
     0
102
RTVSPost2010PropOp45
 70
     1
102
RTVSPost2010Prop46
 90
       50
102
RTVSPost2010PropOp46
 70
     1
102
RTVSPost2010Prop47
 90
       50
102
RTVSPost2010PropOp47
 70
     1
102
RTVSPost2010Prop48
 90
       50
102
RTVSPost2010PropOp48
 70
     1
102
RTVSPost2010Prop49
280
     0
102
RTVSPost2010PropOp49
 70
     1
102
RTVSPost2010Prop50
 90
       50
102
RTVSPost2010PropOp50
 70
     1
102
RTVSPost2010Prop51ColorIndex
 90
      256
102
RTVSPost2010Prop51ColorRGB
 90
-16777216
102
RTVSPost2010PropOp51
 70
     0
102
RTVSPost2010Prop52
140
1.0
102
RTVSPost2010PropOp52
 70
     0
102
RTVSPost2010Prop53
 90
        2
102
RTVSPost2010PropOp53
 70
     1
102
RTVSPost2010Prop54
  1
strokes_ogs.tif
102
RTVSPost2010PropOp54
 70
     1
102
RTVSPost2010Prop55
280
     0
102
RTVSPost2010PropOp55
 70
     1
102
RTVSPost2010Prop56
140
1.0
102
RTVSPost2010PropOp56
 70
     1
102
RTVSPost2010Prop57
140
1.0
102
RTVSPost2010PropOp57
 70
     1
102
RTVSPropertyOp0
 70
     1
102
RTVSPropertyOp1
 70
     1
102
RTVSPropertyOp2
 70
     1
102
RTVSPropertyOp3
 70
     1
102
RTVSPropertyOp4
 70
     1
102
RTVSPropertyOp5
 70
     1
102
RTVSPropertyOp6
 70
     1
102
RTVSPropertyOp7
 70
     1
102
RTVSPropertyOp8
 70
     1
102
RTVSPropertyOp9
 70
     1
102
RTVSPropertyOp10
 70
     1
102
RTVSPropertyOp11
 70
     1
102
RTVSPropertyOp12
 70
     1
102
RTVSPropertyOp13
 70
     1
102
RTVSPropertyOp14
 70
     1
102
RTVSPropertyOp15
 70
     1
102
RTVSPropertyOp16
 70
     1
102
RTVSPropertyOp17
 70
     1
102
RTVSPropertyOp18
 70
     1
102
RTVSPropertyOp19
 70
     1
102
RTVSPropertyOp20
 70
     1
102
RTVSPropertyOp21
 70
     1
102
RTVSPropertyOp22
 70
     1
102
RTVSPropertyOp23
 70
     1
102
RTVSPropertyOp24
 70
     1
102
RTVSPropertyOp25
 70
     1
102
RTVSPropertyOp26
 70
     1
102
RTVSPropertyOp27
 70
     1
102
RTVSPropertyOp28
 70
     1
102
RTVSPropertyOp29
 70
     1
102
RTVSPropertyOp30
 70
     1
102
RTVSPropertyOp31
 70
     1
102
RTVSPropertyOp32
 70
     1
102
RTVSPropertyOp33
 70
     1
102
RTVSPropertyOp34
 70
     1
102
RTVSPropertyOp35
 70
     1
102
RTVSPropertyOp36
 70
     1
102
RTVSPropertyOp37
 70
     1
102
RTVSPropertyOp38
 70
     1
102
RTVSPropertyOp39
 70
     1
102
RTVSPropertyOp40
 70
     1
102
RTVSPropertyOp41
 70
     1
102
RTVSPropertyOp42
 70
     1
102
RTVSPropertyOp43
 70
     1
102
RTVSPropertyOp44
 70
     1
102
RTVSPropertyOp45
 70
     1
102
RTVSPropertyOp46
 70
     1
102
RTVSPropertyOp47
 70
     1
102
RTVSPropertyOp48
 70
     1
102
RTVSPropertyOp49
 70
     1
102
RTVSPropertyOp50
 70
     1
102
RTVSPropertyOp51
 70
     0
102
RTVSPropertyOp52
 70
     0
102
RTVSPropertyOp53
 70
     1
102
RTVSPropertyOp54
 70
     1
102
RTVSPropertyOp55
 70
     1
102
RTVSPropertyOp56
 70
     1
102
RTVSPropertyOp57
 70
     1
102
RTVSPropertyOp58
 70
     1
102
RTVSPropertyOp59
 70
     1
102
RTVSPropertyOp60
 70
     1
102
RTVSPropertyOp61
 70
     1
102
RTVSPropertyOp62
 70
     1
  0
XRECORD
  5
FE
102
{ACAD_REACTORS
330
FD
102
}
330
FD
100
AcDbXrecord
280
     1
102
RTVSPost2010Prop28
280
     0
102
RTVSPost2010PropOp28
 70
     1
102
RTVSPost2010Prop29
280
     1
102
RTVSPost2010PropOp29
 70
     1
102
RTVSPost2010Prop30
280
     1
102
RTVSPost2010PropOp30
 70
     1
102
RTVSPost2010Prop31
280
     0
102
RTVSPost2010PropOp31
 70
     1
102
RTVSPost2010Prop32
280
     0
102
RTVSPost2010PropOp32
 70
     1
102
RTVSPost2010Prop33
280
     0
102
RTVSPost2010PropOp33
 70
     1
102
RTVSPost2010Prop34
280
     0
102
RTVSPost2010PropOp34
 70
     1
102
RTVSPost2010Prop35
280
     0
102
RTVSPost2010PropOp35
 70
     1
102
RTVSPost2010Prop36
280
     0
102
RTVSPost2010PropOp36
 70
     1
102
RTVSPost2010Prop37
 90
       50
102
RTVSPost2010PropOp37
 70
     1
102
RTVSPost2010Prop38
140
0.0
102
RTVSPost2010PropOp38
 70
     1
102
RTVSPost2010Prop39
140
1.0
102
RTVSPost2010PropOp39
 70
     1
102
RTVSPost2010Prop40
 90
        0
102
RTVSPost2010PropOp40
 70
     1
102
RTVSPost2010Prop41ColorIndex
 90
       18
102
RTVSPost2010Prop41ColorRGB
 90
        0
102
RTVSPost2010PropOp41
 70
     1
102
RTVSPost2010Prop42
 90
       50
102
RTVSPost2010PropOp42
 70
     1
102
RTVSPost2010Prop43
 90
        3
102
RTVSPost2010PropOp43
 70
     1
102
RTVSPost2010Prop44ColorIndex
 90
        5
102
RTVSPost2010Prop44ColorRGB
 90
      255
102
RTVSPost2010PropOp44
 70
     1
102
RTVSPost2010Prop45
280
     0
102
RTVSPost2010PropOp45
 70
     1
102
RTVSPost2010Prop46
 90
       50
102
RTVSPost2010PropOp46
 70
     1
102
RTVSPost2010Prop47
 90
       50
102
RTVSPost2010PropOp47
 70
     1
102
RTVSPost2010Prop48
 90
       50
102
RTVSPost2010PropOp48
 70
     1
102
RTVSPost2010Prop49
280
     0
102
RTVSPost2010PropOp49
 70
     1
102
RTVSPost2010Prop50
 90
       50
102
RTVSPost2010PropOp50
 70
     1
102
RTVSPost2010Prop51ColorIndex
 90
      256
102
RTVSPost2010Prop51ColorRGB
 90
-16777216
102
RTVSPost2010PropOp51
 70
     0
102
RTVSPost2010Prop52
140
1.0
102
RTVSPost2010PropOp52
 70
     0
102
RTVSPost2010Prop53
 90
        2
102
RTVSPost2010PropOp53
 70
     1
102
RTVSPost2010Prop54
  1
strokes_ogs.tif
102
RTVSPost2010PropOp54
 70
     1
102
RTVSPost2010Prop55
280
     0
102
RTVSPost2010PropOp55
 70
     1
102
RTVSPost2010Prop56
140
1.0
102
RTVSPost2010PropOp56
 70
     1
102
RTVSPost2010Prop57
140
1.0
102
RTVSPost2010PropOp57
 70
     1
102
RTVSPropertyOp0
 70
     1
102
RTVSPropertyOp1
 70
     1
102
RTVSPropertyOp2
 70
     1
102
RTVSPropertyOp3
 70
     1
102
RTVSPropertyOp4
 70
     1
102
RTVSPropertyOp5
 70
     1
102
RTVSPropertyOp6
 70
     1
102
RTVSPropertyOp7
 70
     1
102
RTVSPropertyOp8
 70
     1
102
RTVSPropertyOp9
 70
     1
102
RTVSPropertyOp10
 70
     1
102
RTVSPropertyOp11
 70
     1
102
RTVSPropertyOp12
 70
     1
102
RTVSPropertyOp13
 70
     1
102
RTVSPropertyOp14
 70
     1
102
RTVSPropertyOp15
 70
     1
102
RTVSPropertyOp16
 70
     1
102
RTVSPropertyOp17
 70
     1
102
RTVSPropertyOp18
 70
     1
102
RTVSPropertyOp19
 70
     1
102
RTVSPropertyOp20
 70
     1
102
RTVSPropertyOp21
 70
     1
102
RTVSPropertyOp22
 70
     1
102
RTVSPropertyOp23
 70
     1
102
RTVSPropertyOp24
 70
     1
102
RTVSPropertyOp25
 70
     1
102
RTVSPropertyOp26
 70
     1
102
RTVSPropertyOp27
 70
     1
102
RTVSPropertyOp28
 70
     1
102
RTVSPropertyOp29
 70
     1
102
RTVSPropertyOp30
 70
     1
102
RTVSPropertyOp31
 70
     1
102
RTVSPropertyOp32
 70
     1
102
RTVSPropertyOp33
 70
     1
102
RTVSPropertyOp34
 70
     1
102
RTVSPropertyOp35
 70
     1
102
RTVSPropertyOp36
 70
     1
102
RTVSPropertyOp37
 70
     1
102
RTVSPropertyOp38
 70
     1
102
RTVSPropertyOp39
 70
     1
102
RTVSPropertyOp40
 70
     1
102
RTVSPropertyOp41
 70
     1
102
RTVSPropertyOp42
 70
     1
102
RTVSPropertyOp43
 70
     1
102
RTVSPropertyOp44
 70
     1
102
RTVSPropertyOp45
 70
     1
102
RTVSPropertyOp46
 70
     1
102
RTVSPropertyOp47
 70
     1
102
RTVSPropertyOp48
 70
     1
102
RTVSPropertyOp49
 70
     1
102
RTVSPropertyOp50
 70
     1
102
RTVSPropertyOp51
 70
     0
102
RTVSPropertyOp52
 70
     0
102
RTVSPropertyOp53
 70
     1
102
RTVSPropertyOp54
 70
     1
102
RTVSPropertyOp55
 70
     1
102
RTVSPropertyOp56
 70
     1
102
RTVSPropertyOp57
 70
     1
102
RTVSPropertyOp58
 70
     1
102
RTVSPropertyOp59
 70
     1
102
RTVSPropertyOp60
 70
     1
102
RTVSPropertyOp61
 70
     1
102
RTVSPropertyOp62
 70
     1
  0
XRECORD
  5
F4
102
{ACAD_REACTORS
330
F3
102
}
330
F3
100
AcDbXrecord
280
     1
102
RTVSPost2010Prop28
280
     0
102
RTVSPost2010PropOp28
 70
     1
102
RTVSPost2010Prop29
280
     1
102
RTVSPost2010PropOp29
 70
     1
102
RTVSPost2010Prop30
280
     1
102
RTVSPost2010PropOp30
 70
     1
102
RTVSPost2010Prop31
280
     0
102
RTVSPost2010PropOp31
 70
     1
102
RTVSPost2010Prop32
280
     0
102
RTVSPost2010PropOp32
 70
     1
102
RTVSPost2010Prop33
280
     0
102
RTVSPost2010PropOp33
 70
     1
102
RTVSPost2010Prop34
280
     0
102
RTVSPost2010PropOp34
 70
     1
102
RTVSPost2010Prop35
280
     0
102
RTVSPost2010PropOp35
 70
     1
102
RTVSPost2010Prop36
280
     0
102
RTVSPost2010PropOp36
 70
     1
102
RTVSPost2010Prop37
 90
       50
102
RTVSPost2010PropOp37
 70
     1
102
RTVSPost2010Prop38
140
0.0
102
RTVSPost2010PropOp38
 70
     1
102
RTVSPost2010Prop39
140
1.0
102
RTVSPost2010PropOp39
 70
     1
102
RTVSPost2010Prop40
 90
        0
102
RTVSPost2010PropOp40
 70
     1
102
RTVSPost2010Prop41ColorIndex
 90
       18
102
RTVSPost2010Prop41ColorRGB
 90
        0
102
RTVSPost2010PropOp41
 70
     1
102
RTVSPost2010Prop42
 90
       50
102
RTVSPost2010PropOp42
 70
     1
102
RTVSPost2010Prop43
 90
        3
102
RTVSPost2010PropOp43
 70
     1
102
RTVSPost2010Prop44ColorIndex
 90
        5
102
RTVSPost2010Prop44ColorRGB
 90
      255
102
RTVSPost2010PropOp44
 70
     1
102
RTVSPost2010Prop45
280
     0
102
RTVSPost2010PropOp45
 70
     1
102
RTVSPost2010Prop46
 90
       50
102
RTVSPost2010PropOp46
 70
     1
102
RTVSPost2010Prop47
 90
       50
102
RTVSPost2010PropOp47
 70
     1
102
RTVSPost2010Prop48
 90
       50
102
RTVSPost2010PropOp48
 70
     1
102
RTVSPost2010Prop49
280
     0
102
RTVSPost2010PropOp49
 70
     1
102
RTVSPost2010Prop50
 90
       50
102
RTVSPost2010PropOp50
 70
     1
102
RTVSPost2010Prop51ColorIndex
 90
      256
102
RTVSPost2010Prop51ColorRGB
 90
-16777216
102
RTVSPost2010PropOp51
 70
     0
102
RTVSPost2010Prop52
140
1.0
102
RTVSPost2010PropOp52
 70
     0
102
RTVSPost2010Prop53
 90
        2
102
RTVSPost2010PropOp53
 70
     1
102
RTVSPost2010Prop54
  1
strokes_ogs.tif
102
RTVSPost2010PropOp54
 70
     1
102
RTVSPost2010Prop55
280
     0
102
RTVSPost2010PropOp55
 70
     1
102
RTVSPost2010Prop56
140
1.0
102
RTVSPost2010PropOp56
 70
     1
102
RTVSPost2010Prop57
140
1.0
102
RTVSPost2010PropOp57
 70
     1
102
RTVSPropertyOp0
 70
     1
102
RTVSPropertyOp1
 70
     1
102
RTVSPropertyOp2
 70
     1
102
RTVSPropertyOp3
 70
     1
102
RTVSPropertyOp4
 70
     1
102
RTVSPropertyOp5
 70
     1
102
RTVSPropertyOp6
 70
     1
102
RTVSPropertyOp7
 70
     1
102
RTVSPropertyOp8
 70
     1
102
RTVSPropertyOp9
 70
     1
102
RTVSPropertyOp10
 70
     1
102
RTVSPropertyOp11
 70
     1
102
RTVSPropertyOp12
 70
     1
102
RTVSPropertyOp13
 70
     1
102
RTVSPropertyOp14
 70
     1
102
RTVSPropertyOp15
 70
     1
102
RTVSPropertyOp16
 70
     1
102
RTVSPropertyOp17
 70
     1
102
RTVSPropertyOp18
 70
     1
102
RTVSPropertyOp19
 70
     1
102
RTVSPropertyOp20
 70
     1
102
RTVSPropertyOp21
 70
     1
102
RTVSPropertyOp22
 70
     1
102
RTVSPropertyOp23
 70
     1
102
RTVSPropertyOp24
 70
     1
102
RTVSPropertyOp25
 70
     1
102
RTVSPropertyOp26
 70
     1
102
RTVSPropertyOp27
 70
     1
102
RTVSPropertyOp28
 70
     1
102
RTVSPropertyOp29
 70
     1
102
RTVSPropertyOp30
 70
     1
102
RTVSPropertyOp31
 70
     1
102
RTVSPropertyOp32
 70
     1
102
RTVSPropertyOp33
 70
     1
102
RTVSPropertyOp34
 70
     1
102
RTVSPropertyOp35
 70
     1
102
RTVSPropertyOp36
 70
     1
102
RTVSPropertyOp37
 70
     1
102
RTVSPropertyOp38
 70
     1
102
RTVSPropertyOp39
 70
     1
102
RTVSPropertyOp40
 70
     1
102
RTVSPropertyOp41
 70
     1
102
RTVSPropertyOp42
 70
     1
102
RTVSPropertyOp43
 70
     1
102
RTVSPropertyOp44
 70
     1
102
RTVSPropertyOp45
 70
     1
102
RTVSPropertyOp46
 70
     1
102
RTVSPropertyOp47
 70
     1
102
RTVSPropertyOp48
 70
     1
102
RTVSPropertyOp49
 70
     1
102
RTVSPropertyOp50
 70
     1
102
RTVSPropertyOp51
 70
     0
102
RTVSPropertyOp52
 70
     0
102
RTVSPropertyOp53
 70
     1
102
RTVSPropertyOp54
 70
     1
102
RTVSPropertyOp55
 70
     1
102
RTVSPropertyOp56
 70
     1
102
RTVSPropertyOp57
 70
     1
102
RTVSPropertyOp58
 70
     1
102
RTVSPropertyOp59
 70
     1
102
RTVSPropertyOp60
 70
     1
102
RTVSPropertyOp61
 70
     1
102
RTVSPropertyOp62
 70
     1
  0
XRECORD
  5
E8
102
{ACAD_REACTORS
330
E7
102
}
330
E7
100
AcDbXrecord
280
     1
102
RTVSPost2010Prop28
280
     0
102
RTVSPost2010PropOp28
 70
     1
102
RTVSPost2010Prop29
280
     1
102
RTVSPost2010PropOp29
 70
     1
102
RTVSPost2010Prop30
280
     1
102
RTVSPost2010PropOp30
 70
     1
102
RTVSPost2010Prop31
280
     0
102
RTVSPost2010PropOp31
 70
     1
102
RTVSPost2010Prop32
280
     0
102
RTVSPost2010PropOp32
 70
     1
102
RTVSPost2010Prop33
280
     0
102
RTVSPost2010PropOp33
 70
     1
102
RTVSPost2010Prop34
280
     0
102
RTVSPost2010PropOp34
 70
     1
102
RTVSPost2010Prop35
280
     0
102
RTVSPost2010PropOp35
 70
     1
102
RTVSPost2010Prop36
280
     0
102
RTVSPost2010PropOp36
 70
     1
102
RTVSPost2010Prop37
 90
       50
102
RTVSPost2010PropOp37
 70
     1
102
RTVSPost2010Prop38
140
0.0
102
RTVSPost2010PropOp38
 70
     1
102
RTVSPost2010Prop39
140
1.0
102
RTVSPost2010PropOp39
 70
     1
102
RTVSPost2010Prop40
 90
        0
102
RTVSPost2010PropOp40
 70
     1
102
RTVSPost2010Prop41ColorIndex
 90
       18
102
RTVSPost2010Prop41ColorRGB
 90
        0
102
RTVSPost2010PropOp41
 70
     1
102
RTVSPost2010Prop42
 90
       50
102
RTVSPost2010PropOp42
 70
     1
102
RTVSPost2010Prop43
 90
        3
102
RTVSPost2010PropOp43
 70
     1
102
RTVSPost2010Prop44ColorIndex
 90
        5
102
RTVSPost2010Prop44ColorRGB
 90
      255
102
RTVSPost2010PropOp44
 70
     1
102
RTVSPost2010Prop45
280
     0
102
RTVSPost2010PropOp45
 70
     1
102
RTVSPost2010Prop46
 90
       50
102
RTVSPost2010PropOp46
 70
     1
102
RTVSPost2010Prop47
 90
       50
102
RTVSPost2010PropOp47
 70
     1
102
RTVSPost2010Prop48
 90
       50
102
RTVSPost2010PropOp48
 70
     1
102
RTVSPost2010Prop49
280
     0
102
RTVSPost2010PropOp49
 70
     1
102
RTVSPost2010Prop50
 90
       50
102
RTVSPost2010PropOp50
 70
     1
102
RTVSPost2010Prop51ColorIndex
 90
      256
102
RTVSPost2010Prop51ColorRGB
 90
-16777216
102
RTVSPost2010PropOp51
 70
     0
102
RTVSPost2010Prop52
140
1.0
102
RTVSPost2010PropOp52
 70
     0
102
RTVSPost2010Prop53
 90
        2
102
RTVSPost2010PropOp53
 70
     1
102
RTVSPost2010Prop54
  1
strokes_ogs.tif
102
RTVSPost2010PropOp54
 70
     1
102
RTVSPost2010Prop55
280
     0
102
RTVSPost2010PropOp55
 70
     1
102
RTVSPost2010Prop56
140
1.0
102
RTVSPost2010PropOp56
 70
     1
102
RTVSPost2010Prop57
140
1.0
102
RTVSPost2010PropOp57
 70
     1
102
RTVSPropertyOp0
 70
     1
102
RTVSPropertyOp1
 70
     1
102
RTVSPropertyOp2
 70
     1
102
RTVSPropertyOp3
 70
     1
102
RTVSPropertyOp4
 70
     1
102
RTVSPropertyOp5
 70
     1
102
RTVSPropertyOp6
 70
     1
102
RTVSPropertyOp7
 70
     1
102
RTVSPropertyOp8
 70
     1
102
RTVSPropertyOp9
 70
     1
102
RTVSPropertyOp10
 70
     1
102
RTVSPropertyOp11
 70
     1
102
RTVSPropertyOp12
 70
     1
102
RTVSPropertyOp13
 70
     1
102
RTVSPropertyOp14
 70
     1
102
RTVSPropertyOp15
 70
     1
102
RTVSPropertyOp16
 70
     1
102
RTVSPropertyOp17
 70
     1
102
RTVSPropertyOp18
 70
     1
102
RTVSPropertyOp19
 70
     1
102
RTVSPropertyOp20
 70
     1
102
RTVSPropertyOp21
 70
     1
102
RTVSPropertyOp22
 70
     1
102
RTVSPropertyOp23
 70
     1
102
RTVSPropertyOp24
 70
     1
102
RTVSPropertyOp25
 70
     1
102
RTVSPropertyOp26
 70
     1
102
RTVSPropertyOp27
 70
     1
102
RTVSPropertyOp28
 70
     1
102
RTVSPropertyOp29
 70
     1
102
RTVSPropertyOp30
 70
     1
102
RTVSPropertyOp31
 70
     1
102
RTVSPropertyOp32
 70
     1
102
RTVSPropertyOp33
 70
     1
102
RTVSPropertyOp34
 70
     1
102
RTVSPropertyOp35
 70
     1
102
RTVSPropertyOp36
 70
     1
102
RTVSPropertyOp37
 70
     1
102
RTVSPropertyOp38
 70
     1
102
RTVSPropertyOp39
 70
     1
102
RTVSPropertyOp40
 70
     1
102
RTVSPropertyOp41
 70
     1
102
RTVSPropertyOp42
 70
     1
102
RTVSPropertyOp43
 70
     1
102
RTVSPropertyOp44
 70
     1
102
RTVSPropertyOp45
 70
     1
102
RTVSPropertyOp46
 70
     1
102
RTVSPropertyOp47
 70
     1
102
RTVSPropertyOp48
 70
     1
102
RTVSPropertyOp49
 70
     1
102
RTVSPropertyOp50
 70
     1
102
RTVSPropertyOp51
 70
     0
102
RTVSPropertyOp52
 70
     0
102
RTVSPropertyOp53
 70
     1
102
RTVSPropertyOp54
 70
     1
102
RTVSPropertyOp55
 70
     1
102
RTVSPropertyOp56
 70
     1
102
RTVSPropertyOp57
 70
     1
102
RTVSPropertyOp58
 70
     1
102
RTVSPropertyOp59
 70
     1
102
RTVSPropertyOp60
 70
     1
102
RTVSPropertyOp61
 70
     1
102
RTVSPropertyOp62
 70
     1
  0
XRECORD
  5
100
102
{ACAD_REACTORS
330
FF
102
}
330
FF
100
AcDbXrecord
280
     1
102
RTVSPost2010Prop28
280
     0
102
RTVSPost2010PropOp28
 70
     1
102
RTVSPost2010Prop29
280
     1
102
RTVSPost2010PropOp29
 70
     1
102
RTVSPost2010Prop30
280
     1
102
RTVSPost2010PropOp30
 70
     1
102
RTVSPost2010Prop31
280
     0
102
RTVSPost2010PropOp31
 70
     1
102
RTVSPost2010Prop32
280
     0
102
RTVSPost2010PropOp32
 70
     1
102
RTVSPost2010Prop33
280
     0
102
RTVSPost2010PropOp33
 70
     1
102
RTVSPost2010Prop34
280
     0
102
RTVSPost2010PropOp34
 70
     1
102
RTVSPost2010Prop35
280
     0
102
RTVSPost2010PropOp35
 70
     1
102
RTVSPost2010Prop36
280
     0
102
RTVSPost2010PropOp36
 70
     1
102
RTVSPost2010Prop37
 90
       50
102
RTVSPost2010PropOp37
 70
     1
102
RTVSPost2010Prop38
140
0.0
102
RTVSPost2010PropOp38
 70
     1
102
RTVSPost2010Prop39
140
1.0
102
RTVSPost2010PropOp39
 70
     1
102
RTVSPost2010Prop40
 90
        0
102
RTVSPost2010PropOp40
 70
     1
102
RTVSPost2010Prop41ColorIndex
 90
       18
102
RTVSPost2010Prop41ColorRGB
 90
        0
102
RTVSPost2010PropOp41
 70
     1
102
RTVSPost2010Prop42
 90
       50
102
RTVSPost2010PropOp42
 70
     1
102
RTVSPost2010Prop43
 90
        3
102
RTVSPost2010PropOp43
 70
     1
102
RTVSPost2010Prop44ColorIndex
 90
        5
102
RTVSPost2010Prop44ColorRGB
 90
      255
102
RTVSPost2010PropOp44
 70
     1
102
RTVSPost2010Prop45
280
     0
102
RTVSPost2010PropOp45
 70
     1
102
RTVSPost2010Prop46
 90
       50
102
RTVSPost2010PropOp46
 70
     1
102
RTVSPost2010Prop47
 90
       50
102
RTVSPost2010PropOp47
 70
     1
102
RTVSPost2010Prop48
 90
       50
102
RTVSPost2010PropOp48
 70
     1
102
RTVSPost2010Prop49
280
     0
102
RTVSPost2010PropOp49
 70
     1
102
RTVSPost2010Prop50
 90
       50
102
RTVSPost2010PropOp50
 70
     1
102
RTVSPost2010Prop51ColorIndex
 90
      256
102
RTVSPost2010Prop51ColorRGB
 90
-16777216
102
RTVSPost2010PropOp51
 70
     0
102
RTVSPost2010Prop52
140
1.0
102
RTVSPost2010PropOp52
 70
     0
102
RTVSPost2010Prop53
 90
        2
102
RTVSPost2010PropOp53
 70
     1
102
RTVSPost2010Prop54
  1
strokes_ogs.tif
102
RTVSPost2010PropOp54
 70
     1
102
RTVSPost2010Prop55
280
     0
102
RTVSPost2010PropOp55
 70
     1
102
RTVSPost2010Prop56
140
1.0
102
RTVSPost2010PropOp56
 70
     1
102
RTVSPost2010Prop57
140
1.0
102
RTVSPost2010PropOp57
 70
     1
102
RTVSPropertyOp0
 70
     1
102
RTVSPropertyOp1
 70
     1
102
RTVSPropertyOp2
 70
     1
102
RTVSPropertyOp3
 70
     1
102
RTVSPropertyOp4
 70
     1
102
RTVSPropertyOp5
 70
     1
102
RTVSPropertyOp6
 70
     1
102
RTVSPropertyOp7
 70
     1
102
RTVSPropertyOp8
 70
     1
102
RTVSPropertyOp9
 70
     1
102
RTVSPropertyOp10
 70
     1
102
RTVSPropertyOp11
 70
     1
102
RTVSPropertyOp12
 70
     1
102
RTVSPropertyOp13
 70
     1
102
RTVSPropertyOp14
 70
     1
102
RTVSPropertyOp15
 70
     1
102
RTVSPropertyOp16
 70
     1
102
RTVSPropertyOp17
 70
     1
102
RTVSPropertyOp18
 70
     1
102
RTVSPropertyOp19
 70
     1
102
RTVSPropertyOp20
 70
     1
102
RTVSPropertyOp21
 70
     1
102
RTVSPropertyOp22
 70
     1
102
RTVSPropertyOp23
 70
     1
102
RTVSPropertyOp24
 70
     1
102
RTVSPropertyOp25
 70
     1
102
RTVSPropertyOp26
 70
     1
102
RTVSPropertyOp27
 70
     1
102
RTVSPropertyOp28
 70
     1
102
RTVSPropertyOp29
 70
     1
102
RTVSPropertyOp30
 70
     1
102
RTVSPropertyOp31
 70
     1
102
RTVSPropertyOp32
 70
     1
102
RTVSPropertyOp33
 70
     1
102
RTVSPropertyOp34
 70
     1
102
RTVSPropertyOp35
 70
     1
102
RTVSPropertyOp36
 70
     1
102
RTVSPropertyOp37
 70
     1
102
RTVSPropertyOp38
 70
     1
102
RTVSPropertyOp39
 70
     1
102
RTVSPropertyOp40
 70
     1
102
RTVSPropertyOp41
 70
     1
102
RTVSPropertyOp42
 70
     1
102
RTVSPropertyOp43
 70
     1
102
RTVSPropertyOp44
 70
     1
102
RTVSPropertyOp45
 70
     1
102
RTVSPropertyOp46
 70
     1
102
RTVSPropertyOp47
 70
     1
102
RTVSPropertyOp48
 70
     1
102
RTVSPropertyOp49
 70
     1
102
RTVSPropertyOp50
 70
     1
102
RTVSPropertyOp51
 70
     0
102
RTVSPropertyOp52
 70
     0
102
RTVSPropertyOp53
 70
     1
102
RTVSPropertyOp54
 70
     1
102
RTVSPropertyOp55
 70
     1
102
RTVSPropertyOp56
 70
     1
102
RTVSPropertyOp57
 70
     1
102
RTVSPropertyOp58
 70
     1
102
RTVSPropertyOp59
 70
     1
102
RTVSPropertyOp60
 70
     1
102
RTVSPropertyOp61
 70
     1
102
RTVSPropertyOp62
 70
     1
  0
ENDSEC
  0
EOF
